  0
SECTION
  2
HEADER
  9
$ACADVER
  1
AC1009
  9
$INSBASE
 10
170.3973702271077
 20
6.768009456570736
 30
0.0
  9
$EXTMIN
 10
168.8126331755077
 20
6.761407637176303
 30
0.0
  9
$EXTMAX
 10
176.4573702271077
 20
21.17550945657074
 30
0.0
  9
$LIMMIN
 10
0.0
 20
0.0
  9
$LIMMAX
 10
11.692913385800001
 20
8.2677165353999982
  9
$ORTHOMODE
 70
     1
  9
$REGENMODE
 70
     1
  9
$FILLMODE
 70
     1
  9
$QTEXTMODE
 70
     0
  9
$MIRRTEXT
 70
     0
  9
$DRAGMODE
 70
     2
  9
$LTSCALE
 40
0.6431102362
  9
$OSMODE
 70
  3071
  9
$ATTMODE
 70
     1
  9
$TEXTSIZE
 40
0.2
  9
$TRACEWID
 40
0.05
  9
$TEXTSTYLE
  7
STANDARD
  9
$CLAYER
  8
0
  9
$CELTYPE
  6
BYLAYER
  9
$CECOLOR
 62
   256
  9
$DIMSCALE
 40
1.0
  9
$DIMASZ
 40
0.1875
  9
$DIMEXO
 40
0.0625
  9
$DIMDLI
 40
0.4443307087
  9
$DIMRND
 40
0.0
  9
$DIMDLE
 40
0.0
  9
$DIMEXE
 40
0.125
  9
$DIMTP
 40
0.01
  9
$DIMTM
 40
0.01
  9
$DIMTXT
 40
1.0
  9
$DIMCEN
 40
0.1052362205
  9
$DIMTSZ
 40
0.0
  9
$DIMTOL
 70
     1
  9
$DIMLIM
 70
     0
  9
$DIMTIH
 70
     1
  9
$DIMTOH
 70
     1
  9
$DIMSE1
 70
     0
  9
$DIMSE2
 70
     0
  9
$DIMTAD
 70
     0
  9
$DIMZIN
 70
     0
  9
$DIMBLK
  1

  9
$DIMASO
 70
     1
  9
$DIMSHO
 70
     1
  9
$DIMPOST
  1
\X
  9
$DIMAPOST
  1

  9
$DIMALT
 70
     1
  9
$DIMALTD
 70
     2
  9
$DIMALTF
 40
25.399999999999999
  9
$DIMLFAC
 40
1.0
  9
$DIMTOFL
 70
     0
  9
$DIMTVP
 40
0.0
  9
$DIMTIX
 70
     0
  9
$DIMSOXD
 70
     0
  9
$DIMSAH
 70
     0
  9
$DIMBLK1
  1

  9
$DIMBLK2
  1

  9
$DIMSTYLE
  2
STANDARD
  9
$DIMCLRD
 70
     0
  9
$DIMCLRE
 70
     0
  9
$DIMCLRT
 70
     0
  9
$DIMTFAC
 40
1.0
  9
$DIMGAP
 40
0.09
  9
$LUNITS
 70
     2
  9
$LUPREC
 70
     4
  9
$SKETCHINC
 40
0.1
  9
$FILLETRAD
 40
0.0
  9
$AUNITS
 70
     0
  9
$AUPREC
 70
     0
  9
$MENU
  1
.
  9
$ELEVATION
 40
0.0
  9
$PELEVATION
 40
0.0
  9
$THICKNESS
 40
0.0
  9
$LIMCHECK
 70
     0
  9
$BLIPMODE
 70
     0
  9
$CHAMFERA
 40
0.0
  9
$CHAMFERB
 40
0.0
  9
$SKPOLY
 70
     0
  9
$TDCREATE
 40
2458172.4620311921
  9
$TDUPDATE
 40
2458358.5197124188
  9
$TDINDWG
 40
0.0689705671
  9
$TDUSRTIMER
 40
0.0689705671
  9
$USRTIMER
 70
     1
  9
$ANGBASE
 50
0.0
  9
$ANGDIR
 70
     0
  9
$PDMODE
 70
     0
  9
$PDSIZE
 40
0.3125
  9
$PLINEWID
 40
0.0
  9
$COORDS
 70
     1
  9
$SPLFRAME
 70
     0
  9
$SPLINETYPE
 70
     6
  9
$SPLINESEGS
 70
     8
  9
$ATTDIA
 70
     1
  9
$ATTREQ
 70
     1
  9
$HANDLING
 70
     1
  9
$HANDSEED
  5
2004
  9
$SURFTAB1
 70
     6
  9
$SURFTAB2
 70
     6
  9
$SURFTYPE
 70
     6
  9
$SURFU
 70
     6
  9
$SURFV
 70
     6
  9
$UCSNAME
  2

  9
$UCSORG
 10
0.0
 20
0.0
 30
0.0
  9
$UCSXDIR
 10
1.0
 20
0.0
 30
0.0
  9
$UCSYDIR
 10
0.0
 20
1.0
 30
0.0
  9
$PUCSNAME
  2

  9
$PUCSORG
 10
0.0
 20
0.0
 30
0.0
  9
$PUCSXDIR
 10
1.0
 20
0.0
 30
0.0
  9
$PUCSYDIR
 10
0.0
 20
1.0
 30
0.0
  9
$USERI1
 70
     0
  9
$USERI2
 70
     0
  9
$USERI3
 70
     0
  9
$USERI4
 70
     0
  9
$USERI5
 70
     0
  9
$USERR1
 40
0.0
  9
$USERR2
 40
0.0
  9
$USERR3
 40
0.0
  9
$USERR4
 40
0.0
  9
$USERR5
 40
0.0
  9
$WORLDVIEW
 70
     1
  9
$SHADEDGE
 70
     3
  9
$SHADEDIF
 70
    70
  9
$TILEMODE
 70
     1
  9
$MAXACTVP
 70
    64
  9
$PLIMCHECK
 70
     0
  9
$PEXTMIN
 10
1.0000000000000000E+020
 20
1.0000000000000000E+020
 30
1.0000000000000000E+020
  9
$PEXTMAX
 10
-1.0000000000000000E+020
 20
-1.0000000000000000E+020
 30
-1.0000000000000000E+020
  9
$PLIMMIN
 10
0.0
 20
0.0
  9
$PLIMMAX
 10
12.0
 20
9.0
  9
$UNITMODE
 70
     0
  9
$VISRETAIN
 70
     1
  9
$PLINEGEN
 70
     0
  9
$PSLTSCALE
 70
     1
  0
ENDSEC
  0
SECTION
  2
TABLES
  0
TABLE
  2
VPORT
 70
     1
  0
VPORT
  2
*ACTIVE
 70
     0
 10
0.0
 20
0.0
 11
1.0
 21
1.0
 12
0.0
 22
0.0
 13
0.0
 23
0.0
 14
1.0
 24
1.0
 15
0.0
 25
0.0
 16
0.0
 26
0.0
 36
45.88194549884097
 17
172.63500227245771
 27
13.968458546873521
 37
0.0
 40
16.316767831904532
 41
2.0984340044742731
 42
50.0
 43
0.0
 44
0.0
 50
0.0
 51
0.0
 71
     0
 72
   100
 73
     1
 74
     1
 75
     0
 76
     0
 77
     0
 78
     0
  0
ENDTAB
  0
TABLE
  2
LTYPE
 70
     2
  0
LTYPE
  2
CONTINUOUS
 70
     0
  3
Solid line
 72
    65
 73
     0
 40
0.0
  0
LTYPE
  2
PHANTOM2
 70
     0
  3
___ _ _ ___ _ _ ___ _ _ ___ _ _
 72
    65
 73
     6
 40
1.25
 49
0.625
 49
-0.125
 49
0.125
 49
-0.125
 49
0.125
 49
-0.125
  0
ENDTAB
  0
TABLE
  2
LAYER
 70
     2
  0
LAYER
  2
0
 70
     0
 62
   255
  6
CONTINUOUS
  0
LAYER
  2
DEFPOINTS
 70
     0
 62
     7
  6
CONTINUOUS
  0
ENDTAB
  0
TABLE
  2
STYLE
 70
     1
  0
STYLE
  2
STANDARD
 70
     0
 40
0.0
 41
0.8
 50
0.0
 71
     0
 42
0.2
  3
txt
  4

  0
ENDTAB
  0
TABLE
  2
VIEW
 70
     0
  0
ENDTAB
  0
TABLE
  2
UCS
 70
     0
  0
ENDTAB
  0
TABLE
  2
APPID
 70
     9
  0
APPID
  2
ACAD
 70
     0
  0
APPID
  2
ACAD_MLEADERVER
 70
     0
  0
APPID
  2
ACAD_EXEMPT_FROM_CAD_STANDARDS
 70
     0
  0
APPID
  2
ACAD_DSTYLE_DIMJAG
 70
     0
  0
APPID
  2
ACAD_DSTYLE_DIMTALN
 70
     0
  0
APPID
  2
ACAD_NAV_VCDISPLAY
 70
     0
  0
APPID
  2
ACAECLAYERSTANDARD
 70
     0
  0
APPID
  2
ACCMTRANSPARENCY
 70
     0
  0
APPID
  2
ACDBATTR
 70
     0
  0
ENDTAB
  0
TABLE
  2
DIMSTYLE
 70
     1
  0
DIMSTYLE
  2
STANDARD
 70
     0
  3

  4

  5

  6

  7

 40
1.0
 41
0.1875
 42
0.0625
 43
0.38
 44
0.125
 45
0.0
 46
0.0
 47
0.01
 48
0.01
140
0.15625
141
0.09
142
0.0
143
25.399999999999999
144
1.0
145
0.0
146
1.0
147
0.09
 71
     1
 72
     0
 73
     1
 74
     1
 75
     0
 76
     0
 77
     0
 78
     4
170
     0
171
     2
172
     0
173
     0
174
     0
175
     0
176
     0
177
     0
178
     0
  0
ENDTAB
  0
ENDSEC
  0
SECTION
  2
BLOCKS
  0
BLOCK
  8
0
  2
$MODEL_SPACE
 70
     0
 10
0.0
 20
0.0
 30
0.0
  3
$MODEL_SPACE
  1

  0
ENDBLK
  5
21
  8
0
  0
BLOCK
 67
     1
  8
0
  2
$PAPER_SPACE
 70
     0
 10
0.0
 20
0.0
 30
0.0
  3
$PAPER_SPACE
  1

  0
ENDBLK
  5
1D
 67
     1
  8
0
  0
ENDSEC
  0
SECTION
  2
ENTITIES
  0
ATTDEF
  5
157D
  8
DEFPOINTS
 10
170.39180440150619
 20
6.7664076371762993
 30
0.0
 40
0.001
  1
K-14675-4
  3

  2
MODELNUMBER
 70
     0
1001
ACDBATTR
1070
     0
1070
     1
  0
ATTDEF
  5
157E
  8
DEFPOINTS
 10
170.39180440150619
 20
6.7647409705096342
 30
0.0
 40
0.001
  1
LOURE
  3

  2
TRADENAME
 70
     0
1001
ACDBATTR
1070
     0
1070
     1
  0
ATTDEF
  5
157F
  8
DEFPOINTS
 10
170.39180440150619
 20
6.763074303842969
 30
0.0
 40
0.001
  1
BATH FAUCET
  3

  2
PRODUCT
 70
     0
1001
ACDBATTR
1070
     0
1070
     1
  0
ATTDEF
  5
1580
  8
DEFPOINTS
 10
170.39180440150619
 20
6.761407637176303
 30
0.0
 40
0.001
  1
METAL
  3

  2
MATERIAL
 70
     0
1001
ACDBATTR
1070
     0
1070
     1
  0
LINE
  5
1E24
  8
0
 10
169.34737022710769
 20
7.228009456570736
 30
0.0
 11
169.34737022710769
 21
21.130509456570739
 31
0.0
  0
LINE
  5
1E25
  8
0
 10
169.3873702271076
 20
16.016862935570732
 30
0.0
 11
169.3873702271076
 21
16.225459436070729
 31
0.0
  0
LINE
  5
1E26
  8
0
 10
169.4573702271077
 20
16.235364482670729
 30
0.0
 11
169.4573702271077
 21
16.042313225870728
 31
0.0
  0
LINE
  5
1E27
  8
0
 10
168.81612506490771
 20
7.198271252570736
 30
0.0
 11
168.81263431780769
 21
6.7982712525707356
 31
0.0
  0
LINE
  5
1E28
  8
0
 10
171.9521072787077
 20
6.768009456570736
 30
0.0
 11
168.8426331755077
 21
6.768009456570736
 31
0.0
  0
LINE
  5
1E29
  8
0
 10
174.3673702271077
 20
6.768009456570736
 30
0.0
 11
176.4273702271077
 21
6.768009456570736
 31
0.0
  0
LINE
  5
1E2A
  8
0
 10
168.84612392260769
 20
7.228009456570736
 30
0.0
 11
171.94861653160771
 21
7.228009456570736
 31
0.0
  0
LINE
  5
1E2B
  8
0
 10
171.40737022710769
 20
16.225459436070729
 30
0.0
 11
171.40737022710769
 21
16.016862935570732
 31
0.0
  0
LINE
  5
1E2C
  8
0
 10
171.44737022710771
 20
7.228009456570736
 30
0.0
 11
171.4473702271076
 21
21.130509456570739
 31
0.0
  0
LINE
  5
1E2D
  8
0
 10
171.98210613640771
 20
6.7982712525707356
 30
0.0
 11
171.97861538930769
 21
7.198271252570736
 31
0.0
  0
LINE
  5
1E2E
  8
0
 10
174.3673702271077
 20
10.12800945657073
 30
0.0
 11
176.4273702271077
 21
10.12800945657073
 31
0.0
  0
LINE
  5
1E2F
  8
0
 10
176.42630431770769
 20
10.185922842370729
 30
0.0
 11
174.3684361365076
 21
10.185922842370729
 31
0.0
  0
LINE
  5
1E30
  8
0
 10
176.40238358710769
 20
10.87092284237074
 30
0.0
 11
174.39235686710771
 21
10.87092284237074
 31
0.0
  0
LINE
  5
1E31
  8
0
 10
174.3373702271077
 20
6.7980094565707372
 30
0.0
 11
174.3373702271077
 21
10.098009456570731
 31
0.0
  0
LINE
  5
1E32
  8
0
 10
174.33845441170769
 20
10.21696982727074
 30
0.0
 11
174.36978767120769
 21
11.114236983070731
 31
0.0
  0
LINE
  5
1E33
  8
0
 10
174.4733826231076
 20
10.18600958817073
 30
0.0
 11
174.47288474000769
 21
10.157485884370731
 31
0.0
  0
LINE
  5
1E34
  8
0
 10
176.45628604250771
 20
10.21696982727074
 30
0.0
 11
176.42495278300771
 21
11.114236983070731
 31
0.0
  0
LINE
  5
1E35
  8
0
 10
176.3213578314076
 20
10.18600956617073
 30
0.0
 11
176.3218557141077
 21
10.157485884370731
 31
0.0
  0
LINE
  5
1E36
  8
0
 10
176.4573702271077
 20
10.098009456570731
 30
0.0
 11
176.4573702271077
 21
6.7980094565707372
 31
0.0
  0
LINE
  5
1E37
  8
0
 10
169.6959660300077
 20
16.25407913057073
 30
0.0
 11
169.61388198580769
 21
16.27520475797073
 31
0.0
  0
LINE
  5
1E38
  8
0
 10
171.4023702271077
 20
15.900190316670731
 30
0.0
 11
169.3923702271077
 21
15.900190316670731
 31
0.0
  0
LINE
  5
1E39
  8
0
 10
171.28237022710769
 20
15.92847458797074
 30
0.0
 11
169.51237022710771
 21
15.92847458797074
 31
0.0
  0
LINE
  5
1E3A
  8
0
 10
169.75516928620769
 20
16.031005071170739
 30
0.0
 11
171.0395711680076
 21
16.031005071170739
 31
0.0
  0
LINE
  5
1E3B
  8
0
 10
171.0395711680076
 20
16.246672639470741
 30
0.0
 11
169.75516928620769
 21
16.246672639470741
 31
0.0
  0
LINE
  5
1E3C
  8
0
 10
169.55920596961229
 20
16.282027973584849
 30
0.0
 11
169.5233605178077
 21
16.282027978570738
 31
0.0
  0
LINE
  5
1E3D
  8
0
 10
169.51237022710771
 20
16.313847783670742
 30
0.0
 11
171.28237022710769
 21
16.313847783670742
 31
0.0
  0
LINE
  5
1E3E
  8
0
 10
169.3923702271077
 20
16.34213205497073
 30
0.0
 11
171.4023702271077
 21
16.34213205497073
 31
0.0
  0
LINE
  5
1E3F
  8
0
 10
169.3923702271077
 20
21.17550945657074
 30
0.0
 11
171.4023702271077
 21
21.17550945657074
 31
0.0
  0
ARC
  5
1E40
  8
0
 10
171.4023702271077
 20
21.130509456570739
 30
0.0
 40
0.045
 50
0.0
 51
90.0
  0
ARC
  5
1E41
  8
0
 10
169.3923702271077
 20
21.130509456570739
 30
0.0
 40
0.045
 50
90.0
 51
180.0
  0
ARC
  5
1E42
  8
0
 10
168.8426331755077
 20
6.7980094565707372
 30
0.0
 40
0.03
 50
179.4999999998
 51
270.0
  0
ARC
  5
1E43
  8
0
 10
171.9521072787077
 20
6.7980094565707372
 30
0.0
 40
0.03
 50
270.0
 51
0.5000000001999938
  0
ARC
  5
1E44
  8
0
 10
168.84612392260769
 20
7.1980094565707358
 30
0.0
 40
0.03
 50
90.0
 51
179.49999999970001
  0
ARC
  5
1E45
  8
0
 10
171.94861653160771
 20
7.1980094565707358
 30
0.0
 40
0.03
 50
0.5000000003000009
 51
90.0
  0
ARC
  5
1E46
  8
0
 10
175.3973702271077
 20
-16.93907715762926
 30
0.0
 40
28.100000000000001
 50
87.963293315499271
 51
92.036706684499066
  0
ARC
  5
1E47
  8
0
 10
174.36976033259921
 20
6.8003995620622328
 30
0.0
 40
0.0324781701764492
 50
184.22027671820621
 51
265.7797232819932
  0
ARC
  5
1E48
  8
0
 10
174.44288930920769
 20
10.15800945657074
 30
0.0
 40
0.03
 50
270.00000355460008
 51
359.00000006229999
  0
ARC
  5
1E49
  8
0
 10
174.39235686360971
 20
10.9009228423756
 30
0.0
 40
0.0300000000048689
 50
178.00000001070561
 51
269.99999999603801
  0
ARC
  5
1E4A
  8
0
 10
174.39976939600771
 20
11.113189998170739
 30
0.0
 40
0.03
 50
92.036706684499066
 51
177.9999999975999
  0
ARC
  5
1E4B
  8
0
 10
174.3673702271077
 20
10.098009456570731
 30
0.0
 40
0.03
 50
89.999999999799684
 51
179.9999999998
  0
ARC
  5
1E4C
  8
0
 10
174.36844123527729
 20
10.2159277661851
 30
0.0
 40
0.0300049242475892
 50
178.00973631640929
 51
269.9902636653722
  0
ARC
  5
1E4D
  8
0
 10
176.4273702271077
 20
6.7980094565707372
 30
0.0
 40
0.03
 50
270.00000000029962
 51
359.99999999950001
  0
CIRCLE
  5
1E4E
  8
0
 10
175.3973702271077
 20
10.560922842370729
 30
0.0
 40
0.225
  0
ARC
  5
1E4F
  8
0
 10
176.35185114500771
 20
10.15800945657074
 30
0.0
 40
0.03
 50
180.99999993770001
 51
269.9999964453998
  0
ARC
  5
1E50
  8
0
 10
176.42630431770769
 20
10.21592284237073
 30
0.0
 40
0.03
 50
270.0
 51
2.0000000003000031
  0
ARC
  5
1E51
  8
0
 10
176.4273702271077
 20
10.098009456570731
 30
0.0
 40
0.03
 50
0.0000000005999798
 51
89.999999999799684
  0
ARC
  5
1E52
  8
0
 10
176.40238359060561
 20
10.900922842375589
 30
0.0
 40
0.0300000000048524
 50
270.0000000039359
 51
1.9999999893135449
  0
ARC
  5
1E53
  8
0
 10
176.3949710581077
 20
11.113189998170739
 30
0.0
 40
0.03
 50
2.0000000023999891
 51
87.963293315499271
  0
ARC
  5
1E54
  8
0
 10
169.38730605813339
 20
16.30156416369902
 30
0.0
 40
0.0408827544281673
 50
82.884464272007435
 51
167.64431517262
  0
ARC
  5
1E55
  8
0
 10
169.3873282456845
 20
15.94078958587858
 30
0.0
 40
0.040911150520153
 50
192.391962465278
 51
277.07925809300423
  0
ARC
  5
1E56
  8
0
 10
171.40738834984819
 20
15.940823327151049
 30
0.0
 40
0.0409417036349569
 50
262.95969574887818
 51
347.56908369283423
  0
ARC
  5
1E57
  8
0
 10
171.40733363358331
 20
16.30142166400702
 30
0.0
 40
0.0410118438534562
 50
12.52003171647768
 51
96.951188838895092
  0
ARC
  5
1E58
  8
0
 10
169.46786535215671
 20
16.220686930721111
 30
0.0
 40
0.080636480354547
 50
118.5578054085093
 51
176.60694133299589
  0
ARC
  5
1E59
  8
0
 10
169.51021774925479
 20
16.15626827450944
 30
0.0
 40
0.1575942095015726
 50
89.217409499239949
 51
120.8869287340528
  0
ARC
  5
1E5A
  8
0
 10
169.4688715260333
 20
16.022074464702978
 30
0.0
 40
0.0816677522799818
 50
183.6587471421752
 51
242.85952779278651
  0
ARC
  5
1E5B
  8
0
 10
169.5105460585699
 20
16.0877215945522
 30
0.0
 40
0.1592574541301378
 50
240.2901751085914
 51
270.65629231901761
  0
ARC
  5
1E5C
  8
0
 10
171.28548705127869
 20
16.08041286826581
 30
0.0
 40
0.1519702458112684
 50
268.82481342633849
 51
306.78862499001241
  0
ARC
  5
1E5D
  8
0
 10
171.33156142273549
 20
16.019835482478818
 30
0.0
 40
0.075867060411334
 50
306.31961717145123
 51
357.75451957922229
  0
ARC
  5
1E5E
  8
0
 10
171.32402961029919
 20
16.219195042204909
 30
0.0
 40
0.0835757204008657
 50
4.2986200404385846
 51
63.567700389306331
  0
ARC
  5
1E5F
  8
0
 10
171.28406334584821
 20
16.153738189900071
 30
0.0
 40
0.1601185456731226
 50
61.187149753777639
 51
90.605865894744923
  0
ARC
  5
1E60
  8
0
 10
169.75494729345999
 20
16.485219896221292
 30
0.0
 40
0.2385473600441072
 50
255.6850529329414
 51
270.05331960749021
  0
ARC
  5
1E61
  8
0
 10
169.55946897857299
 20
16.061658090527128
 30
0.0
 40
0.2203700400067773
 50
75.704876529902364
 51
90.068381831753797
  0
ARC
  5
1E62
  8
0
 10
169.5160756291427
 20
16.22233746066803
 30
0.0
 40
0.0601334144245453
 50
83.041786497564644
 51
167.4885138504321
  0
LINE
  5
1E63
  8
0
 10
169.6959660300077
 20
16.023598577970741
 30
0.0
 11
169.61388198580769
 21
16.002472950570741
 31
0.0
  0
LINE
  5
1E64
  8
0
 10
169.55920596961229
 20
15.99564973495662
 30
0.0
 11
169.5233605178077
 21
15.99564972997074
 31
0.0
  0
ARC
  5
1E65
  8
0
 10
169.75494729345999
 20
15.79245781232018
 30
0.0
 40
0.2385473600441072
 50
89.946680392508227
 51
104.3149470670586
  0
ARC
  5
1E66
  8
0
 10
169.55946897857299
 20
16.21601961801435
 30
0.0
 40
0.2203700400067773
 50
269.93161816824619
 51
284.29512347009762
  0
ARC
  5
1E67
  8
0
 10
169.5160756291427
 20
16.055340247873438
 30
0.0
 40
0.0601334144245453
 50
192.5114861495679
 51
276.9582135024354
  0
LINE
  5
1E68
  8
0
 10
171.3373702271077
 20
16.235364482670729
 30
0.0
 11
171.3373702271077
 21
16.042313225870728
 31
0.0
  0
LINE
  5
1E69
  8
0
 10
171.0987744242077
 20
16.25407913057073
 30
0.0
 11
171.18085846840759
 21
16.27520475797073
 31
0.0
  0
LINE
  5
1E6A
  8
0
 10
171.23553448460299
 20
16.282027973584849
 30
0.0
 11
171.2713799364077
 21
16.282027978570738
 31
0.0
  0
ARC
  5
1E6B
  8
0
 10
171.03979316075541
 20
16.485219896221292
 30
0.0
 40
0.2385473600441072
 50
269.9466803925099
 51
284.3149470670586
  0
ARC
  5
1E6C
  8
0
 10
171.23527147564229
 20
16.061658090527128
 30
0.0
 40
0.2203700400067773
 50
89.931618168246203
 51
104.29512347009759
  0
ARC
  5
1E6D
  8
0
 10
171.2786648250727
 20
16.22233746066803
 30
0.0
 40
0.0601334144245453
 50
12.511486149567901
 51
96.958213502435342
  0
LINE
  5
1E6E
  8
0
 10
171.0987744242077
 20
16.023598577970741
 30
0.0
 11
171.18085846840759
 21
16.002472950570741
 31
0.0
  0
LINE
  5
1E6F
  8
0
 10
171.23553448460299
 20
15.99564973495662
 30
0.0
 11
171.2713799364077
 21
15.99564972997074
 31
0.0
  0
ARC
  5
1E70
  8
0
 10
171.03979316075541
 20
15.79245781232018
 30
0.0
 40
0.2385473600441072
 50
75.685052932941446
 51
90.053319607490167
  0
ARC
  5
1E71
  8
0
 10
171.23527147564229
 20
16.21601961801435
 30
0.0
 40
0.2203700400067773
 50
255.70487652990241
 51
270.06838183175381
  0
ARC
  5
1E72
  8
0
 10
171.2786648250727
 20
16.055340247873438
 30
0.0
 40
0.0601334144245453
 50
263.04178649756471
 51
347.48851385043213
  0
CIRCLE
  5
1E73
  8
0
 10
175.3973702271077
 20
10.560922842370729
 30
0.0
 40
0.2049999853999997
  0
ENDSEC
  0
EOF
