  0
SECTION
  2
HEADER
  9
$ACADVER
  1
AC1009
  9
$INSBASE
 10
29.6051571962
 20
5.9605883201000012
 30
0.0
  9
$EXTMIN
 10
25.690520121775901
 20
5.9494006376077868
 30
-0.0015258207003583
  9
$EXTMAX
 10
30.706103943637618
 20
14.165198154560009
 30
0.0000000349246037
  9
$LIMMIN
 10
0.0
 20
0.0
  9
$LIMMAX
 10
22.0
 20
17.0
  9
$ORTHOMODE
 70
     1
  9
$REGENMODE
 70
     1
  9
$FILLMODE
 70
     1
  9
$QTEXTMODE
 70
     0
  9
$MIRRTEXT
 70
     0
  9
$DRAGMODE
 70
     2
  9
$LTSCALE
 40
1.2099999999999991
  9
$OSMODE
 70
    47
  9
$ATTMODE
 70
     1
  9
$TEXTSIZE
 40
0.2
  9
$TRACEWID
 40
0.05
  9
$TEXTSTYLE
  7
STANDARD
  9
$CLAYER
  8
0
  9
$CELTYPE
  6
BYLAYER
  9
$CECOLOR
 62
   256
  9
$DIMSCALE
 40
1.0
  9
$DIMASZ
 40
0.1875
  9
$DIMEXO
 40
0.0625
  9
$DIMDLI
 40
0.8359999999999999
  9
$DIMRND
 40
0.0
  9
$DIMDLE
 40
0.0
  9
$DIMEXE
 40
0.125
  9
$DIMTP
 40
0.0
  9
$DIMTM
 40
0.0
  9
$DIMTXT
 40
0.15625
  9
$DIMCEN
 40
0.198
  9
$DIMTSZ
 40
0.0
  9
$DIMTOL
 70
     0
  9
$DIMLIM
 70
     0
  9
$DIMTIH
 70
     1
  9
$DIMTOH
 70
     1
  9
$DIMSE1
 70
     0
  9
$DIMSE2
 70
     0
  9
$DIMTAD
 70
     0
  9
$DIMZIN
 70
     0
  9
$DIMBLK
  1

  9
$DIMASO
 70
     1
  9
$DIMSHO
 70
     1
  9
$DIMPOST
  1

  9
$DIMAPOST
  1

  9
$DIMALT
 70
     0
  9
$DIMALTD
 70
     2
  9
$DIMALTF
 40
25.399999999999999
  9
$DIMLFAC
 40
1.0
  9
$DIMTOFL
 70
     0
  9
$DIMTVP
 40
0.0
  9
$DIMTIX
 70
     0
  9
$DIMSOXD
 70
     0
  9
$DIMSAH
 70
     0
  9
$DIMBLK1
  1

  9
$DIMBLK2
  1

  9
$DIMSTYLE
  2
STANDARD
  9
$DIMCLRD
 70
     0
  9
$DIMCLRE
 70
     0
  9
$DIMCLRT
 70
     0
  9
$DIMTFAC
 40
1.0
  9
$DIMGAP
 40
0.09
  9
$LUNITS
 70
     2
  9
$LUPREC
 70
     4
  9
$SKETCHINC
 40
0.1
  9
$FILLETRAD
 40
0.0
  9
$AUNITS
 70
     0
  9
$AUPREC
 70
     0
  9
$MENU
  1
.
  9
$ELEVATION
 40
0.0
  9
$PELEVATION
 40
0.0
  9
$THICKNESS
 40
0.0
  9
$LIMCHECK
 70
     0
  9
$BLIPMODE
 70
     0
  9
$CHAMFERA
 40
0.0
  9
$CHAMFERB
 40
0.0
  9
$SKPOLY
 70
     0
  9
$TDCREATE
 40
2457276.5118782059
  9
$TDUPDATE
 40
2457276.628111308
  9
$TDINDWG
 40
0.1149107407
  9
$TDUSRTIMER
 40
0.1149107407
  9
$USRTIMER
 70
     1
  9
$ANGBASE
 50
0.0
  9
$ANGDIR
 70
     0
  9
$PDMODE
 70
     0
  9
$PDSIZE
 40
0.3125
  9
$PLINEWID
 40
0.0
  9
$COORDS
 70
     1
  9
$SPLFRAME
 70
     0
  9
$SPLINETYPE
 70
     6
  9
$SPLINESEGS
 70
     8
  9
$ATTDIA
 70
     0
  9
$ATTREQ
 70
     1
  9
$HANDLING
 70
     1
  9
$HANDSEED
  5
9B2
  9
$SURFTAB1
 70
     6
  9
$SURFTAB2
 70
     6
  9
$SURFTYPE
 70
     6
  9
$SURFU
 70
     6
  9
$SURFV
 70
     6
  9
$UCSNAME
  2

  9
$UCSORG
 10
0.0
 20
0.0
 30
0.0
  9
$UCSXDIR
 10
1.0
 20
0.0
 30
0.0
  9
$UCSYDIR
 10
0.0
 20
1.0
 30
0.0
  9
$PUCSNAME
  2

  9
$PUCSORG
 10
0.0
 20
0.0
 30
0.0
  9
$PUCSXDIR
 10
1.0
 20
0.0
 30
0.0
  9
$PUCSYDIR
 10
0.0
 20
1.0
 30
0.0
  9
$USERI1
 70
     0
  9
$USERI2
 70
     0
  9
$USERI3
 70
     0
  9
$USERI4
 70
     0
  9
$USERI5
 70
     0
  9
$USERR1
 40
0.0
  9
$USERR2
 40
0.0
  9
$USERR3
 40
0.0
  9
$USERR4
 40
0.0
  9
$USERR5
 40
0.0
  9
$WORLDVIEW
 70
     1
  9
$SHADEDGE
 70
     3
  9
$SHADEDIF
 70
    70
  9
$TILEMODE
 70
     1
  9
$MAXACTVP
 70
    64
  9
$PLIMCHECK
 70
     0
  9
$PEXTMIN
 10
1.0000000000000000E+020
 20
1.0000000000000000E+020
 30
1.0000000000000000E+020
  9
$PEXTMAX
 10
-1.0000000000000000E+020
 20
-1.0000000000000000E+020
 30
-1.0000000000000000E+020
  9
$PLIMMIN
 10
0.0
 20
0.0
  9
$PLIMMAX
 10
12.0
 20
9.0
  9
$UNITMODE
 70
     0
  9
$VISRETAIN
 70
     1
  9
$PLINEGEN
 70
     0
  9
$PSLTSCALE
 70
     1
  0
ENDSEC
  0
SECTION
  2
TABLES
  0
TABLE
  2
VPORT
 70
     1
  0
VPORT
  2
*ACTIVE
 70
     0
 10
0.0
 20
0.0
 11
1.0
 21
1.0
 12
27.454675225136501
 22
9.8366088536965393
 13
0.0
 23
0.0
 14
1.0
 24
1.0
 15
0.0
 25
0.0
 16
0.0
 26
0.0
 36
1.0
 17
0.0
 27
0.0
 37
0.0
 40
13.23619489250016
 41
2.2293364377182772
 42
50.0
 43
0.0
 44
0.0
 50
0.0
 51
0.0
 71
     0
 72
   100
 73
     1
 74
     1
 75
     0
 76
     0
 77
     0
 78
     0
  0
ENDTAB
  0
TABLE
  2
LTYPE
 70
     6
  0
LTYPE
  2
CONTINUOUS
 70
     0
  3
Solid line
 72
    65
 73
     0
 40
0.0
  0
ENDTAB
  0
TABLE
  2
LAYER
 70
    33
  0
LAYER
  2
0
 70
     0
 62
     7
  6
CONTINUOUS
  0
LAYER
  2
DEFPOINTS
 70
     0
 62
     7
  6
CONTINUOUS
  0
ENDTAB
  0
TABLE
  2
STYLE
 70
     2
  0
STYLE
  2
STANDARD
 70
     0
 40
0.0
 41
0.8
 50
0.0
 71
     0
 42
0.2
  3
txt
  4

  0
ENDTAB
  0
TABLE
  2
VIEW
 70
     4
  0
ENDTAB
  0
TABLE
  2
UCS
 70
     0
  0
ENDTAB
  0
TABLE
  2
APPID
 70
     4
  0
APPID
  2
ACAD
 70
     0
  0
APPID
  2
ACAD_MLEADERVER
 70
     0
  0
APPID
  2
ACAD_NAV_VCDISPLAY
 70
     0
  0
APPID
  2
AcDbAttr
 70
     0
  0
ENDTAB
  0
TABLE
  2
DIMSTYLE
 70
     1
  0
DIMSTYLE
  2
STANDARD
 70
     0
  3

  4

  5

  6

  7

 40
1.0
 41
0.1875
 42
0.0625
 43
0.38
 44
0.125
 45
0.0
 46
0.0
 47
1.5
 48
1.5
140
0.15625
141
0.09
142
0.0
143
25.399999999999999
144
1.0
145
0.0
146
1.0
147
0.09
 71
     0
 72
     0
 73
     1
 74
     1
 75
     0
 76
     0
 77
     0
 78
     4
170
     0
171
     2
172
     0
173
     0
174
     0
175
     0
176
     0
177
     0
178
     0
  0
ENDTAB
  0
ENDSEC
  0
SECTION
  2
BLOCKS
  0
BLOCK
  8
0
  2
$MODEL_SPACE
 70
     0
 10
0.0
 20
0.0
 30
0.0
  3
$MODEL_SPACE
  1

  0
ENDBLK
  5
21
  8
0
  0
BLOCK
 67
     1
  8
0
  2
$PAPER_SPACE
 70
     0
 10
0.0
 20
0.0
 30
0.0
  3
$PAPER_SPACE
  1

  0
ENDBLK
  5
1D
 67
     1
  8
0
  0
ENDSEC
  0
SECTION
  2
ENTITIES
  0
LINE
  5
502
  8
0
 10
30.6751462412
 20
5.9605883201000012
 30
0.0
 11
28.535168151200001
 21
5.9605883201000003
 31
0.0
  0
LINE
  5
503
  8
0
 10
28.535168151200001
 20
6.2355883200999989
 30
0.0
 11
30.6751462412
 21
6.2355883200999989
 31
0.0
  0
LINE
  5
506
  8
0
 10
30.425146241299998
 20
6.7755883200999989
 30
0.0
 11
30.3551462412
 21
6.7755883200999989
 31
0.0
  0
LINE
  5
507
  8
0
 10
30.085146241099999
 20
6.9055883200999988
 30
0.0
 11
30.425146241
 21
6.9055883200999988
 31
0.0
  0
LINE
  5
50A
  8
0
 10
25.692563719700001
 20
11.3595416915
 30
0.0
 11
28.206878294700001
 21
13.873856266500001
 31
0.0
  0
LINE
  5
50B
  8
0
 10
28.472043337700001
 20
13.608691223499999
 30
0.0
 11
25.9577287627
 21
11.094376648500001
 31
0.0
  0
LINE
  5
50C
  8
0
 10
25.692563719700001
 20
11.3595416915
 30
0.0
 11
25.9577287627
 21
11.094376648500001
 31
0.0
  0
LINE
  5
50D
  8
0
 10
28.505168151199999
 20
5.9905883200999988
 30
0.0
 11
28.505168151199999
 21
6.2055883200999986
 31
0.0
  0
LINE
  5
511
  8
0
 10
29.517646241199991
 20
6.2355883200999989
 30
0.0
 11
29.517646241200001
 21
13.175588320099999
 31
0.0
  0
LINE
  5
514
  8
0
 10
29.892646241200001
 20
13.175588320099999
 30
0.0
 11
29.892646241200001
 21
6.2355883200999989
 31
0.0
  0
LINE
  5
515
  8
0
 10
30.055146241199999
 20
6.2655883199999991
 30
0.0
 11
30.055146241199999
 21
6.8755883198000003
 31
0.0
  0
LINE
  5
516
  8
0
 10
30.315146241200001
 20
6.7355883200999989
 30
0.0
 11
30.315146241200001
 21
6.2655883203
 31
0.0
  0
LINE
  5
517
  8
0
 10
30.455146241200001
 20
6.8755883201999994
 30
0.0
 11
30.455146241200001
 21
6.8055883203
 31
0.0
  0
LINE
  5
519
  8
0
 10
30.705146241200001
 20
6.2055883200999986
 30
0.0
 11
30.705146241200001
 21
5.9905883200999988
 31
0.0
  0
ARC
  5
54B
  8
0
 10
28.535168151200001
 20
6.2055883200999986
 30
0.0
 40
0.03
 50
126.0
 51
180.0
  0
ARC
  5
54C
  8
0
 10
28.535168151200001
 20
6.2055883200999986
 30
0.0
 40
0.03
 50
90.0
 51
108.0
  0
ARC
  5
54D
  8
0
 10
28.535168151200001
 20
5.9905883200999988
 30
0.0
 40
0.03
 50
180.0
 51
270.0
  0
ARC
  5
550
  8
0
 10
28.535168151200001
 20
6.2055883200999986
 30
0.0
 40
0.03
 50
90.0
 51
180.0
  0
ARC
  5
551
  8
0
 10
28.535168151200001
 20
5.9905883200999988
 30
0.0
 40
0.03
 50
180.0
 51
270.0
  0
ARC
  5
552
  8
0
 10
28.905146241200001
 20
13.175588320099999
 30
0.0
 40
0.9875
 50
0.0
 51
135.00000000369999
  0
ARC
  5
553
  8
0
 10
28.905146241200001
 20
13.175588320099999
 30
0.0
 40
0.6125
 50
0.0
 51
135.00000000910001
  0
ARC
  5
554
  8
0
 10
30.0851462412
 20
6.2655883200999991
 30
0.0
 40
0.03
 50
180.00000010650001
 51
270.0
  0
ARC
  5
556
  8
0
 10
30.0851462412
 20
6.8755883201000003
 30
0.0
 40
0.03
 50
90.000000224800004
 51
180.0
  0
ARC
  5
558
  8
0
 10
30.2851462412
 20
6.2655883200999991
 30
0.0
 40
0.03
 50
270.00000010640002
 51
360.0
  0
ARC
  5
559
  8
0
 10
30.6751462412
 20
6.2055883200999986
 30
0.0
 40
0.03
 50
0.0
 51
90.0
  0
ARC
  5
55A
  8
0
 10
30.6751462412
 20
5.9905883200999988
 30
0.0
 40
0.03
 50
270.0
 51
360.0
  0
ARC
  5
55D
  8
0
 10
30.3551462412
 20
6.7355883200999989
 30
0.0
 40
0.04
 50
90.0
 51
179.9999999947
  0
ARC
  5
55E
  8
0
 10
30.4251462412
 20
6.8755883201000003
 30
0.0
 40
0.03
 50
0.0000001066
 51
90.0
  0
ARC
  5
55F
  8
0
 10
30.4251462412
 20
6.8055883201
 30
0.0
 40
0.03
 50
270.00000010640002
 51
360.0
  0
ATTDEF
  5
806
  8
DEFPOINTS
 10
29.601510062959211
 20
5.951203486001269
 30
0.0
 40
0.001
  1
BRASS
  3

  2
MATERIAL
 70
     0
1001
AcDbAttr
1070
     0
1070
     1
  0
ATTDEF
  5
807
  8
DEFPOINTS
 10
29.601510062959211
 20
5.952870152667936
 30
0.0
 40
0.001
  1
BATHROOM SINK FAUCET
  3

  2
PRODUCT
 70
     0
1001
AcDbAttr
1070
     0
1070
     1
  0
ATTDEF
  5
808
  8
DEFPOINTS
 10
29.601510062959211
 20
5.9545368193346029
 30
0.0
 40
0.001
  1
LOURE
  3

  2
TRADENAME
 70
     0
1001
AcDbAttr
1070
     0
1070
     1
  0
ATTDEF
  5
809
  8
DEFPOINTS
 10
29.601510062959211
 20
5.9562034860012698
 30
0.0
 40
0.001
  1
K-14661-4
  3

  2
MODELNUMBER
 70
     0
1001
AcDbAttr
1070
     0
1070
     1
  0
ENDSEC
  0
EOF
