  0
SECTION
  2
HEADER
  9
$ACADVER
  1
AC1009
  9
$INSBASE
 10
370.415116324032
 20
36.117145922351
 30
0.0
  9
$EXTMIN
 10
364.98813249123202
 20
36.107724936449131
 30
0.0
  9
$EXTMAX
 10
371.72711632403201
 20
50.522145922350987
 30
0.0
  9
$LIMMIN
 10
0.0
 20
0.0
  9
$LIMMAX
 10
11.692913385800001
 20
8.2677165353999982
  9
$ORTHOMODE
 70
     0
  9
$REGENMODE
 70
     1
  9
$FILLMODE
 70
     1
  9
$QTEXTMODE
 70
     0
  9
$MIRRTEXT
 70
     0
  9
$DRAGMODE
 70
     2
  9
$LTSCALE
 40
0.6431102362
  9
$OSMODE
 70
  3071
  9
$ATTMODE
 70
     1
  9
$TEXTSIZE
 40
0.2
  9
$TRACEWID
 40
0.05
  9
$TEXTSTYLE
  7
STANDARD
  9
$CLAYER
  8
0
  9
$CELTYPE
  6
BYLAYER
  9
$CECOLOR
 62
   256
  9
$DIMSCALE
 40
1.0
  9
$DIMASZ
 40
0.1875
  9
$DIMEXO
 40
0.0625
  9
$DIMDLI
 40
0.4443307087
  9
$DIMRND
 40
0.0
  9
$DIMDLE
 40
0.0
  9
$DIMEXE
 40
0.125
  9
$DIMTP
 40
0.01
  9
$DIMTM
 40
0.01
  9
$DIMTXT
 40
1.0
  9
$DIMCEN
 40
0.1052362205
  9
$DIMTSZ
 40
0.0
  9
$DIMTOL
 70
     1
  9
$DIMLIM
 70
     0
  9
$DIMTIH
 70
     0
  9
$DIMTOH
 70
     1
  9
$DIMSE1
 70
     0
  9
$DIMSE2
 70
     0
  9
$DIMTAD
 70
     0
  9
$DIMZIN
 70
     0
  9
$DIMBLK
  1

  9
$DIMASO
 70
     1
  9
$DIMSHO
 70
     1
  9
$DIMPOST
  1
\X
  9
$DIMAPOST
  1

  9
$DIMALT
 70
     1
  9
$DIMALTD
 70
     2
  9
$DIMALTF
 40
25.399999999999999
  9
$DIMLFAC
 40
1.0
  9
$DIMTOFL
 70
     0
  9
$DIMTVP
 40
0.0
  9
$DIMTIX
 70
     0
  9
$DIMSOXD
 70
     0
  9
$DIMSAH
 70
     0
  9
$DIMBLK1
  1

  9
$DIMBLK2
  1

  9
$DIMSTYLE
  2
STANDARD
  9
$DIMCLRD
 70
     0
  9
$DIMCLRE
 70
     0
  9
$DIMCLRT
 70
     0
  9
$DIMTFAC
 40
1.0
  9
$DIMGAP
 40
0.09
  9
$LUNITS
 70
     2
  9
$LUPREC
 70
     4
  9
$SKETCHINC
 40
0.1
  9
$FILLETRAD
 40
0.0
  9
$AUNITS
 70
     0
  9
$AUPREC
 70
     0
  9
$MENU
  1
.
  9
$ELEVATION
 40
0.0
  9
$PELEVATION
 40
0.0
  9
$THICKNESS
 40
0.0
  9
$LIMCHECK
 70
     0
  9
$BLIPMODE
 70
     0
  9
$CHAMFERA
 40
0.0
  9
$CHAMFERB
 40
0.0
  9
$SKPOLY
 70
     0
  9
$TDCREATE
 40
2458172.5207663891
  9
$TDUPDATE
 40
2458507.4047330902
  9
$TDINDWG
 40
0.1230738889
  9
$TDUSRTIMER
 40
0.1230738889
  9
$USRTIMER
 70
     1
  9
$ANGBASE
 50
0.0
  9
$ANGDIR
 70
     0
  9
$PDMODE
 70
     0
  9
$PDSIZE
 40
0.3125
  9
$PLINEWID
 40
0.0
  9
$COORDS
 70
     1
  9
$SPLFRAME
 70
     0
  9
$SPLINETYPE
 70
     6
  9
$SPLINESEGS
 70
     8
  9
$ATTDIA
 70
     1
  9
$ATTREQ
 70
     1
  9
$HANDLING
 70
     1
  9
$HANDSEED
  5
5714
  9
$SURFTAB1
 70
     6
  9
$SURFTAB2
 70
     6
  9
$SURFTYPE
 70
     6
  9
$SURFU
 70
     6
  9
$SURFV
 70
     6
  9
$UCSNAME
  2

  9
$UCSORG
 10
0.0
 20
0.0
 30
0.0
  9
$UCSXDIR
 10
1.0
 20
0.0
 30
0.0
  9
$UCSYDIR
 10
0.0
 20
1.0
 30
0.0
  9
$PUCSNAME
  2

  9
$PUCSORG
 10
0.0
 20
0.0
 30
0.0
  9
$PUCSXDIR
 10
1.0
 20
0.0
 30
0.0
  9
$PUCSYDIR
 10
0.0
 20
1.0
 30
0.0
  9
$USERI1
 70
     0
  9
$USERI2
 70
     0
  9
$USERI3
 70
     0
  9
$USERI4
 70
     0
  9
$USERI5
 70
     0
  9
$USERR1
 40
0.0
  9
$USERR2
 40
0.0
  9
$USERR3
 40
0.0
  9
$USERR4
 40
0.0
  9
$USERR5
 40
0.0
  9
$WORLDVIEW
 70
     1
  9
$SHADEDGE
 70
     3
  9
$SHADEDIF
 70
    70
  9
$TILEMODE
 70
     1
  9
$MAXACTVP
 70
    64
  9
$PLIMCHECK
 70
     0
  9
$PEXTMIN
 10
1.0000000000000000E+020
 20
1.0000000000000000E+020
 30
1.0000000000000000E+020
  9
$PEXTMAX
 10
-1.0000000000000000E+020
 20
-1.0000000000000000E+020
 30
-1.0000000000000000E+020
  9
$PLIMMIN
 10
0.0
 20
0.0
  9
$PLIMMAX
 10
12.0
 20
9.0
  9
$UNITMODE
 70
     0
  9
$VISRETAIN
 70
     1
  9
$PLINEGEN
 70
     0
  9
$PSLTSCALE
 70
     1
  0
ENDSEC
  0
SECTION
  2
TABLES
  0
TABLE
  2
VPORT
 70
     1
  0
VPORT
  2
*ACTIVE
 70
     0
 10
0.0
 20
0.0
 11
1.0
 21
1.0
 12
0.0
 22
0.0
 13
0.0
 23
0.0
 14
1.0
 24
1.0
 15
0.0
 25
0.0
 16
0.0
 26
0.0
 36
46.053829133980798
 17
368.35762440763199
 27
43.314935429400059
 37
0.0
 40
15.911927458907901
 41
2.1758620689655168
 42
50.0
 43
0.0
 44
0.0
 50
0.0
 51
0.0
 71
     0
 72
   100
 73
     1
 74
     1
 75
     0
 76
     0
 77
     0
 78
     0
  0
ENDTAB
  0
TABLE
  2
LTYPE
 70
     2
  0
LTYPE
  2
CONTINUOUS
 70
     0
  3
Solid line
 72
    65
 73
     0
 40
0.0
  0
LTYPE
  2
PHANTOM2
 70
     0
  3
___ _ _ ___ _ _ ___ _ _ ___ _ _
 72
    65
 73
     6
 40
1.25
 49
0.625
 49
-0.125
 49
0.125
 49
-0.125
 49
0.125
 49
-0.125
  0
ENDTAB
  0
TABLE
  2
LAYER
 70
     2
  0
LAYER
  2
0
 70
     0
 62
   255
  6
CONTINUOUS
  0
LAYER
  2
DEFPOINTS
 70
     0
 62
     7
  6
CONTINUOUS
  0
ENDTAB
  0
TABLE
  2
STYLE
 70
     1
  0
STYLE
  2
STANDARD
 70
     0
 40
0.0
 41
0.8
 50
0.0
 71
     0
 42
0.2
  3
txt
  4

  0
ENDTAB
  0
TABLE
  2
VIEW
 70
     0
  0
ENDTAB
  0
TABLE
  2
UCS
 70
     0
  0
ENDTAB
  0
TABLE
  2
APPID
 70
    10
  0
APPID
  2
ACAD
 70
     0
  0
APPID
  2
ACAD_MLEADERVER
 70
     0
  0
APPID
  2
ACAD_EXEMPT_FROM_CAD_STANDARDS
 70
     0
  0
APPID
  2
ACAD_DSTYLE_DIMJAG
 70
     0
  0
APPID
  2
ACAD_DSTYLE_DIMTALN
 70
     0
  0
APPID
  2
ACAD_NAV_VCDISPLAY
 70
     0
  0
APPID
  2
ACAECLAYERSTANDARD
 70
     0
  0
APPID
  2
ACCMTRANSPARENCY
 70
     0
  0
APPID
  2
DCO15
 70
     0
  0
APPID
  2
ACDBATTR
 70
     0
  0
ENDTAB
  0
TABLE
  2
DIMSTYLE
 70
     1
  0
DIMSTYLE
  2
STANDARD
 70
     0
  3

  4

  5

  6

  7

 40
1.0
 41
0.1875
 42
0.0625
 43
0.38
 44
0.125
 45
0.0
 46
0.0
 47
0.01
 48
0.01
140
0.15625
141
0.09
142
0.0
143
25.399999999999999
144
1.0
145
0.0
146
1.0
147
0.09
 71
     1
 72
     0
 73
     1
 74
     1
 75
     0
 76
     0
 77
     0
 78
     4
170
     0
171
     2
172
     0
173
     0
174
     0
175
     0
176
     0
177
     0
178
     0
  0
ENDTAB
  0
ENDSEC
  0
SECTION
  2
BLOCKS
  0
BLOCK
  8
0
  2
$MODEL_SPACE
 70
     0
 10
0.0
 20
0.0
 30
0.0
  3
$MODEL_SPACE
  1

  0
ENDBLK
  5
21
  8
0
  0
BLOCK
 67
     1
  8
0
  2
$PAPER_SPACE
 70
     0
 10
0.0
 20
0.0
 30
0.0
  3
$PAPER_SPACE
  1

  0
ENDBLK
  5
1D
 67
     1
  8
0
  0
ENDSEC
  0
SECTION
  2
ENTITIES
  0
ATTDEF
  5
829
  8
DEFPOINTS
 10
370.41246390387562
 20
36.112724936449133
 30
0.0
 40
0.001
  1
K-14660-4
  3

  2
MODELNUMBER
 70
     0
1001
ACDBATTR
1070
     0
1070
     1
  0
ATTDEF
  5
82A
  8
DEFPOINTS
 10
370.41246390387562
 20
36.111058269782468
 30
0.0
 40
0.001
  1
LOURE
  3

  2
TRADENAME
 70
     0
1001
ACDBATTR
1070
     0
1070
     1
  0
ATTDEF
  5
82B
  8
DEFPOINTS
 10
370.41246390387562
 20
36.10939160311581
 30
0.0
 40
0.001
  1
BATHROOM SINK FAUCET
  3

  2
PRODUCT
 70
     0
1001
ACDBATTR
1070
     0
1070
     1
  0
ATTDEF
  5
82C
  8
DEFPOINTS
 10
370.41246390387562
 20
36.107724936449138
 30
0.0
 40
0.001
  1
METAL
  3

  2
MATERIAL
 70
     0
1001
ACDBATTR
1070
     0
1070
     1
  0
LINE
  5
55A5
  8
0
 10
371.69711632403198
 20
36.117145922351
 30
0.0
 11
369.13311632403202
 21
36.117145922351
 31
0.0
  0
LINE
  5
55A6
  8
0
 10
369.13311632403202
 20
36.392145922350998
 30
0.0
 11
371.69711632403198
 21
36.392145922350998
 31
0.0
  0
LINE
  5
55A7
  8
0
 10
364.98813249123202
 20
46.881629619350988
 30
0.0
 11
368.206882559132
 21
50.100379687250999
 31
0.0
  0
LINE
  5
55A8
  8
0
 10
368.56043594973198
 20
49.746826296651001
 30
0.0
 11
365.34168588173202
 21
46.528076228750997
 31
0.0
  0
LINE
  5
55A9
  8
0
 10
370.25011632403209
 20
40.725806439151
 30
0.0
 11
370.58011632403202
 21
40.725806439151
 31
0.0
  0
LINE
  5
55AA
  8
0
 10
364.98813249123202
 20
46.881629619350988
 30
0.0
 11
365.34168588183201
 21
46.528076228750997
 31
0.0
  0
LINE
  5
55AB
  8
0
 10
369.10311632403199
 20
36.147145922350987
 30
0.0
 11
369.10311632403199
 21
36.362145922350997
 31
0.0
  0
LINE
  5
55AC
  8
0
 10
370.165116324032
 20
36.462063920444692
 30
0.0
 11
370.165116324032
 21
49.082145922351003
 31
0.0
  0
LINE
  5
55AD
  8
0
 10
370.61011632403199
 20
40.695806439150999
 30
0.0
 11
370.61011632403199
 21
36.785806439151003
 31
0.0
  0
LINE
  5
55AE
  8
0
 10
370.665116324032
 20
49.082145922351003
 30
0.0
 11
370.665116324032
 21
36.462063920480119
 31
0.0
  0
LINE
  5
55AF
  8
0
 10
371.72711632403201
 20
36.362145922350997
 30
0.0
 11
371.72711632403201
 21
36.147145922350987
 31
0.0
  0
ARC
  5
55B0
  8
0
 10
369.13311632403202
 20
36.147145922350987
 30
0.0
 40
0.03
 50
180.0
 51
270.0
  0
ARC
  5
55B1
  8
0
 10
369.13311632403202
 20
36.362145922350997
 30
0.0
 40
0.03
 50
90.0
 51
180.0
  0
ARC
  5
55B2
  8
0
 10
370.25011632403209
 20
40.695806439150999
 30
0.0
 40
0.03
 50
89.999999997498705
 51
180.0
  0
ARC
  5
55B3
  8
0
 10
369.225116324032
 20
49.082145922351003
 30
0.0
 40
1.4399999999999991
 50
0.0
 51
135.0000000004988
  0
ARC
  5
55B4
  8
0
 10
369.225116324032
 20
49.082145922351003
 30
0.0
 40
0.9399999999999998
 50
0.0
 51
135.00000000229949
  0
ARC
  5
55B5
  8
0
 10
371.69711632403198
 20
36.362145922350997
 30
0.0
 40
0.03
 50
0.0
 51
90.0
  0
ARC
  5
55B6
  8
0
 10
371.69711632403198
 20
36.147145922350987
 30
0.0
 40
0.03
 50
270.0
 51
0.0
  0
ARC
  5
55B7
  8
0
 10
370.58011632403202
 20
40.695806439150999
 30
0.0
 40
0.03
 50
0.0
 51
90.0
  0
ARC
  5
55B8
  8
0
 10
370.58011632403202
 20
36.785806439151003
 30
0.0
 40
0.03
 50
325.3078394536318
 51
0.0
  0
ARC
  5
55B9
  8
0
 10
370.41685681185697
 20
35.751610254797157
 30
0.0
 40
0.7537358186011836
 50
105.9043657358697
 51
121.8084951570756
  0
ARC
  5
55BA
  8
0
 10
370.20011632403202
 20
36.504708909551013
 30
0.0
 40
0.0300000000000084
 50
289.86139516513299
 51
359.99999999998738
  0
LINE
  5
55BB
  8
0
 10
370.230116324032
 20
36.504708909550999
 30
0.0
 11
370.230116324032
 21
36.752640191250997
 31
0.0
  0
ARC
  5
55BC
  8
0
 10
370.2001250691049
 20
36.752641916598947
 30
0.0
 40
0.0299912549767231
 50
359.99670386731663
 51
33.562517546374657
  0
ARC
  5
55BD
  8
0
 10
370.25012224275321
 20
36.785807312108169
 30
0.0
 40
0.0300059187339187
 50
180.00166689652619
 51
213.5537313941463
  0
LINE
  5
55BE
  8
0
 10
370.22011632403201
 20
36.785806439151003
 30
0.0
 11
370.22011632403201
 21
40.695806439150999
 31
0.0
  0
ARC
  5
55BF
  8
0
 10
370.6315889970034
 20
36.752235039812732
 30
0.0
 40
0.0314752805445734
 50
148.39191003353471
 51
179.26246539628801
  0
ARC
  5
55C0
  8
0
 10
370.41337583630701
 20
35.751610254797157
 30
0.0
 40
0.7537358186011836
 50
58.19150484292436
 51
74.095634264130297
  0
ARC
  5
55C1
  8
0
 10
370.63011632413202
 20
36.504708909551013
 30
0.0
 40
0.0300000000000084
 50
180.00000000001259
 51
250.13860483486701
  0
LINE
  5
55C2
  8
0
 10
370.60011632413199
 20
36.504708909550999
 30
0.0
 11
370.60011632413199
 21
36.752640191250997
 31
0.0
  0
LINE
  5
55C3
  8
0
 10
370.60031699047801
 20
36.755806439150987
 30
0.0
 11
370.22994890474189
 21
36.755806439150987
 31
0.0
  0
LINE
  5
55C4
  8
0
 10
370.230116324032
 20
36.504708909550999
 30
0.0
 11
370.60011632413199
 21
36.504708909550999
 31
0.0
  0
ENDSEC
  0
EOF
