  0
SECTION
  2
HEADER
  9
$ACADVER
  1
AC1009
  9
$INSBASE
 10
382.89825319056592
 20
29.882169955657631
 30
0.0
  9
$EXTMIN
 10
381.64825319056581
 20
24.456186122757629
 30
0.0
  9
$EXTMAX
 10
392.21025319056582
 20
31.19516995565764
 30
0.0
  9
$LIMMIN
 10
0.0
 20
0.0
  9
$LIMMAX
 10
11.692913385800001
 20
8.2677165353999982
  9
$ORTHOMODE
 70
     0
  9
$REGENMODE
 70
     1
  9
$FILLMODE
 70
     1
  9
$QTEXTMODE
 70
     0
  9
$MIRRTEXT
 70
     0
  9
$DRAGMODE
 70
     2
  9
$LTSCALE
 40
0.6431102362
  9
$OSMODE
 70
  3071
  9
$ATTMODE
 70
     1
  9
$TEXTSIZE
 40
0.2
  9
$TRACEWID
 40
0.05
  9
$TEXTSTYLE
  7
STANDARD
  9
$CLAYER
  8
0
  9
$CELTYPE
  6
BYLAYER
  9
$CECOLOR
 62
   256
  9
$DIMSCALE
 40
1.0
  9
$DIMASZ
 40
0.1875
  9
$DIMEXO
 40
0.0625
  9
$DIMDLI
 40
0.4443307087
  9
$DIMRND
 40
0.0
  9
$DIMDLE
 40
0.0
  9
$DIMEXE
 40
0.125
  9
$DIMTP
 40
0.01
  9
$DIMTM
 40
0.01
  9
$DIMTXT
 40
1.0
  9
$DIMCEN
 40
0.1052362205
  9
$DIMTSZ
 40
0.0
  9
$DIMTOL
 70
     1
  9
$DIMLIM
 70
     0
  9
$DIMTIH
 70
     0
  9
$DIMTOH
 70
     1
  9
$DIMSE1
 70
     0
  9
$DIMSE2
 70
     0
  9
$DIMTAD
 70
     0
  9
$DIMZIN
 70
     0
  9
$DIMBLK
  1

  9
$DIMASO
 70
     1
  9
$DIMSHO
 70
     1
  9
$DIMPOST
  1
\X
  9
$DIMAPOST
  1

  9
$DIMALT
 70
     1
  9
$DIMALTD
 70
     2
  9
$DIMALTF
 40
25.399999999999999
  9
$DIMLFAC
 40
1.0
  9
$DIMTOFL
 70
     0
  9
$DIMTVP
 40
0.0
  9
$DIMTIX
 70
     0
  9
$DIMSOXD
 70
     0
  9
$DIMSAH
 70
     0
  9
$DIMBLK1
  1

  9
$DIMBLK2
  1

  9
$DIMSTYLE
  2
STANDARD
  9
$DIMCLRD
 70
     0
  9
$DIMCLRE
 70
     0
  9
$DIMCLRT
 70
     0
  9
$DIMTFAC
 40
1.0
  9
$DIMGAP
 40
0.09
  9
$LUNITS
 70
     2
  9
$LUPREC
 70
     4
  9
$SKETCHINC
 40
0.1
  9
$FILLETRAD
 40
0.0
  9
$AUNITS
 70
     0
  9
$AUPREC
 70
     0
  9
$MENU
  1
.
  9
$ELEVATION
 40
0.0
  9
$PELEVATION
 40
0.0
  9
$THICKNESS
 40
0.0
  9
$LIMCHECK
 70
     0
  9
$BLIPMODE
 70
     0
  9
$CHAMFERA
 40
0.0
  9
$CHAMFERB
 40
0.0
  9
$SKPOLY
 70
     0
  9
$TDCREATE
 40
2458172.5207663891
  9
$TDUPDATE
 40
2458501.684025764
  9
$TDINDWG
 40
0.1182883102
  9
$TDUSRTIMER
 40
0.1182883102
  9
$USRTIMER
 70
     1
  9
$ANGBASE
 50
0.0
  9
$ANGDIR
 70
     0
  9
$PDMODE
 70
     0
  9
$PDSIZE
 40
0.3125
  9
$PLINEWID
 40
0.0
  9
$COORDS
 70
     1
  9
$SPLFRAME
 70
     0
  9
$SPLINETYPE
 70
     6
  9
$SPLINESEGS
 70
     8
  9
$ATTDIA
 70
     1
  9
$ATTREQ
 70
     1
  9
$HANDLING
 70
     1
  9
$HANDSEED
  5
5314
  9
$SURFTAB1
 70
     6
  9
$SURFTAB2
 70
     6
  9
$SURFTYPE
 70
     6
  9
$SURFU
 70
     6
  9
$SURFV
 70
     6
  9
$UCSNAME
  2

  9
$UCSORG
 10
0.0
 20
0.0
 30
0.0
  9
$UCSXDIR
 10
1.0
 20
0.0
 30
0.0
  9
$UCSYDIR
 10
0.0
 20
1.0
 30
0.0
  9
$PUCSNAME
  2

  9
$PUCSORG
 10
0.0
 20
0.0
 30
0.0
  9
$PUCSXDIR
 10
1.0
 20
0.0
 30
0.0
  9
$PUCSYDIR
 10
0.0
 20
1.0
 30
0.0
  9
$USERI1
 70
     0
  9
$USERI2
 70
     0
  9
$USERI3
 70
     0
  9
$USERI4
 70
     0
  9
$USERI5
 70
     0
  9
$USERR1
 40
0.0
  9
$USERR2
 40
0.0
  9
$USERR3
 40
0.0
  9
$USERR4
 40
0.0
  9
$USERR5
 40
0.0
  9
$WORLDVIEW
 70
     1
  9
$SHADEDGE
 70
     3
  9
$SHADEDIF
 70
    70
  9
$TILEMODE
 70
     1
  9
$MAXACTVP
 70
    64
  9
$PLIMCHECK
 70
     0
  9
$PEXTMIN
 10
1.0000000000000000E+020
 20
1.0000000000000000E+020
 30
1.0000000000000000E+020
  9
$PEXTMAX
 10
-1.0000000000000000E+020
 20
-1.0000000000000000E+020
 30
-1.0000000000000000E+020
  9
$PLIMMIN
 10
0.0
 20
0.0
  9
$PLIMMAX
 10
12.0
 20
9.0
  9
$UNITMODE
 70
     0
  9
$VISRETAIN
 70
     1
  9
$PLINEGEN
 70
     0
  9
$PSLTSCALE
 70
     1
  0
ENDSEC
  0
SECTION
  2
TABLES
  0
TABLE
  2
VPORT
 70
     1
  0
VPORT
  2
*ACTIVE
 70
     0
 10
0.0
 20
0.0
 11
1.0
 21
1.0
 12
0.0
 22
0.0
 13
0.0
 23
0.0
 14
1.0
 24
1.0
 15
0.0
 25
0.0
 16
0.0
 26
0.0
 36
36.101593189576583
 17
386.92926025390619
 27
27.825677871704102
 37
0.0
 40
12.536435324891009
 41
2.1638418079096038
 42
50.0
 43
0.0
 44
0.0
 50
0.0
 51
0.0
 71
     0
 72
   100
 73
     1
 74
     1
 75
     0
 76
     0
 77
     0
 78
     0
  0
ENDTAB
  0
TABLE
  2
LTYPE
 70
     2
  0
LTYPE
  2
CONTINUOUS
 70
     0
  3
Solid line
 72
    65
 73
     0
 40
0.0
  0
LTYPE
  2
PHANTOM2
 70
     0
  3
___ _ _ ___ _ _ ___ _ _ ___ _ _
 72
    65
 73
     6
 40
1.25
 49
0.625
 49
-0.125
 49
0.125
 49
-0.125
 49
0.125
 49
-0.125
  0
ENDTAB
  0
TABLE
  2
LAYER
 70
     2
  0
LAYER
  2
0
 70
     0
 62
   255
  6
CONTINUOUS
  0
LAYER
  2
DEFPOINTS
 70
     0
 62
     7
  6
CONTINUOUS
  0
ENDTAB
  0
TABLE
  2
STYLE
 70
     1
  0
STYLE
  2
STANDARD
 70
     0
 40
0.0
 41
0.8
 50
0.0
 71
     0
 42
0.2
  3
txt
  4

  0
ENDTAB
  0
TABLE
  2
VIEW
 70
     0
  0
ENDTAB
  0
TABLE
  2
UCS
 70
     0
  0
ENDTAB
  0
TABLE
  2
APPID
 70
    10
  0
APPID
  2
ACAD
 70
     0
  0
APPID
  2
ACAD_MLEADERVER
 70
     0
  0
APPID
  2
ACAD_EXEMPT_FROM_CAD_STANDARDS
 70
     0
  0
APPID
  2
ACAD_DSTYLE_DIMJAG
 70
     0
  0
APPID
  2
ACAD_DSTYLE_DIMTALN
 70
     0
  0
APPID
  2
ACAD_NAV_VCDISPLAY
 70
     0
  0
APPID
  2
ACAECLAYERSTANDARD
 70
     0
  0
APPID
  2
ACCMTRANSPARENCY
 70
     0
  0
APPID
  2
DCO15
 70
     0
  0
APPID
  2
ACDBATTR
 70
     0
  0
ENDTAB
  0
TABLE
  2
DIMSTYLE
 70
     2
  0
DIMSTYLE
  2
STANDARD
 70
     0
  3

  4

  5

  6

  7

 40
1.0
 41
0.1875
 42
0.0625
 43
0.38
 44
0.125
 45
0.0
 46
0.0
 47
0.01
 48
0.01
140
0.15625
141
0.09
142
0.0
143
25.399999999999999
144
1.0
145
0.0
146
1.0
147
0.09
 71
     1
 72
     0
 73
     1
 74
     1
 75
     0
 76
     0
 77
     0
 78
     4
170
     0
171
     2
172
     0
173
     0
174
     0
175
     0
176
     0
177
     0
178
     0
  0
ENDTAB
  0
ENDSEC
  0
SECTION
  2
BLOCKS
  0
BLOCK
  8
0
  2
$MODEL_SPACE
 70
     0
 10
0.0
 20
0.0
 30
0.0
  3
$MODEL_SPACE
  1

  0
ENDBLK
  5
21
  8
0
  0
BLOCK
 67
     1
  8
0
  2
$PAPER_SPACE
 70
     0
 10
0.0
 20
0.0
 30
0.0
  3
$PAPER_SPACE
  1

  0
ENDBLK
  5
1D
 67
     1
  8
0
  0
ENDSEC
  0
SECTION
  2
ENTITIES
  0
ATTDEF
  5
829
  8
DEFPOINTS
 10
382.89574998572402
 20
29.888787088015889
 30
0.0
 40
0.001
  1
K-14660-4
  3

  2
MODELNUMBER
 70
     0
1001
ACDBATTR
1070
     0
1070
     1
  0
ATTDEF
  5
82A
  8
DEFPOINTS
 10
382.89574998572402
 20
29.88712042134922
 30
0.0
 40
0.001
  1
LOURE
  3

  2
TRADENAME
 70
     0
1001
ACDBATTR
1070
     0
1070
     1
  0
ATTDEF
  5
82B
  8
DEFPOINTS
 10
382.89574998572402
 20
29.885453754682558
 30
0.0
 40
0.001
  1
BATHROOM SINK FAUCET
  3

  2
PRODUCT
 70
     0
1001
ACDBATTR
1070
     0
1070
     1
  0
ATTDEF
  5
82C
  8
DEFPOINTS
 10
382.89574998572402
 20
29.88378708801589
 30
0.0
 40
0.001
  1
METAL
  3

  2
MATERIAL
 70
     0
1001
ACDBATTR
1070
     0
1070
     1
  0
LINE
  5
5228
  8
0
 10
381.64825319056581
 20
28.662169955635122
 30
0.0
 11
381.64825319056581
 21
31.102169955657629
 31
0.0
  0
LINE
  5
5229
  8
0
 10
382.02325319056581
 20
30.103169950957639
 30
0.0
 11
382.02325319056581
 21
24.47739932625764
 31
0.0
  0
LINE
  5
522A
  8
0
 10
383.74325319056578
 20
24.456186122757629
 30
0.0
 11
382.0532531905659
 21
24.456186122757629
 31
0.0
  0
LINE
  5
522B
  8
0
 10
383.77325319056581
 20
24.47739932625764
 30
0.0
 11
383.77325319056581
 21
30.103169954857641
 31
0.0
  0
LINE
  5
522C
  8
0
 10
384.14825319056581
 20
31.102169955657629
 30
0.0
 11
384.14825319056581
 21
28.662169955657632
 31
0.0
  0
LINE
  5
522D
  8
0
 10
392.18025319057978
 20
28.571169955657631
 30
0.0
 11
389.61625319056589
 21
28.571169955657631
 31
0.0
  0
LINE
  5
522E
  8
0
 10
384.11825319056578
 20
28.632169955657631
 30
0.0
 11
383.77325319056581
 21
28.632169955657631
 31
0.0
  0
LINE
  5
522F
  8
0
 10
382.02325319056581
 20
28.632169955657631
 30
0.0
 11
381.67825319056578
 21
28.632169955657631
 31
0.0
  0
LINE
  5
5230
  8
0
 10
391.30825319056578
 20
29.688169955657632
 30
0.0
 11
390.48825319056579
 21
29.688169955657632
 31
0.0
  0
LINE
  5
5231
  8
0
 10
390.48825319056579
 20
30.078169955657629
 30
0.0
 11
391.30825319056578
 21
30.078169955657629
 31
0.0
  0
LINE
  5
5232
  8
0
 10
382.0532531905659
 20
30.133169955657628
 30
0.0
 11
383.74325319056578
 21
30.133169955657628
 31
0.0
  0
LINE
  5
5233
  8
0
 10
389.5862531905658
 20
28.601169955635122
 30
0.0
 11
389.5862531905658
 21
31.165169955657628
 31
0.0
  0
LINE
  5
5234
  8
0
 10
381.67825319056578
 20
31.132169955657631
 30
0.0
 11
384.11825319056578
 21
31.132169955657631
 31
0.0
  0
LINE
  5
5235
  8
0
 10
389.61625319056589
 20
31.19516995565764
 30
0.0
 11
392.18025319056579
 21
31.19516995565764
 31
0.0
  0
LINE
  5
5236
  8
0
 10
390.45825319056581
 20
29.718169955657629
 30
0.0
 11
390.45825319056581
 21
30.048169955657631
 31
0.0
  0
LINE
  5
5237
  8
0
 10
391.33825319056581
 20
30.048169955657631
 30
0.0
 11
391.33825319056581
 21
29.718169955657629
 31
0.0
  0
LINE
  5
5238
  8
0
 10
392.21025319056582
 20
31.165169955657628
 30
0.0
 11
392.21025319056582
 21
28.601169955657632
 31
0.0
  0
ARC
  5
5239
  8
0
 10
384.11825319056578
 20
28.662169955657632
 30
0.0
 40
0.03
 50
270.00000004300068
 51
0.0
  0
ARC
  5
523A
  8
0
 10
381.67825319056578
 20
28.662169955657632
 30
0.0
 40
0.03
 50
180.00000004299989
 51
270.0
  0
ARC
  5
523B
  8
0
 10
384.11825319056578
 20
31.102169955657629
 30
0.0
 40
0.03
 50
0.0000000521000301
 51
90.0
  0
ARC
  5
523C
  8
0
 10
381.67825319056578
 20
31.102169955657629
 30
0.0
 40
0.03
 50
90.000000043000668
 51
180.0
  0
ARC
  5
523D
  8
0
 10
382.0532531905659
 20
30.103169955657631
 30
0.0
 40
0.03
 50
90.0
 51
180.0
  0
ARC
  5
523E
  8
0
 10
383.74325319056578
 20
30.103169955657631
 30
0.0
 40
0.03
 50
359.99999837469989
 51
90.0
  0
ARC
  5
523F
  8
0
 10
391.30825319056578
 20
29.718169955657629
 30
0.0
 40
0.03
 50
270.0
 51
359.99999999789992
  0
ARC
  5
5240
  8
0
 10
390.48825319056579
 20
29.718169955657629
 30
0.0
 40
0.03
 50
179.99999999389979
 51
270.0
  0
ARC
  5
5241
  8
0
 10
392.18025319056579
 20
28.601169955657632
 30
0.0
 40
0.03
 50
270.00000002669998
 51
0.0
  0
ARC
  5
5242
  8
0
 10
389.61625319056589
 20
28.601169955657632
 30
0.0
 40
0.03
 50
180.00000004299989
 51
270.0
  0
CIRCLE
  5
5243
  8
0
 10
390.89825319056581
 20
29.883169955657628
 30
0.0
 40
0.5150000000000001
  0
ARC
  5
5244
  8
0
 10
390.48825319056579
 20
30.048169955657631
 30
0.0
 40
0.03
 50
90.0
 51
179.99999999789989
  0
ARC
  5
5245
  8
0
 10
391.30825319056578
 20
30.048169955657631
 30
0.0
 40
0.03
 50
0.0000000020998785
 51
90.0
  0
ARC
  5
5246
  8
0
 10
389.61625319056589
 20
31.165169955657628
 30
0.0
 40
0.03
 50
90.000000043000668
 51
180.0
  0
ARC
  5
5247
  8
0
 10
392.18025319056579
 20
31.165169955657628
 30
0.0
 40
0.03
 50
0.000000042999878
 51
90.0
  0
ARC
  5
5248
  8
0
 10
382.04196838967709
 20
24.4782894922065
 30
0.0
 40
0.0187363569881759
 50
182.7231525739063
 51
238.00293553280491
  0
ARC
  5
5249
  8
0
 10
382.05372102142439
 20
24.497099779047382
 30
0.0
 40
0.0409163309292033
 50
238.00293553280491
 51
269.34487484122621
  0
ARC
  5
524A
  8
0
 10
383.75453799145458
 20
24.4782894922065
 30
0.0
 40
0.0187363569881759
 50
301.99706446719512
 51
357.2768474260937
  0
ARC
  5
524B
  8
0
 10
383.74278535970728
 20
24.497099779047382
 30
0.0
 40
0.0409163309292033
 50
270.65512515877379
 51
301.99706446719512
  0
ENDSEC
  0
EOF
