  0
SECTION
  2
HEADER
  9
$ACADVER
  1
AC1009
  9
$DWGCODEPAGE
  3
ansi_1252
  9
$INSBASE
 10
0.0
 20
0.0
 30
0.0
  9
$EXTMIN
 10
-65.13025628990226
 20
-45.65311915785594
 30
-0.0015258207003583
  9
$EXTMAX
 10
59.19773084115263
 20
0.0057796851771172
 30
0.0000000349246037
  9
$LIMMIN
 10
0.0
 20
0.0
  9
$LIMMAX
 10
144.6168402777778
 20
101.6044786241319
  9
$ORTHOMODE
 70
     1
  9
$REGENMODE
 70
     1
  9
$FILLMODE
 70
     1
  9
$QTEXTMODE
 70
     0
  9
$MIRRTEXT
 70
     1
  9
$DRAGMODE
 70
     2
  9
$LTSCALE
 40
4.0
  9
$OSMODE
 70
    37
  9
$ATTMODE
 70
     1
  9
$TEXTSIZE
 40
0.003
  9
$TRACEWID
 40
0.05
  9
$TEXTSTYLE
  7
STANDARD
  9
$CLAYER
  8
0
  9
$CELTYPE
  6
BYLAYER
  9
$CECOLOR
 62
   256
  9
$DIMSCALE
 40
1.0
  9
$DIMASZ
 40
0.18
  9
$DIMEXO
 40
0.0625
  9
$DIMDLI
 40
0.38
  9
$DIMRND
 40
0.0
  9
$DIMDLE
 40
0.0
  9
$DIMEXE
 40
0.18
  9
$DIMTP
 40
0.0
  9
$DIMTM
 40
0.0
  9
$DIMTXT
 40
0.18
  9
$DIMCEN
 40
0.09
  9
$DIMTSZ
 40
0.0
  9
$DIMTOL
 70
     0
  9
$DIMLIM
 70
     0
  9
$DIMTIH
 70
     1
  9
$DIMTOH
 70
     1
  9
$DIMSE1
 70
     0
  9
$DIMSE2
 70
     0
  9
$DIMTAD
 70
     0
  9
$DIMZIN
 70
     0
  9
$DIMBLK
  1

  9
$DIMASO
 70
     1
  9
$DIMSHO
 70
     1
  9
$DIMPOST
  1

  9
$DIMAPOST
  1

  9
$DIMALT
 70
     0
  9
$DIMALTD
 70
     2
  9
$DIMALTF
 40
25.4
  9
$DIMLFAC
 40
1.0
  9
$DIMTOFL
 70
     0
  9
$DIMTVP
 40
0.0
  9
$DIMTIX
 70
     0
  9
$DIMSOXD
 70
     0
  9
$DIMSAH
 70
     0
  9
$DIMBLK1
  1

  9
$DIMBLK2
  1

  9
$DIMSTYLE
  2
STANDARD
  9
$DIMCLRD
 70
     0
  9
$DIMCLRE
 70
     0
  9
$DIMCLRT
 70
     0
  9
$DIMTFAC
 40
1.0
  9
$DIMGAP
 40
0.09
  9
$LUNITS
 70
     2
  9
$LUPREC
 70
     4
  9
$SKETCHINC
 40
0.1
  9
$FILLETRAD
 40
0.0
  9
$AUNITS
 70
     0
  9
$AUPREC
 70
     0
  9
$MENU
  1
acad
  9
$ELEVATION
 40
0.0
  9
$PELEVATION
 40
0.0
  9
$THICKNESS
 40
0.0
  9
$LIMCHECK
 70
     0
  9
$CHAMFERA
 40
0.0
  9
$CHAMFERB
 40
0.0
  9
$SKPOLY
 70
     0
  9
$TDCREATE
 40
2444971.75
  9
$TDUPDATE
 40
2453718.63610007
  9
$TDINDWG
 40
0.0132562847
  9
$TDUSRTIMER
 40
0.0132562847
  9
$USRTIMER
 70
     1
  9
$ANGBASE
 50
0.0
  9
$ANGDIR
 70
     0
  9
$PDMODE
 70
     3
  9
$PDSIZE
 40
-2.0
  9
$PLINEWID
 40
0.0
  9
$COORDS
 70
     1
  9
$SPLFRAME
 70
     0
  9
$SPLINETYPE
 70
     6
  9
$SPLINESEGS
 70
     8
  9
$ATTDIA
 70
     0
  9
$ATTREQ
 70
     1
  9
$HANDLING
 70
     1
  9
$HANDSEED
  5
289
  9
$SURFTAB1
 70
     6
  9
$SURFTAB2
 70
     6
  9
$SURFTYPE
 70
     6
  9
$SURFU
 70
     6
  9
$SURFV
 70
     6
  9
$UCSNAME
  2

  9
$UCSORG
 10
0.0
 20
0.0
 30
0.0
  9
$UCSXDIR
 10
1.0
 20
0.0
 30
0.0
  9
$UCSYDIR
 10
0.0
 20
1.0
 30
0.0
  9
$PUCSNAME
  2

  9
$PUCSORG
 10
0.0
 20
0.0
 30
0.0
  9
$PUCSXDIR
 10
1.0
 20
0.0
 30
0.0
  9
$PUCSYDIR
 10
0.0
 20
1.0
 30
0.0
  9
$USERI1
 70
     0
  9
$USERI2
 70
     0
  9
$USERI3
 70
     0
  9
$USERI4
 70
     0
  9
$USERI5
 70
     0
  9
$USERR1
 40
0.0
  9
$USERR2
 40
0.0
  9
$USERR3
 40
0.0
  9
$USERR4
 40
0.0
  9
$USERR5
 40
0.0
  9
$WORLDVIEW
 70
     1
  9
$SHADEDGE
 70
     3
  9
$SHADEDIF
 70
    70
  9
$TILEMODE
 70
     1
  9
$MAXACTVP
 70
    16
  9
$PLIMCHECK
 70
     0
  9
$PEXTMIN
 10
1.000000000000000E+20
 20
1.000000000000000E+20
 30
1.000000000000000E+20
  9
$PEXTMAX
 10
-1.000000000000000E+20
 20
-1.000000000000000E+20
 30
-1.000000000000000E+20
  9
$PLIMMIN
 10
-0.1249995194082185
 20
-0.15625
  9
$PLIMMAX
 10
10.87500024029589
 20
8.343749759704108
  9
$UNITMODE
 70
     0
  9
$VISRETAIN
 70
     0
  9
$PLINEGEN
 70
     1
  9
$PSLTSCALE
 70
     0
  0
ENDSEC
  0
SECTION
  2
TABLES
  0
TABLE
  2
VPORT
 70
     1
  0
VPORT
  2
*ACTIVE
 70
     0
 10
0.0
 20
0.0
 11
1.0
 21
1.0
 12
-0.5763741587722961
 22
-19.60552603465364
 13
0.0
 23
0.0
 14
1.0
 24
1.0
 15
0.0
 25
0.0
 16
0.0
 26
0.0
 36
1.0
 17
0.0
 27
0.0
 37
0.0
 40
91.39867293723542
 41
1.927450980392157
 42
50.0
 43
0.0
 44
0.0
 50
0.0
 51
0.0
 71
     0
 72
   100
 73
     1
 74
     1
 75
     0
 76
     0
 77
     0
 78
     0
  0
ENDTAB
  0
TABLE
  2
LTYPE
 70
    10
  0
LTYPE
  2
CONTINUOUS
 70
     0
  3
Solid line
 72
    65
 73
     0
 40
0.0
  0
LTYPE
  2
AMCONSTR
 70
     0
  3
_______________________
 72
    65
 73
     2
 40
9999.0
 49
9999.0
 49
0.0
  0
LTYPE
  2
HIDDEN
 70
     0
  3
Hidden __ __ __ __ __ __ __ __ __ __ __ __ __ _
 72
    65
 73
     2
 40
0.375
 49
0.25
 49
-0.125
  0
LTYPE
  2
CENTER
 70
     0
  3
Center ____ _ ____ _ ____ _ ____ _ ____ _ ____
 72
    65
 73
     4
 40
2.0
 49
1.25
 49
-0.25
 49
0.25
 49
-0.25
  0
LTYPE
  2
PHANTOM2
 70
     0
  3
Phantom (.5x) ___ _ _ ___ _ _ ___ _ _ ___ _ _
 72
    65
 73
     6
 40
1.25
 49
0.625
 49
-0.125
 49
0.125
 49
-0.125
 49
0.125
 49
-0.125
  0
LTYPE
  2
CENTER2
 70
     0
  3
Center (.5x) ___ _ ___ _ ___ _ ___ _ ___ _ ___
 72
    65
 73
     4
 40
1.125
 49
0.75
 49
-0.125
 49
0.125
 49
-0.125
  0
LTYPE
  2
HIDDEN2
 70
     0
  3
Hidden (.5x) _ _ _ _ _ _ _ _ _ _ _ _ _ _ _ _ _
 72
    65
 73
     2
 40
0.1875
 49
0.125
 49
-0.0625
  0
LTYPE
  2
AMZIGZAG2
 70
     0
  3
/\/-/\/-/\/-/\/-/\/-/\/
 72
    65
 73
     2
 40
0.4401
 49
0.0001
 49
-0.44
  0
LTYPE
  2
ACANSTGB
 70
     0
  3
__ . . __ . .
 72
    65
 73
     6
 40
0.35433070866
 49
0.15748031496
 49
-0.03937007874
 49
0.03937007874
 49
-0.03937007874
 49
0.03937007874
 49
-0.03937007874
  0
LTYPE
  2
ACANSTGL
 70
     0
  3
_ _ _ _ _
 72
    65
 73
     2
 40
0.11811023622
 49
0.07874015748
 49
-0.03937007874
  0
ENDTAB
  0
TABLE
  2
LAYER
 70
     1
  0
LAYER
  2
0
 70
     0
 62
     7
  6
CONTINUOUS
  0
ENDTAB
  0
TABLE
  2
STYLE
 70
     4
  0
STYLE
  2
STANDARD
 70
     0
 40
0.0
 41
1.0
 50
0.0
 71
     0
 42
0.003
  3
txt
  4

  0
STYLE
  2

 70
     1
 40
0.0
 41
1.0
 50
0.0
 71
     0
 42
0.2
  3
ltypeshp.shx
  4

  0
STYLE
  2
ACANSTS
 70
     0
 40
1.0
 41
1.0
 50
0.0
 71
     0
 42
0.2
  3
romans.shx
  4

  0
STYLE
  2
ACANSGDT
 70
     0
 40
0.0
 41
1.0
 50
0.0
 71
     0
 42
0.2
  3
amgdtans.shx
  4

  0
ENDTAB
  0
TABLE
  2
VIEW
 70
     0
  0
ENDTAB
  0
TABLE
  2
UCS
 70
     0
  0
ENDTAB
  0
TABLE
  2
APPID
 70
     1
  0
APPID
  2
ACAD
 70
     0
  0
ENDTAB
  0
TABLE
  2
DIMSTYLE
 70
     7
  0
DIMSTYLE
  2
STANDARD
 70
     0
  3

  4

  5

  6

  7

 40
1.0
 41
0.18
 42
0.0625
 43
0.38
 44
0.18
 45
0.0
 46
0.0
 47
0.0
 48
0.0
140
0.18
141
0.09
142
0.0
143
25.4
144
1.0
145
0.0
146
1.0
147
0.09
 71
     0
 72
     0
 73
     1
 74
     1
 75
     0
 76
     0
 77
     0
 78
     0
170
     0
171
     2
172
     0
173
     0
174
     0
175
     0
176
     0
177
     0
178
     0
  0
DIMSTYLE
  2
AM_ANSI
 70
     0
  3

  4
mm
  5

  6

  7

 40
1.0
 41
0.1
 42
0.05
 43
0.5
 44
0.1
 45
0.0
 46
0.0
 47
0.1
 48
0.1
140
0.12
141
0.0
142
0.0
143
25.4
144
1.0
145
0.0
146
0.71
147
0.06
 71
     0
 72
     0
 73
     1
 74
     1
 75
     0
 76
     0
 77
     0
 78
     7
170
     0
171
     2
172
     0
173
     0
174
     0
175
     0
176
   256
177
   256
178
     2
  0
DIMSTYLE
  2
AM_ANSI$3
 70
     0
  3

  4
mm
  5

  6

  7

 40
1.0
 41
0.1
 42
0.05
 43
0.5
 44
0.1
 45
0.0
 46
0.0
 47
0.1
 48
0.1
140
0.12
141
0.0
142
0.0
143
25.4
144
1.0
145
0.0
146
0.71
147
0.06
 71
     0
 72
     0
 73
     1
 74
     1
 75
     0
 76
     0
 77
     0
 78
     7
170
     0
171
     2
172
     0
173
     0
174
     0
175
     0
176
   256
177
   256
178
     2
  0
DIMSTYLE
  2
AM_ANSI$4
 70
     0
  3

  4
mm
  5

  6

  7

 40
1.0
 41
0.1
 42
0.05
 43
0.5
 44
0.1
 45
0.0
 46
0.0
 47
0.1
 48
0.1
140
0.12
141
0.0
142
0.0
143
25.4
144
1.0
145
0.0
146
0.71
147
0.06
 71
     0
 72
     0
 73
     1
 74
     1
 75
     0
 76
     0
 77
     0
 78
     7
170
     0
171
     2
172
     0
173
     0
174
     0
175
     0
176
   256
177
   256
178
     2
  0
DIMSTYLE
  2
AM_ANSI$7
 70
     0
  3

  4
mm
  5

  6

  7

 40
1.0
 41
0.1
 42
0.05
 43
0.5
 44
0.1
 45
0.0
 46
0.0
 47
0.1
 48
0.1
140
0.24
141
0.0
142
0.0
143
25.4
144
1.0
145
0.0
146
0.71
147
0.06
 71
     0
 72
     0
 73
     1
 74
     1
 75
     0
 76
     0
 77
     0
 78
     7
170
     0
171
     2
172
     0
173
     0
174
     0
175
     0
176
   256
177
   256
178
     2
  0
DIMSTYLE
  2
AM_ANSI$SF
 70
     0
  3

  4
mm
  5

  6

  7

 40
1.0
 41
0.1
 42
0.05
 43
0.5
 44
0.1
 45
0.0
 46
0.0
 47
0.1
 48
0.1
140
0.12
141
0.0
142
0.0
143
25.4
144
1.0
145
0.0
146
0.71
147
0.06
 71
     0
 72
     0
 73
     1
 74
     1
 75
     1
 76
     1
 77
     0
 78
     7
170
     0
171
     2
172
     0
173
     0
174
     0
175
     0
176
   256
177
   256
178
     2
  0
DIMSTYLE
  2
AM_ANSI$SH
 70
     0
  3

  4
mm
  5

  6
GENAXEH
  7

 40
1.0
 41
0.1
 42
0.05
 43
0.5
 44
0.1
 45
0.0
 46
0.0
 47
0.1
 48
0.1
140
0.12
141
0.0
142
0.0
143
25.4
144
1.0
145
0.0
146
0.71
147
0.06
 71
     0
 72
     0
 73
     1
 74
     1
 75
     1
 76
     1
 77
     0
 78
     7
170
     0
171
     2
172
     0
173
     1
174
     0
175
     0
176
   256
177
   256
178
     2
  0
ENDTAB
  0
ENDSEC
  0
SECTION
  2
BLOCKS
  0
BLOCK
  8
0
  2
$MODEL_SPACE
 70
     0
 10
0.0
 20
0.0
 30
0.0
  3
$MODEL_SPACE
  1

  0
ENDBLK
  5
2B
  8
0
  0
BLOCK
 67
     1
  8
0
  2
$PAPER_SPACE
 70
     0
 10
0.0
 20
0.0
 30
0.0
  3
$PAPER_SPACE
  1

  0
ENDBLK
  5
32
 67
     1
  8
0
  0
BLOCK
  8
0
  2
GENAXEH
 70
     0
 10
0.0
 20
0.0
 30
0.0
  3
GENAXEH
  1

  0
LINE
  5
6F
  8
0
 10
-1.0
 20
0.0
 30
0.0
 11
1.0
 21
0.0
 31
0.0
  0
ENDBLK
  5
71
  8
0
  0
ENDSEC
  0
SECTION
  2
ENTITIES
  0
LINE
  5
3
  8
0
 10
-14.3781060112847
 20
-44.59813910590277
 30
0.0
 11
-60.7098171657986
 21
-44.68151041666665
 31
0.0
  0
POLYLINE
  5
9
  8
0
 66
     1
 10
0.0
 20
0.0
 30
0.0
  0
VERTEX
  5
251
  8
0
 10
-60.7098171657986
 20
-44.68151041666665
 30
0.0
  0
VERTEX
  5
252
  8
0
 10
-61.39883626302082
 20
-44.55108125474717
 30
0.0
  0
VERTEX
  5
253
  8
0
 10
-62.1050808376736
 20
-44.33360287348428
 30
0.0
  0
VERTEX
  5
254
  8
0
 10
-62.50342000325519
 20
-44.17091883685853
 30
0.0
  0
VERTEX
  5
255
  8
0
 10
-62.9146782769097
 20
-43.96622246636284
 30
0.0
  0
VERTEX
  5
256
  8
0
 10
-63.32593655056421
 20
-43.71497693459192
 30
0.0
  0
VERTEX
  5
257
  8
0
 10
-63.72427571614581
 20
-43.41264541414048
 30
0.0
  0
VERTEX
  5
258
  8
0
 10
-64.09677666558157
 20
-43.05469107760322
 30
0.0
  0
VERTEX
  5
259
  8
0
 10
-64.4305202907986
 20
-42.63657709757486
 30
0.0
  0
VERTEX
  5
25A
  8
0
 10
-64.71258748372394
 20
-42.1537666466501
 30
0.0
  0
VERTEX
  5
25B
  8
0
 10
-64.93005913628471
 20
-41.60172289742363
 30
0.0
  0
VERTEX
  5
25C
  8
0
 10
-65.07001614040796
 20
-40.97590902249017
 30
0.0
  0
VERTEX
  5
25D
  8
0
 10
-65.10688942803274
 20
-40.63392052931917
 30
0.0
  0
VERTEX
  5
25E
  8
0
 10
-65.11953938802081
 20
-40.27178819444443
 30
0.0
  0
VERTEX
  5
25F
  8
0
 10
-65.10688942803525
 20
-39.90965684788302
 30
0.0
  0
VERTEX
  5
260
  8
0
 10
-65.07001614041766
 20
-39.56767123546884
 30
0.0
  0
VERTEX
  5
261
  8
0
 10
-64.93005913632088
 20
-38.94186829472754
 30
0.0
  0
VERTEX
  5
262
  8
0
 10
-64.71258748379952
 20
-38.3898415355113
 30
0.0
  0
VERTEX
  5
263
  8
0
 10
-64.43052029092262
 20
-37.90705312111086
 30
0.0
  0
VERTEX
  5
264
  8
0
 10
-64.09677666575921
 20
-37.48896521481696
 30
0.0
  0
VERTEX
  5
265
  8
0
 10
-63.72427571637836
 20
-37.13103997992037
 30
0.0
  0
VERTEX
  5
266
  8
0
 10
-63.32593655084908
 20
-36.82873957971183
 30
0.0
  0
VERTEX
  5
267
  8
0
 10
-62.91467827724043
 20
-36.57752617748209
 30
0.0
  0
VERTEX
  5
268
  8
0
 10
-62.50342000362145
 20
-36.37286193652189
 30
0.0
  0
VERTEX
  5
269
  8
0
 10
-62.10508083806117
 20
-36.21020902012199
 30
0.0
  0
VERTEX
  5
26A
  8
0
 10
-61.39883626339289
 20
-35.99278581416608
 30
0.0
  0
VERTEX
  5
26B
  8
0
 10
-60.7098171657986
 20
-35.86241048177082
 30
0.0
  0
SEQEND
  5
26C
  8
0
  0
LINE
  5
A
  8
0
 10
-60.7098171657986
 20
-35.86241048177082
 30
0.0
 11
-14.38981933593749
 21
-35.86241048177082
 31
0.0
  0
LINE
  5
B
  8
0
 10
13.84342719184028
 20
-35.86241048177082
 30
0.0
 11
54.7783962673611
 21
-35.86241048177082
 31
0.0
  0
POLYLINE
  5
C
  8
0
 66
     1
 10
0.0
 20
0.0
 30
0.0
  0
VERTEX
  5
26D
  8
0
 10
54.7783962673611
 20
-35.86241048177082
 30
0.0
  0
VERTEX
  5
26E
  8
0
 10
55.46741536458332
 20
-35.98266046312119
 30
0.0
  0
VERTEX
  5
26F
  8
0
 10
56.1736599392361
 20
-36.19122398694356
 30
0.0
  0
VERTEX
  5
270
  8
0
 10
56.57199910481771
 20
-36.34960527088905
 30
0.0
  0
VERTEX
  5
271
  8
0
 10
56.98325737847222
 20
-36.55052524142793
 30
0.0
  0
VERTEX
  5
272
  8
0
 10
57.39451565212673
 20
-36.79883815248806
 30
0.0
  0
VERTEX
  5
273
  8
0
 10
57.79285481770833
 20
-37.09939825799729
 30
0.0
  0
VERTEX
  5
274
  8
0
 10
58.1653557671441
 20
-37.45705981188349
 30
0.0
  0
VERTEX
  5
275
  8
0
 10
58.49909939236111
 20
-37.87667706807454
 30
0.0
  0
VERTEX
  5
276
  8
0
 10
58.78116658528646
 20
-38.36310428049828
 30
0.0
  0
VERTEX
  5
277
  8
0
 10
58.99863823784722
 20
-38.9211957030826
 30
0.0
  0
VERTEX
  5
278
  8
0
 10
59.13859524197049
 20
-39.55580558975537
 30
0.0
  0
VERTEX
  5
279
  8
0
 10
59.17546852959527
 20
-39.90332191147737
 30
0.0
  0
VERTEX
  5
27A
  8
0
 10
59.18811848958333
 20
-40.27178819444443
 30
0.0
  0
VERTEX
  5
27B
  8
0
 10
59.17546852959777
 20
-40.64025546565383
 30
0.0
  0
VERTEX
  5
27C
  8
0
 10
59.13859524198017
 20
-40.98777466806978
 30
0.0
  0
VERTEX
  5
27D
  8
0
 10
58.99863823788339
 20
-41.62239548883182
 30
0.0
  0
VERTEX
  5
27E
  8
0
 10
58.78116658536204
 20
-42.18050390135166
 30
0.0
  0
VERTEX
  5
27F
  8
0
 10
58.49909939248513
 20
-42.66695315025041
 30
0.0
  0
VERTEX
  5
280
  8
0
 10
58.16535576732173
 20
-43.08659648014914
 30
0.0
  0
VERTEX
  5
281
  8
0
 10
57.79285481794087
 20
-43.44428713566894
 30
0.0
  0
VERTEX
  5
282
  8
0
 10
57.3945156524116
 20
-43.74487836143092
 30
0.0
  0
VERTEX
  5
283
  8
0
 10
56.98325737880295
 20
-43.99322340205616
 30
0.0
  0
VERTEX
  5
284
  8
0
 10
56.57199910518396
 20
-44.19417550216576
 30
0.0
  0
VERTEX
  5
285
  8
0
 10
56.17365993962368
 20
-44.3525879063808
 30
0.0
  0
VERTEX
  5
286
  8
0
 10
55.4674153649554
 20
-44.5612066056116
 30
0.0
  0
VERTEX
  5
287
  8
0
 10
54.7783962673611
 20
-44.68151041666665
 30
0.0
  0
SEQEND
  5
288
  8
0
  0
LINE
  5
D
  8
0
 10
54.7783962673611
 20
-44.68151041666665
 30
0.0
 11
13.84342719184028
 21
-44.68151041666665
 31
0.0
  0
LINE
  5
E
  8
0
 10
13.84342719184028
 20
-45.63752441406249
 30
0.0
 11
-14.38981933593749
 21
-45.63752441406249
 31
0.0
  0
LINE
  5
F
  8
0
 10
-14.38981933593749
 20
-45.63752441406249
 30
0.0
 11
-14.38981933593749
 21
-35.83106011284721
 31
0.0
  0
LINE
  5
10
  8
0
 10
-14.38981933593749
 20
-35.83106011284721
 30
0.0
 11
-14.38981933593749
 21
-34.90605197482638
 31
0.0
  0
LINE
  5
11
  8
0
 10
-14.38981933593749
 20
-34.90605197482638
 30
0.0
 11
13.84342719184028
 21
-34.90605197482638
 31
0.0
  0
LINE
  5
12
  8
0
 10
13.84342719184028
 20
-34.90605197482638
 30
0.0
 11
13.84342719184028
 21
-45.63752441406249
 31
0.0
  0
LINE
  5
13
  8
0
 10
-13.08240559895833
 20
0.0
 30
0.0
 11
-13.45344238281248
 21
-4.643988715277772
 31
0.0
  0
LINE
  5
14
  8
0
 10
-13.45344238281248
 20
-4.643988715277772
 30
0.0
 11
-13.08240559895833
 21
-5.014680989583326
 31
0.0
  0
LINE
  5
15
  8
0
 10
-5.356089952256923
 20
-34.90605197482638
 30
0.0
 11
5.356089952256951
 21
-34.90605197482638
 31
0.0
  0
LINE
  5
16
  8
0
 10
5.356089952256951
 20
-34.90605197482638
 30
0.0
 11
5.356089952256951
 21
-7.785226779513877
 31
0.0
  0
LINE
  5
17
  8
0
 10
5.356089952256951
 20
-7.785226779513877
 30
0.0
 11
5.746419270833343
 21
-6.380316840277772
 31
0.0
  0
LINE
  5
18
  8
0
 10
5.746419270833343
 20
-6.380316840277772
 30
0.0
 11
8.143172200520837
 21
-5.014680989583326
 31
0.0
  0
LINE
  5
19
  8
0
 10
8.143172200520837
 20
-5.014680989583326
 30
0.0
 11
13.08240559895833
 21
-5.014680989583326
 31
0.0
  0
LINE
  5
1A
  8
0
 10
13.08240559895833
 20
-5.014680989583326
 30
0.0
 11
13.45309787326389
 21
-4.643988715277772
 31
0.0
  0
LINE
  5
1B
  8
0
 10
13.45309787326389
 20
-4.643988715277772
 30
0.0
 11
13.08240559895833
 21
0.0
 31
0.0
  0
LINE
  5
1C
  8
0
 10
13.08240559895833
 20
0.0
 30
0.0
 11
-13.08240559895833
 21
0.0
 31
0.0
  0
LINE
  5
1D
  8
0
 10
-5.356089952256951
 20
-34.90605197482638
 30
0.0
 11
-5.356089952256951
 21
-7.785226779513877
 31
0.0
  0
LINE
  5
1E
  8
0
 10
-8.143172200520837
 20
-5.014680989583326
 30
0.0
 11
-13.08240559895833
 21
-5.014680989583326
 31
0.0
  0
LINE
  5
1F
  8
0
 10
-5.746419270833343
 20
-6.380316840277772
 30
0.0
 11
-8.143172200520837
 21
-5.014680989583326
 31
0.0
  0
LINE
  5
20
  8
0
 10
-5.356089952256951
 20
-7.785226779513877
 30
0.0
 11
-5.746419270833343
 21
-6.380316840277772
 31
0.0
  0
LINE
  5
21
  8
0
 10
-5.356089952256951
 20
-7.785226779513877
 30
0.0
 11
5.356089952256951
 21
-7.785226779513877
 31
0.0
  0
LINE
  5
22
  8
0
 10
-5.746419270833343
 20
-6.380316840277772
 30
0.0
 11
5.746419270833343
 21
-6.380316840277772
 31
0.0
  0
LINE
  5
23
  8
0
 10
-8.143172200520837
 20
-5.014680989583326
 30
0.0
 11
8.143172200520837
 21
-5.014680989583326
 31
0.0
  0
ATTDEF
  5
24
  8
0
 10
-0.0018
 20
-0.0065
 30
0.0
 40
0.003
  1
7493202
  3

  2
MODLENUMBER
 70
     2
  0
ATTDEF
  5
26
  8
0
 10
0.0
 20
-0.0098
 30
0.0
 40
0.003
  1
14441
  3

  2
TRADENAME
 70
     2
  0
ATTDEF
  5
27
  8
0
 10
0.0
 20
-0.0132
 30
0.0
 40
0.003
  1
Purist(R) towel ring
  3

  2
PRODUCT
 70
     2
  0
ATTDEF
  5
28
  8
0
 10
0.0
 20
-0.0165
 30
0.0
 40
0.003
  1
http://www.us.kohler.com/onlinecatalog/pdf/1020118_1.pdf
  3

  2
MATERIAL
 70
     2
  0
VIEWPORT
  5
2F
 67
     1
  8
0
 10
5.375000360443836
 20
4.093749879852054
 30
0.0
 40
17.33356617664492
 41
8.992999745766948
 68
     1
 69
     1
1001
ACAD
1000
MVIEW
1002
{
1070
    16
1010
0.0
1020
0.0
1030
0.0
1020
0.0
1030
0.0
1010
0.0
1020
0.0
1030
1.0
1020
0.0
1030
1.0
1040
0.0
1040
8.992999745766948
1040
5.375000360443836
1040
4.093749879852054
1040
50.0
1040
0.0
1040
0.0
1070
     0
1070
   100
1070
     0
1070
     1
1070
     0
1070
     0
1070
     0
1070
     0
1040
0.0
1040
0.0
1040
0.0
1040
0.5
1040
0.5
1040
0.5
1040
0.5
1070
     0
1002
{
1002
}
1002
}
  0
ENDSEC
  0
EOF
