  0
SECTION
  2
HEADER
  9
$ACADVER
  1
AC1009
  9
$INSBASE
 10
0.0
 20
0.0
 30
0.0
  9
$EXTMIN
 10
-0.0074618391300874
 20
-0.9424010187993872
 30
-0.0000000349181948
  9
$EXTMAX
 10
2.8183776298270682
 20
0.9426736736771204
 30
0.0000000814935746
  9
$LIMMIN
 10
0.0
 20
0.0
  9
$LIMMAX
 10
12.0
 20
9.0
  9
$ORTHOMODE
 70
     0
  9
$REGENMODE
 70
     1
  9
$FILLMODE
 70
     1
  9
$QTEXTMODE
 70
     0
  9
$MIRRTEXT
 70
     1
  9
$DRAGMODE
 70
     2
  9
$LTSCALE
 40
1.0
  9
$OSMODE
 70
    37
  9
$ATTMODE
 70
     1
  9
$TEXTSIZE
 40
0.001
  9
$TRACEWID
 40
0.05
  9
$TEXTSTYLE
  7
STANDARD
  9
$CLAYER
  8
0
  9
$CELTYPE
  6
BYLAYER
  9
$CECOLOR
 62
   256
  9
$DIMSCALE
 40
1.0
  9
$DIMASZ
 40
0.18
  9
$DIMEXO
 40
0.0625
  9
$DIMDLI
 40
0.38
  9
$DIMRND
 40
0.0
  9
$DIMDLE
 40
0.0
  9
$DIMEXE
 40
0.18
  9
$DIMTP
 40
0.0
  9
$DIMTM
 40
0.0
  9
$DIMTXT
 40
0.18
  9
$DIMCEN
 40
0.09
  9
$DIMTSZ
 40
0.0
  9
$DIMTOL
 70
     0
  9
$DIMLIM
 70
     0
  9
$DIMTIH
 70
     1
  9
$DIMTOH
 70
     1
  9
$DIMSE1
 70
     0
  9
$DIMSE2
 70
     0
  9
$DIMTAD
 70
     0
  9
$DIMZIN
 70
     0
  9
$DIMBLK
  1

  9
$DIMASO
 70
     1
  9
$DIMSHO
 70
     1
  9
$DIMPOST
  1

  9
$DIMAPOST
  1

  9
$DIMALT
 70
     0
  9
$DIMALTD
 70
     2
  9
$DIMALTF
 40
25.399999999999999
  9
$DIMLFAC
 40
1.0
  9
$DIMTOFL
 70
     0
  9
$DIMTVP
 40
0.0
  9
$DIMTIX
 70
     0
  9
$DIMSOXD
 70
     0
  9
$DIMSAH
 70
     0
  9
$DIMBLK1
  1

  9
$DIMBLK2
  1

  9
$DIMSTYLE
  2
STANDARD
  9
$DIMCLRD
 70
     0
  9
$DIMCLRE
 70
     0
  9
$DIMCLRT
 70
     0
  9
$DIMTFAC
 40
1.0
  9
$DIMGAP
 40
0.09
  9
$LUNITS
 70
     2
  9
$LUPREC
 70
     4
  9
$SKETCHINC
 40
0.1
  9
$FILLETRAD
 40
0.0
  9
$AUNITS
 70
     0
  9
$AUPREC
 70
     0
  9
$MENU
  1
.
  9
$ELEVATION
 40
0.0
  9
$PELEVATION
 40
0.0
  9
$THICKNESS
 40
0.0
  9
$LIMCHECK
 70
     0
  9
$BLIPMODE
 70
     0
  9
$CHAMFERA
 40
0.5
  9
$CHAMFERB
 40
0.5
  9
$SKPOLY
 70
     0
  9
$TDCREATE
 40
2451380.5970990621
  9
$TDUPDATE
 40
2456485.574891076
  9
$TDINDWG
 40
0.9972993287
  9
$TDUSRTIMER
 40
0.9972902894
  9
$USRTIMER
 70
     1
  9
$ANGBASE
 50
0.0
  9
$ANGDIR
 70
     0
  9
$PDMODE
 70
     0
  9
$PDSIZE
 40
0.0
  9
$PLINEWID
 40
0.0
  9
$COORDS
 70
     1
  9
$SPLFRAME
 70
     0
  9
$SPLINETYPE
 70
     6
  9
$SPLINESEGS
 70
     8
  9
$ATTDIA
 70
     0
  9
$ATTREQ
 70
     1
  9
$HANDLING
 70
     1
  9
$HANDSEED
  5
525
  9
$SURFTAB1
 70
     6
  9
$SURFTAB2
 70
     6
  9
$SURFTYPE
 70
     6
  9
$SURFU
 70
     6
  9
$SURFV
 70
     6
  9
$UCSNAME
  2

  9
$UCSORG
 10
0.0
 20
0.0
 30
0.0
  9
$UCSXDIR
 10
1.0
 20
0.0
 30
0.0
  9
$UCSYDIR
 10
0.0
 20
1.0
 30
0.0
  9
$PUCSNAME
  2

  9
$PUCSORG
 10
0.0
 20
0.0
 30
0.0
  9
$PUCSXDIR
 10
1.0
 20
0.0
 30
0.0
  9
$PUCSYDIR
 10
0.0
 20
1.0
 30
0.0
  9
$USERI1
 70
     0
  9
$USERI2
 70
     0
  9
$USERI3
 70
     0
  9
$USERI4
 70
     0
  9
$USERI5
 70
     0
  9
$USERR1
 40
0.0
  9
$USERR2
 40
0.0
  9
$USERR3
 40
0.0
  9
$USERR4
 40
0.0
  9
$USERR5
 40
0.0
  9
$WORLDVIEW
 70
     1
  9
$SHADEDGE
 70
     3
  9
$SHADEDIF
 70
    70
  9
$TILEMODE
 70
     1
  9
$MAXACTVP
 70
    64
  9
$PLIMCHECK
 70
     0
  9
$PEXTMIN
 10
1.0000000000000000E+020
 20
1.0000000000000000E+020
 30
1.0000000000000000E+020
  9
$PEXTMAX
 10
-1.0000000000000000E+020
 20
-1.0000000000000000E+020
 30
-1.0000000000000000E+020
  9
$PLIMMIN
 10
0.0
 20
0.0
  9
$PLIMMAX
 10
12.0
 20
9.0
  9
$UNITMODE
 70
     0
  9
$VISRETAIN
 70
     1
  9
$PLINEGEN
 70
     0
  9
$PSLTSCALE
 70
     1
  0
ENDSEC
  0
SECTION
  2
TABLES
  0
TABLE
  2
VPORT
 70
     1
  0
VPORT
  2
*ACTIVE
 70
     0
 10
0.0
 20
0.0
 11
1.0
 21
1.0
 12
1.40545789534849
 22
0.0001363274388666
 13
0.0
 23
0.0
 14
0.5
 24
0.5
 15
0.5
 25
0.5
 16
0.0
 26
0.0
 36
1.0
 17
0.0
 27
0.0
 37
0.0
 40
1.89695541532825
 41
1.9926393270241849
 42
50.0
 43
0.0
 44
0.0
 50
0.0
 51
0.0
 71
     0
 72
  5500
 73
     1
 74
     1
 75
     0
 76
     0
 77
     0
 78
     0
  0
ENDTAB
  0
TABLE
  2
LTYPE
 70
     2
  0
LTYPE
  2
CONTINUOUS
 70
     0
  3
Solid line
 72
    65
 73
     0
 40
0.0
  0
LTYPE
  2
PHANTOM2
 70
     0
  3
Phantom (.5x) ___ _ _ ___ _ _ ___ _ _ ___ _ _
 72
    65
 73
     6
 40
1.25
 49
0.625
 49
-0.125
 49
0.125
 49
-0.125
 49
0.125
 49
-0.125
  0
ENDTAB
  0
TABLE
  2
LAYER
 70
     2
  0
LAYER
  2
0
 70
     0
 62
     7
  6
CONTINUOUS
  0
LAYER
  2
DEFPOINTS
 70
     0
 62
     7
  6
CONTINUOUS
  0
ENDTAB
  0
TABLE
  2
STYLE
 70
     1
  0
STYLE
  2
STANDARD
 70
     0
 40
0.0
 41
1.0
 50
0.0
 71
     0
 42
0.001
  3
txt
  4

  0
ENDTAB
  0
TABLE
  2
VIEW
 70
     0
  0
ENDTAB
  0
TABLE
  2
UCS
 70
     0
  0
ENDTAB
  0
TABLE
  2
APPID
 70
     4
  0
APPID
  2
ACAD
 70
     0
  0
APPID
  2
ACAD_NAV_VCDISPLAY
 70
     0
  0
APPID
  2
AcDbAttr
 70
     0
  0
APPID
  2
ACAD_MLEADERVER
 70
     0
  0
ENDTAB
  0
TABLE
  2
DIMSTYLE
 70
     1
  0
DIMSTYLE
  2
STANDARD
 70
     0
  3

  4

  5

  6

  7

 40
1.0
 41
0.18
 42
0.0625
 43
0.38
 44
0.18
 45
0.0
 46
0.0
 47
0.0
 48
0.0
140
0.18
141
0.09
142
0.0
143
25.399999999999999
144
1.0
145
0.0
146
1.0
147
0.09
 71
     0
 72
     0
 73
     1
 74
     1
 75
     0
 76
     0
 77
     0
 78
     0
170
     0
171
     2
172
     0
173
     0
174
     0
175
     0
176
     0
177
     0
178
     0
  0
ENDTAB
  0
ENDSEC
  0
SECTION
  2
BLOCKS
  0
BLOCK
  8
0
  2
$MODEL_SPACE
 70
     2
 10
0.0
 20
0.0
 30
0.0
  3
$MODEL_SPACE
  1

  0
ENDBLK
  5
16
  8
0
  0
BLOCK
 67
     1
  8
0
  2
$PAPER_SPACE
 70
     0
 10
0.0
 20
0.0
 30
0.0
  3
$PAPER_SPACE
  1

  0
ENDBLK
  5
1D
 67
     1
  8
0
  0
ENDSEC
  0
SECTION
  2
ENTITIES
  0
POLYLINE
  5
70
  8
0
 66
     1
 10
0.0
 20
0.0
 30
0.0
  0
VERTEX
  5
71
  8
0
 10
0.5511803890626652
 20
-0.3493467200889881
 30
0.0
  0
VERTEX
  5
72
  8
0
 10
0.5511803890626652
 20
0.3593195930673119
 30
0.0
  0
SEQEND
  5
73
  8
0
  0
POLYLINE
  5
74
  8
0
 66
     1
 10
0.0
 20
0.0
 30
0.0
  0
VERTEX
  5
75
  8
0
 10
0.5328153954169466
 20
0.3722591823865287
 30
0.0
  0
VERTEX
  5
76
  8
0
 10
0.5328153954169466
 20
-0.3622863094082049
 30
0.0
  0
SEQEND
  5
77
  8
0
  0
POLYLINE
  5
78
  8
0
 66
     1
 10
0.0
 20
0.0
 30
0.0
  0
VERTEX
  5
79
  8
0
 10
0.5511803890626652
 20
-0.3493467200889881
 30
0.0
  0
VERTEX
  5
7A
  8
0
 10
2.2471723831155961
 20
-0.3493467200889881
 30
0.0
  0
SEQEND
  5
7B
  8
0
  0
POLYLINE
  5
7C
  8
0
 66
     1
 10
0.0
 20
0.0
 30
0.0
  0
VERTEX
  5
7D
  8
0
 10
0.5511803890626652
 20
0.3593195930673119
 30
0.0
  0
VERTEX
  5
7E
  8
0
 10
2.247116450570231
 20
0.3593195930673119
 30
0.0
  0
SEQEND
  5
7F
  8
0
  0
POLYLINE
  8
0
  5
115
  66
     1
 10
0.000000
 20
0.000000
 30
0.000000
  70
     8
  0
VERTEX
  8
0
  5
116
 10
0.550570
 20
0.357502
 30
0.000000
  70
    32
  0
VERTEX
  8
0
  5
117
 10
0.550519
 20
0.357696
 30
0.000000
  70
    32
  0
VERTEX
  8
0
  5
118
 10
0.550466
 20
0.357890
 30
0.000000
  70
    32
  0
VERTEX
  8
0
  5
119
 10
0.550412
 20
0.358083
 30
0.000000
  70
    32
  0
VERTEX
  8
0
  5
11A
 10
0.550355
 20
0.358274
 30
0.000000
  70
    32
  0
VERTEX
  8
0
  5
11B
 10
0.550297
 20
0.358465
 30
0.000000
  70
    32
  0
VERTEX
  8
0
  5
11C
 10
0.550237
 20
0.358655
 30
0.000000
  70
    32
  0
VERTEX
  8
0
  5
11D
 10
0.550175
 20
0.358844
 30
0.000000
  70
    32
  0
VERTEX
  8
0
  5
11E
 10
0.550111
 20
0.359032
 30
0.000000
  70
    32
  0
VERTEX
  8
0
  5
11F
 10
0.550046
 20
0.359219
 30
0.000000
  70
    32
  0
VERTEX
  8
0
  5
120
 10
0.549978
 20
0.359406
 30
0.000000
  70
    32
  0
VERTEX
  8
0
  5
121
 10
0.549909
 20
0.359591
 30
0.000000
  70
    32
  0
VERTEX
  8
0
  5
122
 10
0.549838
 20
0.359775
 30
0.000000
  70
    32
  0
VERTEX
  8
0
  5
123
 10
0.549766
 20
0.359959
 30
0.000000
  70
    32
  0
VERTEX
  8
0
  5
124
 10
0.549691
 20
0.360141
 30
0.000000
  70
    32
  0
VERTEX
  8
0
  5
125
 10
0.549615
 20
0.360323
 30
0.000000
  70
    32
  0
VERTEX
  8
0
  5
126
 10
0.549538
 20
0.360503
 30
0.000000
  70
    32
  0
VERTEX
  8
0
  5
127
 10
0.549458
 20
0.360682
 30
0.000000
  70
    32
  0
VERTEX
  8
0
  5
128
 10
0.549377
 20
0.360861
 30
0.000000
  70
    32
  0
VERTEX
  8
0
  5
129
 10
0.549294
 20
0.361038
 30
0.000000
  70
    32
  0
VERTEX
  8
0
  5
12A
 10
0.549210
 20
0.361215
 30
0.000000
  70
    32
  0
VERTEX
  8
0
  5
12B
 10
0.549123
 20
0.361390
 30
0.000000
  70
    32
  0
VERTEX
  8
0
  5
12C
 10
0.549036
 20
0.361564
 30
0.000000
  70
    32
  0
VERTEX
  8
0
  5
12D
 10
0.548946
 20
0.361737
 30
0.000000
  70
    32
  0
VERTEX
  8
0
  5
12E
 10
0.548855
 20
0.361910
 30
0.000000
  70
    32
  0
VERTEX
  8
0
  5
12F
 10
0.548762
 20
0.362081
 30
0.000000
  70
    32
  0
VERTEX
  8
0
  5
130
 10
0.548668
 20
0.362251
 30
0.000000
  70
    32
  0
VERTEX
  8
0
  5
131
 10
0.548572
 20
0.362420
 30
0.000000
  70
    32
  0
VERTEX
  8
0
  5
132
 10
0.548475
 20
0.362587
 30
0.000000
  70
    32
  0
VERTEX
  8
0
  5
133
 10
0.548376
 20
0.362754
 30
0.000000
  70
    32
  0
VERTEX
  8
0
  5
134
 10
0.548275
 20
0.362920
 30
0.000000
  70
    32
  0
VERTEX
  8
0
  5
135
 10
0.548173
 20
0.363084
 30
0.000000
  70
    32
  0
VERTEX
  8
0
  5
136
 10
0.548069
 20
0.363248
 30
0.000000
  70
    32
  0
VERTEX
  8
0
  5
137
 10
0.547964
 20
0.363410
 30
0.000000
  70
    32
  0
VERTEX
  8
0
  5
138
 10
0.547857
 20
0.363571
 30
0.000000
  70
    32
  0
VERTEX
  8
0
  5
139
 10
0.547749
 20
0.363731
 30
0.000000
  70
    32
  0
VERTEX
  8
0
  5
13A
 10
0.547639
 20
0.363889
 30
0.000000
  70
    32
  0
VERTEX
  8
0
  5
13B
 10
0.547528
 20
0.364047
 30
0.000000
  70
    32
  0
VERTEX
  8
0
  5
13C
 10
0.547415
 20
0.364203
 30
0.000000
  70
    32
  0
VERTEX
  8
0
  5
13D
 10
0.547301
 20
0.364358
 30
0.000000
  70
    32
  0
VERTEX
  8
0
  5
13E
 10
0.547186
 20
0.364512
 30
0.000000
  70
    32
  0
VERTEX
  8
0
  5
13F
 10
0.547069
 20
0.364665
 30
0.000000
  70
    32
  0
VERTEX
  8
0
  5
140
 10
0.546950
 20
0.364816
 30
0.000000
  70
    32
  0
VERTEX
  8
0
  5
141
 10
0.546830
 20
0.364967
 30
0.000000
  70
    32
  0
VERTEX
  8
0
  5
142
 10
0.546709
 20
0.365116
 30
0.000000
  70
    32
  0
VERTEX
  8
0
  5
143
 10
0.546586
 20
0.365263
 30
0.000000
  70
    32
  0
VERTEX
  8
0
  5
144
 10
0.546462
 20
0.365410
 30
0.000000
  70
    32
  0
VERTEX
  8
0
  5
145
 10
0.546337
 20
0.365555
 30
0.000000
  70
    32
  0
VERTEX
  8
0
  5
146
 10
0.546210
 20
0.365699
 30
0.000000
  70
    32
  0
VERTEX
  8
0
  5
147
 10
0.546082
 20
0.365842
 30
0.000000
  70
    32
  0
VERTEX
  8
0
  5
148
 10
0.545952
 20
0.365983
 30
0.000000
  70
    32
  0
VERTEX
  8
0
  5
149
 10
0.545821
 20
0.366123
 30
0.000000
  70
    32
  0
VERTEX
  8
0
  5
14A
 10
0.545689
 20
0.366262
 30
0.000000
  70
    32
  0
VERTEX
  8
0
  5
14B
 10
0.545556
 20
0.366399
 30
0.000000
  70
    32
  0
VERTEX
  8
0
  5
14C
 10
0.545421
 20
0.366535
 30
0.000000
  70
    32
  0
VERTEX
  8
0
  5
14D
 10
0.545285
 20
0.366670
 30
0.000000
  70
    32
  0
VERTEX
  8
0
  5
14E
 10
0.545148
 20
0.366803
 30
0.000000
  70
    32
  0
VERTEX
  8
0
  5
14F
 10
0.545009
 20
0.366935
 30
0.000000
  70
    32
  0
VERTEX
  8
0
  5
150
 10
0.544869
 20
0.367066
 30
0.000000
  70
    32
  0
VERTEX
  8
0
  5
151
 10
0.544728
 20
0.367195
 30
0.000000
  70
    32
  0
VERTEX
  8
0
  5
152
 10
0.544586
 20
0.367323
 30
0.000000
  70
    32
  0
VERTEX
  8
0
  5
153
 10
0.544442
 20
0.367449
 30
0.000000
  70
    32
  0
VERTEX
  8
0
  5
154
 10
0.544298
 20
0.367575
 30
0.000000
  70
    32
  0
VERTEX
  8
0
  5
155
 10
0.544152
 20
0.367698
 30
0.000000
  70
    32
  0
VERTEX
  8
0
  5
156
 10
0.544004
 20
0.367820
 30
0.000000
  70
    32
  0
VERTEX
  8
0
  5
157
 10
0.543856
 20
0.367941
 30
0.000000
  70
    32
  0
VERTEX
  8
0
  5
158
 10
0.543707
 20
0.368061
 30
0.000000
  70
    32
  0
VERTEX
  8
0
  5
159
 10
0.543556
 20
0.368178
 30
0.000000
  70
    32
  0
VERTEX
  8
0
  5
15A
 10
0.543404
 20
0.368295
 30
0.000000
  70
    32
  0
VERTEX
  8
0
  5
15B
 10
0.543251
 20
0.368410
 30
0.000000
  70
    32
  0
VERTEX
  8
0
  5
15C
 10
0.543097
 20
0.368523
 30
0.000000
  70
    32
  0
VERTEX
  8
0
  5
15D
 10
0.542942
 20
0.368635
 30
0.000000
  70
    32
  0
VERTEX
  8
0
  5
15E
 10
0.542786
 20
0.368746
 30
0.000000
  70
    32
  0
VERTEX
  8
0
  5
15F
 10
0.542629
 20
0.368855
 30
0.000000
  70
    32
  0
VERTEX
  8
0
  5
160
 10
0.542470
 20
0.368962
 30
0.000000
  70
    32
  0
VERTEX
  8
0
  5
161
 10
0.542311
 20
0.369068
 30
0.000000
  70
    32
  0
VERTEX
  8
0
  5
162
 10
0.542150
 20
0.369173
 30
0.000000
  70
    32
  0
VERTEX
  8
0
  5
163
 10
0.541988
 20
0.369276
 30
0.000000
  70
    32
  0
VERTEX
  8
0
  5
164
 10
0.541826
 20
0.369377
 30
0.000000
  70
    32
  0
VERTEX
  8
0
  5
165
 10
0.541662
 20
0.369477
 30
0.000000
  70
    32
  0
VERTEX
  8
0
  5
166
 10
0.541497
 20
0.369575
 30
0.000000
  70
    32
  0
VERTEX
  8
0
  5
167
 10
0.541332
 20
0.369672
 30
0.000000
  70
    32
  0
VERTEX
  8
0
  5
168
 10
0.541165
 20
0.369767
 30
0.000000
  70
    32
  0
VERTEX
  8
0
  5
169
 10
0.540997
 20
0.369860
 30
0.000000
  70
    32
  0
VERTEX
  8
0
  5
16A
 10
0.540829
 20
0.369952
 30
0.000000
  70
    32
  0
VERTEX
  8
0
  5
16B
 10
0.540659
 20
0.370043
 30
0.000000
  70
    32
  0
VERTEX
  8
0
  5
16C
 10
0.540489
 20
0.370131
 30
0.000000
  70
    32
  0
VERTEX
  8
0
  5
16D
 10
0.540317
 20
0.370218
 30
0.000000
  70
    32
  0
VERTEX
  8
0
  5
16E
 10
0.540145
 20
0.370304
 30
0.000000
  70
    32
  0
VERTEX
  8
0
  5
16F
 10
0.539972
 20
0.370387
 30
0.000000
  70
    32
  0
VERTEX
  8
0
  5
170
 10
0.539797
 20
0.370469
 30
0.000000
  70
    32
  0
VERTEX
  8
0
  5
171
 10
0.539622
 20
0.370550
 30
0.000000
  70
    32
  0
VERTEX
  8
0
  5
172
 10
0.539446
 20
0.370629
 30
0.000000
  70
    32
  0
VERTEX
  8
0
  5
173
 10
0.539269
 20
0.370706
 30
0.000000
  70
    32
  0
VERTEX
  8
0
  5
174
 10
0.539092
 20
0.370781
 30
0.000000
  70
    32
  0
VERTEX
  8
0
  5
175
 10
0.538913
 20
0.370855
 30
0.000000
  70
    32
  0
VERTEX
  8
0
  5
176
 10
0.538734
 20
0.370927
 30
0.000000
  70
    32
  0
VERTEX
  8
0
  5
177
 10
0.538553
 20
0.370997
 30
0.000000
  70
    32
  0
VERTEX
  8
0
  5
178
 10
0.538372
 20
0.371065
 30
0.000000
  70
    32
  0
VERTEX
  8
0
  5
179
 10
0.538191
 20
0.371132
 30
0.000000
  70
    32
  0
VERTEX
  8
0
  5
17A
 10
0.538008
 20
0.371197
 30
0.000000
  70
    32
  0
VERTEX
  8
0
  5
17B
 10
0.537824
 20
0.371260
 30
0.000000
  70
    32
  0
VERTEX
  8
0
  5
17C
 10
0.537640
 20
0.371322
 30
0.000000
  70
    32
  0
VERTEX
  8
0
  5
17D
 10
0.537455
 20
0.371381
 30
0.000000
  70
    32
  0
VERTEX
  8
0
  5
17E
 10
0.537270
 20
0.371439
 30
0.000000
  70
    32
  0
VERTEX
  8
0
  5
17F
 10
0.537083
 20
0.371496
 30
0.000000
  70
    32
  0
VERTEX
  8
0
  5
180
 10
0.536896
 20
0.371550
 30
0.000000
  70
    32
  0
VERTEX
  8
0
  5
181
 10
0.536708
 20
0.371602
 30
0.000000
  70
    32
  0
VERTEX
  8
0
  5
182
 10
0.536519
 20
0.371653
 30
0.000000
  70
    32
  0
VERTEX
  8
0
  5
183
 10
0.536330
 20
0.371702
 30
0.000000
  70
    32
  0
VERTEX
  8
0
  5
184
 10
0.536140
 20
0.371749
 30
0.000000
  70
    32
  0
VERTEX
  8
0
  5
185
 10
0.535949
 20
0.371794
 30
0.000000
  70
    32
  0
VERTEX
  8
0
  5
186
 10
0.535758
 20
0.371838
 30
0.000000
  70
    32
  0
VERTEX
  8
0
  5
187
 10
0.535566
 20
0.371879
 30
0.000000
  70
    32
  0
VERTEX
  8
0
  5
188
 10
0.535373
 20
0.371919
 30
0.000000
  70
    32
  0
VERTEX
  8
0
  5
189
 10
0.535180
 20
0.371956
 30
0.000000
  70
    32
  0
VERTEX
  8
0
  5
18A
 10
0.534986
 20
0.371992
 30
0.000000
  70
    32
  0
VERTEX
  8
0
  5
18B
 10
0.534792
 20
0.372026
 30
0.000000
  70
    32
  0
VERTEX
  8
0
  5
18C
 10
0.534596
 20
0.372058
 30
0.000000
  70
    32
  0
VERTEX
  8
0
  5
18D
 10
0.534401
 20
0.372088
 30
0.000000
  70
    32
  0
VERTEX
  8
0
  5
18E
 10
0.534205
 20
0.372117
 30
0.000000
  70
    32
  0
VERTEX
  8
0
  5
18F
 10
0.534008
 20
0.372143
 30
0.000000
  70
    32
  0
VERTEX
  8
0
  5
190
 10
0.533810
 20
0.372167
 30
0.000000
  70
    32
  0
VERTEX
  8
0
  5
191
 10
0.533612
 20
0.372189
 30
0.000000
  70
    32
  0
VERTEX
  8
0
  5
192
 10
0.533414
 20
0.372210
 30
0.000000
  70
    32
  0
VERTEX
  8
0
  5
193
 10
0.533215
 20
0.372228
 30
0.000000
  70
    32
  0
VERTEX
  8
0
  5
194
 10
0.533015
 20
0.372245
 30
0.000000
  70
    32
  0
VERTEX
  8
0
  5
195
 10
0.532815
 20
0.372259
 30
0.000000
  70
    32
  0
SEQEND
  8
0
  5
196
  0
POLYLINE
  8
0
  5
197
  66
     1
 10
0.000000
 20
0.000000
 30
0.000000
  70
     8
  0
VERTEX
  8
0
  5
198
 10
0.532815
 20
-0.362286
 30
0.000000
  70
    32
  0
VERTEX
  8
0
  5
199
 10
0.533015
 20
-0.362272
 30
0.000000
  70
    32
  0
VERTEX
  8
0
  5
19A
 10
0.533215
 20
-0.362255
 30
0.000000
  70
    32
  0
VERTEX
  8
0
  5
19B
 10
0.533414
 20
-0.362237
 30
0.000000
  70
    32
  0
VERTEX
  8
0
  5
19C
 10
0.533612
 20
-0.362217
 30
0.000000
  70
    32
  0
VERTEX
  8
0
  5
19D
 10
0.533810
 20
-0.362194
 30
0.000000
  70
    32
  0
VERTEX
  8
0
  5
19E
 10
0.534008
 20
-0.362170
 30
0.000000
  70
    32
  0
VERTEX
  8
0
  5
19F
 10
0.534205
 20
-0.362143
 30
0.000000
  70
    32
  0
VERTEX
  8
0
  5
1A0
 10
0.534401
 20
-0.362115
 30
0.000000
  70
    32
  0
VERTEX
  8
0
  5
1A1
 10
0.534596
 20
-0.362085
 30
0.000000
  70
    32
  0
VERTEX
  8
0
  5
1A2
 10
0.534792
 20
-0.362053
 30
0.000000
  70
    32
  0
VERTEX
  8
0
  5
1A3
 10
0.534986
 20
-0.362019
 30
0.000000
  70
    32
  0
VERTEX
  8
0
  5
1A4
 10
0.535180
 20
-0.361983
 30
0.000000
  70
    32
  0
VERTEX
  8
0
  5
1A5
 10
0.535373
 20
-0.361945
 30
0.000000
  70
    32
  0
VERTEX
  8
0
  5
1A6
 10
0.535566
 20
-0.361905
 30
0.000000
  70
    32
  0
VERTEX
  8
0
  5
1A7
 10
0.535758
 20
-0.361864
 30
0.000000
  70
    32
  0
VERTEX
  8
0
  5
1A8
 10
0.535949
 20
-0.361820
 30
0.000000
  70
    32
  0
VERTEX
  8
0
  5
1A9
 10
0.536140
 20
-0.361775
 30
0.000000
  70
    32
  0
VERTEX
  8
0
  5
1AA
 10
0.536330
 20
-0.361728
 30
0.000000
  70
    32
  0
VERTEX
  8
0
  5
1AB
 10
0.536519
 20
-0.361679
 30
0.000000
  70
    32
  0
VERTEX
  8
0
  5
1AC
 10
0.536708
 20
-0.361628
 30
0.000000
  70
    32
  0
VERTEX
  8
0
  5
1AD
 10
0.536896
 20
-0.361575
 30
0.000000
  70
    32
  0
VERTEX
  8
0
  5
1AE
 10
0.537083
 20
-0.361521
 30
0.000000
  70
    32
  0
VERTEX
  8
0
  5
1AF
 10
0.537270
 20
-0.361464
 30
0.000000
  70
    32
  0
VERTEX
  8
0
  5
1B0
 10
0.537455
 20
-0.361406
 30
0.000000
  70
    32
  0
VERTEX
  8
0
  5
1B1
 10
0.537640
 20
-0.361346
 30
0.000000
  70
    32
  0
VERTEX
  8
0
  5
1B2
 10
0.537824
 20
-0.361285
 30
0.000000
  70
    32
  0
VERTEX
  8
0
  5
1B3
 10
0.538008
 20
-0.361221
 30
0.000000
  70
    32
  0
VERTEX
  8
0
  5
1B4
 10
0.538191
 20
-0.361156
 30
0.000000
  70
    32
  0
VERTEX
  8
0
  5
1B5
 10
0.538372
 20
-0.361089
 30
0.000000
  70
    32
  0
VERTEX
  8
0
  5
1B6
 10
0.538553
 20
-0.361020
 30
0.000000
  70
    32
  0
VERTEX
  8
0
  5
1B7
 10
0.538734
 20
-0.360950
 30
0.000000
  70
    32
  0
VERTEX
  8
0
  5
1B8
 10
0.538913
 20
-0.360878
 30
0.000000
  70
    32
  0
VERTEX
  8
0
  5
1B9
 10
0.539092
 20
-0.360804
 30
0.000000
  70
    32
  0
VERTEX
  8
0
  5
1BA
 10
0.539269
 20
-0.360728
 30
0.000000
  70
    32
  0
VERTEX
  8
0
  5
1BB
 10
0.539446
 20
-0.360651
 30
0.000000
  70
    32
  0
VERTEX
  8
0
  5
1BC
 10
0.539622
 20
-0.360572
 30
0.000000
  70
    32
  0
VERTEX
  8
0
  5
1BD
 10
0.539797
 20
-0.360492
 30
0.000000
  70
    32
  0
VERTEX
  8
0
  5
1BE
 10
0.539972
 20
-0.360409
 30
0.000000
  70
    32
  0
VERTEX
  8
0
  5
1BF
 10
0.540145
 20
-0.360325
 30
0.000000
  70
    32
  0
VERTEX
  8
0
  5
1C0
 10
0.540317
 20
-0.360240
 30
0.000000
  70
    32
  0
VERTEX
  8
0
  5
1C1
 10
0.540489
 20
-0.360153
 30
0.000000
  70
    32
  0
VERTEX
  8
0
  5
1C2
 10
0.540659
 20
-0.360064
 30
0.000000
  70
    32
  0
VERTEX
  8
0
  5
1C3
 10
0.540829
 20
-0.359973
 30
0.000000
  70
    32
  0
VERTEX
  8
0
  5
1C4
 10
0.540997
 20
-0.359881
 30
0.000000
  70
    32
  0
VERTEX
  8
0
  5
1C5
 10
0.541165
 20
-0.359787
 30
0.000000
  70
    32
  0
VERTEX
  8
0
  5
1C6
 10
0.541332
 20
-0.359692
 30
0.000000
  70
    32
  0
VERTEX
  8
0
  5
1C7
 10
0.541497
 20
-0.359595
 30
0.000000
  70
    32
  0
VERTEX
  8
0
  5
1C8
 10
0.541662
 20
-0.359497
 30
0.000000
  70
    32
  0
VERTEX
  8
0
  5
1C9
 10
0.541826
 20
-0.359397
 30
0.000000
  70
    32
  0
VERTEX
  8
0
  5
1CA
 10
0.541988
 20
-0.359295
 30
0.000000
  70
    32
  0
VERTEX
  8
0
  5
1CB
 10
0.542150
 20
-0.359192
 30
0.000000
  70
    32
  0
VERTEX
  8
0
  5
1CC
 10
0.542311
 20
-0.359088
 30
0.000000
  70
    32
  0
VERTEX
  8
0
  5
1CD
 10
0.542470
 20
-0.358981
 30
0.000000
  70
    32
  0
VERTEX
  8
0
  5
1CE
 10
0.542629
 20
-0.358874
 30
0.000000
  70
    32
  0
VERTEX
  8
0
  5
1CF
 10
0.542786
 20
-0.358764
 30
0.000000
  70
    32
  0
VERTEX
  8
0
  5
1D0
 10
0.542942
 20
-0.358654
 30
0.000000
  70
    32
  0
VERTEX
  8
0
  5
1D1
 10
0.543097
 20
-0.358542
 30
0.000000
  70
    32
  0
VERTEX
  8
0
  5
1D2
 10
0.543251
 20
-0.358428
 30
0.000000
  70
    32
  0
VERTEX
  8
0
  5
1D3
 10
0.543404
 20
-0.358313
 30
0.000000
  70
    32
  0
VERTEX
  8
0
  5
1D4
 10
0.543556
 20
-0.358196
 30
0.000000
  70
    32
  0
VERTEX
  8
0
  5
1D5
 10
0.543707
 20
-0.358078
 30
0.000000
  70
    32
  0
VERTEX
  8
0
  5
1D6
 10
0.543856
 20
-0.357958
 30
0.000000
  70
    32
  0
VERTEX
  8
0
  5
1D7
 10
0.544004
 20
-0.357837
 30
0.000000
  70
    32
  0
VERTEX
  8
0
  5
1D8
 10
0.544152
 20
-0.357715
 30
0.000000
  70
    32
  0
VERTEX
  8
0
  5
1D9
 10
0.544298
 20
-0.357591
 30
0.000000
  70
    32
  0
VERTEX
  8
0
  5
1DA
 10
0.544442
 20
-0.357466
 30
0.000000
  70
    32
  0
VERTEX
  8
0
  5
1DB
 10
0.544586
 20
-0.357339
 30
0.000000
  70
    32
  0
VERTEX
  8
0
  5
1DC
 10
0.544728
 20
-0.357211
 30
0.000000
  70
    32
  0
VERTEX
  8
0
  5
1DD
 10
0.544869
 20
-0.357082
 30
0.000000
  70
    32
  0
VERTEX
  8
0
  5
1DE
 10
0.545009
 20
-0.356951
 30
0.000000
  70
    32
  0
VERTEX
  8
0
  5
1DF
 10
0.545148
 20
-0.356819
 30
0.000000
  70
    32
  0
VERTEX
  8
0
  5
1E0
 10
0.545285
 20
-0.356686
 30
0.000000
  70
    32
  0
VERTEX
  8
0
  5
1E1
 10
0.545421
 20
-0.356551
 30
0.000000
  70
    32
  0
VERTEX
  8
0
  5
1E2
 10
0.545556
 20
-0.356415
 30
0.000000
  70
    32
  0
VERTEX
  8
0
  5
1E3
 10
0.545689
 20
-0.356277
 30
0.000000
  70
    32
  0
VERTEX
  8
0
  5
1E4
 10
0.545821
 20
-0.356138
 30
0.000000
  70
    32
  0
VERTEX
  8
0
  5
1E5
 10
0.545952
 20
-0.355998
 30
0.000000
  70
    32
  0
VERTEX
  8
0
  5
1E6
 10
0.546082
 20
-0.355857
 30
0.000000
  70
    32
  0
VERTEX
  8
0
  5
1E7
 10
0.546210
 20
-0.355714
 30
0.000000
  70
    32
  0
VERTEX
  8
0
  5
1E8
 10
0.546337
 20
-0.355570
 30
0.000000
  70
    32
  0
VERTEX
  8
0
  5
1E9
 10
0.546462
 20
-0.355425
 30
0.000000
  70
    32
  0
VERTEX
  8
0
  5
1EA
 10
0.546586
 20
-0.355278
 30
0.000000
  70
    32
  0
VERTEX
  8
0
  5
1EB
 10
0.546709
 20
-0.355131
 30
0.000000
  70
    32
  0
VERTEX
  8
0
  5
1EC
 10
0.546830
 20
-0.354982
 30
0.000000
  70
    32
  0
VERTEX
  8
0
  5
1ED
 10
0.546950
 20
-0.354831
 30
0.000000
  70
    32
  0
VERTEX
  8
0
  5
1EE
 10
0.547069
 20
-0.354680
 30
0.000000
  70
    32
  0
VERTEX
  8
0
  5
1EF
 10
0.547186
 20
-0.354527
 30
0.000000
  70
    32
  0
VERTEX
  8
0
  5
1F0
 10
0.547301
 20
-0.354373
 30
0.000000
  70
    32
  0
VERTEX
  8
0
  5
1F1
 10
0.547415
 20
-0.354218
 30
0.000000
  70
    32
  0
VERTEX
  8
0
  5
1F2
 10
0.547528
 20
-0.354062
 30
0.000000
  70
    32
  0
VERTEX
  8
0
  5
1F3
 10
0.547639
 20
-0.353905
 30
0.000000
  70
    32
  0
VERTEX
  8
0
  5
1F4
 10
0.547749
 20
-0.353746
 30
0.000000
  70
    32
  0
VERTEX
  8
0
  5
1F5
 10
0.547857
 20
-0.353586
 30
0.000000
  70
    32
  0
VERTEX
  8
0
  5
1F6
 10
0.547964
 20
-0.353425
 30
0.000000
  70
    32
  0
VERTEX
  8
0
  5
1F7
 10
0.548069
 20
-0.353263
 30
0.000000
  70
    32
  0
VERTEX
  8
0
  5
1F8
 10
0.548173
 20
-0.353100
 30
0.000000
  70
    32
  0
VERTEX
  8
0
  5
1F9
 10
0.548275
 20
-0.352936
 30
0.000000
  70
    32
  0
VERTEX
  8
0
  5
1FA
 10
0.548376
 20
-0.352770
 30
0.000000
  70
    32
  0
VERTEX
  8
0
  5
1FB
 10
0.548475
 20
-0.352604
 30
0.000000
  70
    32
  0
VERTEX
  8
0
  5
1FC
 10
0.548572
 20
-0.352436
 30
0.000000
  70
    32
  0
VERTEX
  8
0
  5
1FD
 10
0.548668
 20
-0.352267
 30
0.000000
  70
    32
  0
VERTEX
  8
0
  5
1FE
 10
0.548762
 20
-0.352097
 30
0.000000
  70
    32
  0
VERTEX
  8
0
  5
1FF
 10
0.548855
 20
-0.351927
 30
0.000000
  70
    32
  0
VERTEX
  8
0
  5
200
 10
0.548946
 20
-0.351755
 30
0.000000
  70
    32
  0
VERTEX
  8
0
  5
201
 10
0.549036
 20
-0.351582
 30
0.000000
  70
    32
  0
VERTEX
  8
0
  5
202
 10
0.549123
 20
-0.351408
 30
0.000000
  70
    32
  0
VERTEX
  8
0
  5
203
 10
0.549210
 20
-0.351233
 30
0.000000
  70
    32
  0
VERTEX
  8
0
  5
204
 10
0.549294
 20
-0.351057
 30
0.000000
  70
    32
  0
VERTEX
  8
0
  5
205
 10
0.549377
 20
-0.350879
 30
0.000000
  70
    32
  0
VERTEX
  8
0
  5
206
 10
0.549458
 20
-0.350701
 30
0.000000
  70
    32
  0
VERTEX
  8
0
  5
207
 10
0.549538
 20
-0.350522
 30
0.000000
  70
    32
  0
VERTEX
  8
0
  5
208
 10
0.549615
 20
-0.350342
 30
0.000000
  70
    32
  0
VERTEX
  8
0
  5
209
 10
0.549691
 20
-0.350161
 30
0.000000
  70
    32
  0
VERTEX
  8
0
  5
20A
 10
0.549766
 20
-0.349979
 30
0.000000
  70
    32
  0
VERTEX
  8
0
  5
20B
 10
0.549838
 20
-0.349796
 30
0.000000
  70
    32
  0
VERTEX
  8
0
  5
20C
 10
0.549909
 20
-0.349612
 30
0.000000
  70
    32
  0
VERTEX
  8
0
  5
20D
 10
0.549978
 20
-0.349427
 30
0.000000
  70
    32
  0
VERTEX
  8
0
  5
20E
 10
0.550046
 20
-0.349242
 30
0.000000
  70
    32
  0
VERTEX
  8
0
  5
20F
 10
0.550111
 20
-0.349055
 30
0.000000
  70
    32
  0
VERTEX
  8
0
  5
210
 10
0.550175
 20
-0.348867
 30
0.000000
  70
    32
  0
VERTEX
  8
0
  5
211
 10
0.550237
 20
-0.348679
 30
0.000000
  70
    32
  0
VERTEX
  8
0
  5
212
 10
0.550297
 20
-0.348489
 30
0.000000
  70
    32
  0
VERTEX
  8
0
  5
213
 10
0.550355
 20
-0.348299
 30
0.000000
  70
    32
  0
VERTEX
  8
0
  5
214
 10
0.550412
 20
-0.348108
 30
0.000000
  70
    32
  0
VERTEX
  8
0
  5
215
 10
0.550466
 20
-0.347916
 30
0.000000
  70
    32
  0
VERTEX
  8
0
  5
216
 10
0.550519
 20
-0.347723
 30
0.000000
  70
    32
  0
VERTEX
  8
0
  5
217
 10
0.550570
 20
-0.347529
 30
0.000000
  70
    32
  0
SEQEND
  8
0
  5
218
  0
POLYLINE
  5
82
  8
0
 66
     1
 10
0.0
 20
0.0
 30
0.0
  0
VERTEX
  5
83
  8
0
 10
0.2559027585807598
 20
0.9178329093156207
 30
0.0
  0
VERTEX
  5
84
  8
0
 10
0.2559027585807598
 20
-0.9178057822940672
 30
0.0
  0
SEQEND
  5
85
  8
0
  0
POLYLINE
  5
86
  8
0
 66
     1
 10
0.0
 20
0.0
 30
0.0
  0
VERTEX
  5
87
  8
0
 10
0.0
 20
0.9375
 30
0.0
  0
VERTEX
  5
88
  8
0
 10
0.0
 20
-0.9374728729784465
 30
0.0
  0
SEQEND
  5
89
  8
0
  0
POLYLINE
  5
8A
  8
0
 66
     1
 10
0.0
 20
0.0
 30
0.0
  0
VERTEX
  5
8B
  8
0
 10
0.0
 20
-0.9375
 30
0.0
  0
VERTEX
  5
8C
  8
0
 10
0.2362221043858881
 20
-0.9375
 30
0.0
  0
SEQEND
  5
8D
  8
0
  0
POLYLINE
  5
8E
  8
0
 66
     1
 10
0.0
 20
0.0
 30
0.0
  0
VERTEX
  5
8F
  8
0
 10
0.0
 20
0.9375
 30
0.0
  0
VERTEX
  5
90
  8
0
 10
0.2362221043858881
 20
0.9375
 30
0.0
  0
SEQEND
  5
91
  8
0
  0
POLYLINE
  8
0
  5
219
  66
     1
 10
0.000000
 20
0.000000
 30
0.000000
  70
     8
  0
VERTEX
  8
0
  5
21A
 10
0.306603
 20
-0.510237
 30
0.000000
  70
    32
  0
VERTEX
  8
0
  5
21B
 10
0.306071
 20
-0.511264
 30
0.000000
  70
    32
  0
VERTEX
  8
0
  5
21C
 10
0.305542
 20
-0.512292
 30
0.000000
  70
    32
  0
VERTEX
  8
0
  5
21D
 10
0.305014
 20
-0.513321
 30
0.000000
  70
    32
  0
VERTEX
  8
0
  5
21E
 10
0.304488
 20
-0.514351
 30
0.000000
  70
    32
  0
VERTEX
  8
0
  5
21F
 10
0.303965
 20
-0.515382
 30
0.000000
  70
    32
  0
VERTEX
  8
0
  5
220
 10
0.303443
 20
-0.516414
 30
0.000000
  70
    32
  0
VERTEX
  8
0
  5
221
 10
0.302923
 20
-0.517447
 30
0.000000
  70
    32
  0
VERTEX
  8
0
  5
222
 10
0.302406
 20
-0.518480
 30
0.000000
  70
    32
  0
VERTEX
  8
0
  5
223
 10
0.301890
 20
-0.519515
 30
0.000000
  70
    32
  0
VERTEX
  8
0
  5
224
 10
0.301377
 20
-0.520551
 30
0.000000
  70
    32
  0
VERTEX
  8
0
  5
225
 10
0.300866
 20
-0.521587
 30
0.000000
  70
    32
  0
VERTEX
  8
0
  5
226
 10
0.300356
 20
-0.522625
 30
0.000000
  70
    32
  0
VERTEX
  8
0
  5
227
 10
0.299849
 20
-0.523663
 30
0.000000
  70
    32
  0
VERTEX
  8
0
  5
228
 10
0.299344
 20
-0.524702
 30
0.000000
  70
    32
  0
VERTEX
  8
0
  5
229
 10
0.298841
 20
-0.525743
 30
0.000000
  70
    32
  0
VERTEX
  8
0
  5
22A
 10
0.298340
 20
-0.526784
 30
0.000000
  70
    32
  0
VERTEX
  8
0
  5
22B
 10
0.297841
 20
-0.527826
 30
0.000000
  70
    32
  0
VERTEX
  8
0
  5
22C
 10
0.297344
 20
-0.528869
 30
0.000000
  70
    32
  0
VERTEX
  8
0
  5
22D
 10
0.296849
 20
-0.529913
 30
0.000000
  70
    32
  0
VERTEX
  8
0
  5
22E
 10
0.296356
 20
-0.530958
 30
0.000000
  70
    32
  0
VERTEX
  8
0
  5
22F
 10
0.295865
 20
-0.532004
 30
0.000000
  70
    32
  0
VERTEX
  8
0
  5
230
 10
0.295377
 20
-0.533051
 30
0.000000
  70
    32
  0
VERTEX
  8
0
  5
231
 10
0.294890
 20
-0.534098
 30
0.000000
  70
    32
  0
VERTEX
  8
0
  5
232
 10
0.294405
 20
-0.535147
 30
0.000000
  70
    32
  0
VERTEX
  8
0
  5
233
 10
0.293923
 20
-0.536196
 30
0.000000
  70
    32
  0
VERTEX
  8
0
  5
234
 10
0.293442
 20
-0.537247
 30
0.000000
  70
    32
  0
VERTEX
  8
0
  5
235
 10
0.292964
 20
-0.538298
 30
0.000000
  70
    32
  0
VERTEX
  8
0
  5
236
 10
0.292488
 20
-0.539350
 30
0.000000
  70
    32
  0
VERTEX
  8
0
  5
237
 10
0.292013
 20
-0.540403
 30
0.000000
  70
    32
  0
VERTEX
  8
0
  5
238
 10
0.291541
 20
-0.541457
 30
0.000000
  70
    32
  0
VERTEX
  8
0
  5
239
 10
0.291071
 20
-0.542512
 30
0.000000
  70
    32
  0
VERTEX
  8
0
  5
23A
 10
0.290603
 20
-0.543567
 30
0.000000
  70
    32
  0
VERTEX
  8
0
  5
23B
 10
0.290137
 20
-0.544624
 30
0.000000
  70
    32
  0
VERTEX
  8
0
  5
23C
 10
0.289673
 20
-0.545681
 30
0.000000
  70
    32
  0
VERTEX
  8
0
  5
23D
 10
0.289211
 20
-0.546739
 30
0.000000
  70
    32
  0
VERTEX
  8
0
  5
23E
 10
0.288752
 20
-0.547799
 30
0.000000
  70
    32
  0
VERTEX
  8
0
  5
23F
 10
0.288294
 20
-0.548859
 30
0.000000
  70
    32
  0
VERTEX
  8
0
  5
240
 10
0.287839
 20
-0.549919
 30
0.000000
  70
    32
  0
VERTEX
  8
0
  5
241
 10
0.287385
 20
-0.550981
 30
0.000000
  70
    32
  0
VERTEX
  8
0
  5
242
 10
0.286934
 20
-0.552044
 30
0.000000
  70
    32
  0
VERTEX
  8
0
  5
243
 10
0.286484
 20
-0.553107
 30
0.000000
  70
    32
  0
VERTEX
  8
0
  5
244
 10
0.286037
 20
-0.554172
 30
0.000000
  70
    32
  0
VERTEX
  8
0
  5
245
 10
0.285592
 20
-0.555237
 30
0.000000
  70
    32
  0
VERTEX
  8
0
  5
246
 10
0.285149
 20
-0.556303
 30
0.000000
  70
    32
  0
VERTEX
  8
0
  5
247
 10
0.284708
 20
-0.557369
 30
0.000000
  70
    32
  0
VERTEX
  8
0
  5
248
 10
0.284269
 20
-0.558437
 30
0.000000
  70
    32
  0
VERTEX
  8
0
  5
249
 10
0.283833
 20
-0.559506
 30
0.000000
  70
    32
  0
VERTEX
  8
0
  5
24A
 10
0.283398
 20
-0.560575
 30
0.000000
  70
    32
  0
VERTEX
  8
0
  5
24B
 10
0.282965
 20
-0.561645
 30
0.000000
  70
    32
  0
VERTEX
  8
0
  5
24C
 10
0.282535
 20
-0.562716
 30
0.000000
  70
    32
  0
VERTEX
  8
0
  5
24D
 10
0.282107
 20
-0.563788
 30
0.000000
  70
    32
  0
VERTEX
  8
0
  5
24E
 10
0.281680
 20
-0.564861
 30
0.000000
  70
    32
  0
VERTEX
  8
0
  5
24F
 10
0.281256
 20
-0.565934
 30
0.000000
  70
    32
  0
VERTEX
  8
0
  5
250
 10
0.280834
 20
-0.567008
 30
0.000000
  70
    32
  0
VERTEX
  8
0
  5
251
 10
0.280414
 20
-0.568084
 30
0.000000
  70
    32
  0
VERTEX
  8
0
  5
252
 10
0.279996
 20
-0.569159
 30
0.000000
  70
    32
  0
VERTEX
  8
0
  5
253
 10
0.279581
 20
-0.570236
 30
0.000000
  70
    32
  0
VERTEX
  8
0
  5
254
 10
0.279167
 20
-0.571314
 30
0.000000
  70
    32
  0
VERTEX
  8
0
  5
255
 10
0.278755
 20
-0.572392
 30
0.000000
  70
    32
  0
VERTEX
  8
0
  5
256
 10
0.278346
 20
-0.573471
 30
0.000000
  70
    32
  0
VERTEX
  8
0
  5
257
 10
0.277939
 20
-0.574551
 30
0.000000
  70
    32
  0
VERTEX
  8
0
  5
258
 10
0.277533
 20
-0.575632
 30
0.000000
  70
    32
  0
VERTEX
  8
0
  5
259
 10
0.277130
 20
-0.576713
 30
0.000000
  70
    32
  0
VERTEX
  8
0
  5
25A
 10
0.276729
 20
-0.577796
 30
0.000000
  70
    32
  0
VERTEX
  8
0
  5
25B
 10
0.276331
 20
-0.578879
 30
0.000000
  70
    32
  0
VERTEX
  8
0
  5
25C
 10
0.275934
 20
-0.579963
 30
0.000000
  70
    32
  0
VERTEX
  8
0
  5
25D
 10
0.275539
 20
-0.581047
 30
0.000000
  70
    32
  0
VERTEX
  8
0
  5
25E
 10
0.275147
 20
-0.582133
 30
0.000000
  70
    32
  0
VERTEX
  8
0
  5
25F
 10
0.274756
 20
-0.583219
 30
0.000000
  70
    32
  0
VERTEX
  8
0
  5
260
 10
0.274368
 20
-0.584306
 30
0.000000
  70
    32
  0
VERTEX
  8
0
  5
261
 10
0.273982
 20
-0.585394
 30
0.000000
  70
    32
  0
VERTEX
  8
0
  5
262
 10
0.273598
 20
-0.586482
 30
0.000000
  70
    32
  0
VERTEX
  8
0
  5
263
 10
0.273216
 20
-0.587571
 30
0.000000
  70
    32
  0
VERTEX
  8
0
  5
264
 10
0.272836
 20
-0.588661
 30
0.000000
  70
    32
  0
VERTEX
  8
0
  5
265
 10
0.272458
 20
-0.589752
 30
0.000000
  70
    32
  0
VERTEX
  8
0
  5
266
 10
0.272083
 20
-0.590844
 30
0.000000
  70
    32
  0
VERTEX
  8
0
  5
267
 10
0.271710
 20
-0.591936
 30
0.000000
  70
    32
  0
VERTEX
  8
0
  5
268
 10
0.271338
 20
-0.593029
 30
0.000000
  70
    32
  0
VERTEX
  8
0
  5
269
 10
0.270969
 20
-0.594123
 30
0.000000
  70
    32
  0
VERTEX
  8
0
  5
26A
 10
0.270602
 20
-0.595217
 30
0.000000
  70
    32
  0
VERTEX
  8
0
  5
26B
 10
0.270237
 20
-0.596313
 30
0.000000
  70
    32
  0
VERTEX
  8
0
  5
26C
 10
0.269875
 20
-0.597409
 30
0.000000
  70
    32
  0
VERTEX
  8
0
  5
26D
 10
0.269514
 20
-0.598505
 30
0.000000
  70
    32
  0
VERTEX
  8
0
  5
26E
 10
0.269155
 20
-0.599603
 30
0.000000
  70
    32
  0
VERTEX
  8
0
  5
26F
 10
0.268799
 20
-0.600701
 30
0.000000
  70
    32
  0
VERTEX
  8
0
  5
270
 10
0.268445
 20
-0.601800
 30
0.000000
  70
    32
  0
VERTEX
  8
0
  5
271
 10
0.268093
 20
-0.602900
 30
0.000000
  70
    32
  0
VERTEX
  8
0
  5
272
 10
0.267743
 20
-0.604000
 30
0.000000
  70
    32
  0
VERTEX
  8
0
  5
273
 10
0.267395
 20
-0.605101
 30
0.000000
  70
    32
  0
VERTEX
  8
0
  5
274
 10
0.267050
 20
-0.606203
 30
0.000000
  70
    32
  0
VERTEX
  8
0
  5
275
 10
0.266706
 20
-0.607305
 30
0.000000
  70
    32
  0
VERTEX
  8
0
  5
276
 10
0.266365
 20
-0.608409
 30
0.000000
  70
    32
  0
VERTEX
  8
0
  5
277
 10
0.266026
 20
-0.609513
 30
0.000000
  70
    32
  0
VERTEX
  8
0
  5
278
 10
0.265689
 20
-0.610617
 30
0.000000
  70
    32
  0
VERTEX
  8
0
  5
279
 10
0.265354
 20
-0.611723
 30
0.000000
  70
    32
  0
VERTEX
  8
0
  5
27A
 10
0.265021
 20
-0.612829
 30
0.000000
  70
    32
  0
VERTEX
  8
0
  5
27B
 10
0.264691
 20
-0.613935
 30
0.000000
  70
    32
  0
VERTEX
  8
0
  5
27C
 10
0.264362
 20
-0.615043
 30
0.000000
  70
    32
  0
VERTEX
  8
0
  5
27D
 10
0.264036
 20
-0.616151
 30
0.000000
  70
    32
  0
VERTEX
  8
0
  5
27E
 10
0.263712
 20
-0.617260
 30
0.000000
  70
    32
  0
VERTEX
  8
0
  5
27F
 10
0.263390
 20
-0.618369
 30
0.000000
  70
    32
  0
VERTEX
  8
0
  5
280
 10
0.263070
 20
-0.619479
 30
0.000000
  70
    32
  0
VERTEX
  8
0
  5
281
 10
0.262752
 20
-0.620590
 30
0.000000
  70
    32
  0
VERTEX
  8
0
  5
282
 10
0.262437
 20
-0.621702
 30
0.000000
  70
    32
  0
VERTEX
  8
0
  5
283
 10
0.262124
 20
-0.622814
 30
0.000000
  70
    32
  0
VERTEX
  8
0
  5
284
 10
0.261813
 20
-0.623927
 30
0.000000
  70
    32
  0
VERTEX
  8
0
  5
285
 10
0.261504
 20
-0.625040
 30
0.000000
  70
    32
  0
VERTEX
  8
0
  5
286
 10
0.261197
 20
-0.626154
 30
0.000000
  70
    32
  0
VERTEX
  8
0
  5
287
 10
0.260892
 20
-0.627269
 30
0.000000
  70
    32
  0
VERTEX
  8
0
  5
288
 10
0.260590
 20
-0.628385
 30
0.000000
  70
    32
  0
VERTEX
  8
0
  5
289
 10
0.260289
 20
-0.629501
 30
0.000000
  70
    32
  0
VERTEX
  8
0
  5
28A
 10
0.259991
 20
-0.630618
 30
0.000000
  70
    32
  0
VERTEX
  8
0
  5
28B
 10
0.259695
 20
-0.631735
 30
0.000000
  70
    32
  0
VERTEX
  8
0
  5
28C
 10
0.259402
 20
-0.632853
 30
0.000000
  70
    32
  0
VERTEX
  8
0
  5
28D
 10
0.259110
 20
-0.633972
 30
0.000000
  70
    32
  0
VERTEX
  8
0
  5
28E
 10
0.258821
 20
-0.635091
 30
0.000000
  70
    32
  0
VERTEX
  8
0
  5
28F
 10
0.258533
 20
-0.636211
 30
0.000000
  70
    32
  0
VERTEX
  8
0
  5
290
 10
0.258248
 20
-0.637332
 30
0.000000
  70
    32
  0
VERTEX
  8
0
  5
291
 10
0.257965
 20
-0.638453
 30
0.000000
  70
    32
  0
VERTEX
  8
0
  5
292
 10
0.257685
 20
-0.639575
 30
0.000000
  70
    32
  0
VERTEX
  8
0
  5
293
 10
0.257406
 20
-0.640697
 30
0.000000
  70
    32
  0
VERTEX
  8
0
  5
294
 10
0.257130
 20
-0.641821
 30
0.000000
  70
    32
  0
VERTEX
  8
0
  5
295
 10
0.256856
 20
-0.642944
 30
0.000000
  70
    32
  0
VERTEX
  8
0
  5
296
 10
0.256584
 20
-0.644069
 30
0.000000
  70
    32
  0
VERTEX
  8
0
  5
297
 10
0.256314
 20
-0.645194
 30
0.000000
  70
    32
  0
VERTEX
  8
0
  5
298
 10
0.256046
 20
-0.646319
 30
0.000000
  70
    32
  0
VERTEX
  8
0
  5
299
 10
0.255781
 20
-0.647446
 30
0.000000
  70
    32
  0
SEQEND
  8
0
  5
29A
  0
POLYLINE
  8
0
  5
29B
  66
     1
 10
0.000000
 20
0.000000
 30
0.000000
  70
     8
  0
VERTEX
  8
0
  5
29C
 10
0.255781
 20
0.657418
 30
0.000000
  70
    32
  0
VERTEX
  8
0
  5
29D
 10
0.256046
 20
0.656293
 30
0.000000
  70
    32
  0
VERTEX
  8
0
  5
29E
 10
0.256314
 20
0.655168
 30
0.000000
  70
    32
  0
VERTEX
  8
0
  5
29F
 10
0.256583
 20
0.654043
 30
0.000000
  70
    32
  0
VERTEX
  8
0
  5
2A0
 10
0.256855
 20
0.652920
 30
0.000000
  70
    32
  0
VERTEX
  8
0
  5
2A1
 10
0.257130
 20
0.651796
 30
0.000000
  70
    32
  0
VERTEX
  8
0
  5
2A2
 10
0.257406
 20
0.650674
 30
0.000000
  70
    32
  0
VERTEX
  8
0
  5
2A3
 10
0.257684
 20
0.649552
 30
0.000000
  70
    32
  0
VERTEX
  8
0
  5
2A4
 10
0.257965
 20
0.648430
 30
0.000000
  70
    32
  0
VERTEX
  8
0
  5
2A5
 10
0.258248
 20
0.647310
 30
0.000000
  70
    32
  0
VERTEX
  8
0
  5
2A6
 10
0.258533
 20
0.646189
 30
0.000000
  70
    32
  0
VERTEX
  8
0
  5
2A7
 10
0.258820
 20
0.645070
 30
0.000000
  70
    32
  0
VERTEX
  8
0
  5
2A8
 10
0.259110
 20
0.643951
 30
0.000000
  70
    32
  0
VERTEX
  8
0
  5
2A9
 10
0.259401
 20
0.642833
 30
0.000000
  70
    32
  0
VERTEX
  8
0
  5
2AA
 10
0.259695
 20
0.641715
 30
0.000000
  70
    32
  0
VERTEX
  8
0
  5
2AB
 10
0.259991
 20
0.640598
 30
0.000000
  70
    32
  0
VERTEX
  8
0
  5
2AC
 10
0.260289
 20
0.639481
 30
0.000000
  70
    32
  0
VERTEX
  8
0
  5
2AD
 10
0.260589
 20
0.638366
 30
0.000000
  70
    32
  0
VERTEX
  8
0
  5
2AE
 10
0.260892
 20
0.637250
 30
0.000000
  70
    32
  0
VERTEX
  8
0
  5
2AF
 10
0.261196
 20
0.636136
 30
0.000000
  70
    32
  0
VERTEX
  8
0
  5
2B0
 10
0.261503
 20
0.635022
 30
0.000000
  70
    32
  0
VERTEX
  8
0
  5
2B1
 10
0.261812
 20
0.633909
 30
0.000000
  70
    32
  0
VERTEX
  8
0
  5
2B2
 10
0.262123
 20
0.632796
 30
0.000000
  70
    32
  0
VERTEX
  8
0
  5
2B3
 10
0.262436
 20
0.631684
 30
0.000000
  70
    32
  0
VERTEX
  8
0
  5
2B4
 10
0.262751
 20
0.630573
 30
0.000000
  70
    32
  0
VERTEX
  8
0
  5
2B5
 10
0.263069
 20
0.629462
 30
0.000000
  70
    32
  0
VERTEX
  8
0
  5
2B6
 10
0.263389
 20
0.628353
 30
0.000000
  70
    32
  0
VERTEX
  8
0
  5
2B7
 10
0.263711
 20
0.627243
 30
0.000000
  70
    32
  0
VERTEX
  8
0
  5
2B8
 10
0.264035
 20
0.626135
 30
0.000000
  70
    32
  0
VERTEX
  8
0
  5
2B9
 10
0.264361
 20
0.625027
 30
0.000000
  70
    32
  0
VERTEX
  8
0
  5
2BA
 10
0.264689
 20
0.623919
 30
0.000000
  70
    32
  0
VERTEX
  8
0
  5
2BB
 10
0.265020
 20
0.622813
 30
0.000000
  70
    32
  0
VERTEX
  8
0
  5
2BC
 10
0.265352
 20
0.621707
 30
0.000000
  70
    32
  0
VERTEX
  8
0
  5
2BD
 10
0.265687
 20
0.620602
 30
0.000000
  70
    32
  0
VERTEX
  8
0
  5
2BE
 10
0.266024
 20
0.619497
 30
0.000000
  70
    32
  0
VERTEX
  8
0
  5
2BF
 10
0.266363
 20
0.618393
 30
0.000000
  70
    32
  0
VERTEX
  8
0
  5
2C0
 10
0.266704
 20
0.617290
 30
0.000000
  70
    32
  0
VERTEX
  8
0
  5
2C1
 10
0.267048
 20
0.616188
 30
0.000000
  70
    32
  0
VERTEX
  8
0
  5
2C2
 10
0.267393
 20
0.615086
 30
0.000000
  70
    32
  0
VERTEX
  8
0
  5
2C3
 10
0.267741
 20
0.613985
 30
0.000000
  70
    32
  0
VERTEX
  8
0
  5
2C4
 10
0.268091
 20
0.612885
 30
0.000000
  70
    32
  0
VERTEX
  8
0
  5
2C5
 10
0.268443
 20
0.611785
 30
0.000000
  70
    32
  0
VERTEX
  8
0
  5
2C6
 10
0.268797
 20
0.610686
 30
0.000000
  70
    32
  0
VERTEX
  8
0
  5
2C7
 10
0.269153
 20
0.609588
 30
0.000000
  70
    32
  0
VERTEX
  8
0
  5
2C8
 10
0.269511
 20
0.608490
 30
0.000000
  70
    32
  0
VERTEX
  8
0
  5
2C9
 10
0.269872
 20
0.607394
 30
0.000000
  70
    32
  0
VERTEX
  8
0
  5
2CA
 10
0.270235
 20
0.606298
 30
0.000000
  70
    32
  0
VERTEX
  8
0
  5
2CB
 10
0.270599
 20
0.605202
 30
0.000000
  70
    32
  0
VERTEX
  8
0
  5
2CC
 10
0.270966
 20
0.604108
 30
0.000000
  70
    32
  0
VERTEX
  8
0
  5
2CD
 10
0.271335
 20
0.603014
 30
0.000000
  70
    32
  0
VERTEX
  8
0
  5
2CE
 10
0.271707
 20
0.601921
 30
0.000000
  70
    32
  0
VERTEX
  8
0
  5
2CF
 10
0.272080
 20
0.600828
 30
0.000000
  70
    32
  0
VERTEX
  8
0
  5
2D0
 10
0.272455
 20
0.599737
 30
0.000000
  70
    32
  0
VERTEX
  8
0
  5
2D1
 10
0.272833
 20
0.598646
 30
0.000000
  70
    32
  0
VERTEX
  8
0
  5
2D2
 10
0.273213
 20
0.597556
 30
0.000000
  70
    32
  0
VERTEX
  8
0
  5
2D3
 10
0.273595
 20
0.596466
 30
0.000000
  70
    32
  0
VERTEX
  8
0
  5
2D4
 10
0.273979
 20
0.595378
 30
0.000000
  70
    32
  0
VERTEX
  8
0
  5
2D5
 10
0.274365
 20
0.594290
 30
0.000000
  70
    32
  0
VERTEX
  8
0
  5
2D6
 10
0.274753
 20
0.593203
 30
0.000000
  70
    32
  0
VERTEX
  8
0
  5
2D7
 10
0.275143
 20
0.592116
 30
0.000000
  70
    32
  0
VERTEX
  8
0
  5
2D8
 10
0.275536
 20
0.591031
 30
0.000000
  70
    32
  0
VERTEX
  8
0
  5
2D9
 10
0.275930
 20
0.589946
 30
0.000000
  70
    32
  0
VERTEX
  8
0
  5
2DA
 10
0.276327
 20
0.588862
 30
0.000000
  70
    32
  0
VERTEX
  8
0
  5
2DB
 10
0.276726
 20
0.587779
 30
0.000000
  70
    32
  0
VERTEX
  8
0
  5
2DC
 10
0.277127
 20
0.586696
 30
0.000000
  70
    32
  0
VERTEX
  8
0
  5
2DD
 10
0.277530
 20
0.585615
 30
0.000000
  70
    32
  0
VERTEX
  8
0
  5
2DE
 10
0.277935
 20
0.584534
 30
0.000000
  70
    32
  0
VERTEX
  8
0
  5
2DF
 10
0.278343
 20
0.583454
 30
0.000000
  70
    32
  0
VERTEX
  8
0
  5
2E0
 10
0.278752
 20
0.582374
 30
0.000000
  70
    32
  0
VERTEX
  8
0
  5
2E1
 10
0.279164
 20
0.581296
 30
0.000000
  70
    32
  0
VERTEX
  8
0
  5
2E2
 10
0.279577
 20
0.580218
 30
0.000000
  70
    32
  0
VERTEX
  8
0
  5
2E3
 10
0.279993
 20
0.579141
 30
0.000000
  70
    32
  0
VERTEX
  8
0
  5
2E4
 10
0.280411
 20
0.578065
 30
0.000000
  70
    32
  0
VERTEX
  8
0
  5
2E5
 10
0.280831
 20
0.576990
 30
0.000000
  70
    32
  0
VERTEX
  8
0
  5
2E6
 10
0.281253
 20
0.575915
 30
0.000000
  70
    32
  0
VERTEX
  8
0
  5
2E7
 10
0.281677
 20
0.574842
 30
0.000000
  70
    32
  0
VERTEX
  8
0
  5
2E8
 10
0.282104
 20
0.573769
 30
0.000000
  70
    32
  0
VERTEX
  8
0
  5
2E9
 10
0.282532
 20
0.572697
 30
0.000000
  70
    32
  0
VERTEX
  8
0
  5
2EA
 10
0.282963
 20
0.571625
 30
0.000000
  70
    32
  0
VERTEX
  8
0
  5
2EB
 10
0.283395
 20
0.570555
 30
0.000000
  70
    32
  0
VERTEX
  8
0
  5
2EC
 10
0.283830
 20
0.569486
 30
0.000000
  70
    32
  0
VERTEX
  8
0
  5
2ED
 10
0.284267
 20
0.568417
 30
0.000000
  70
    32
  0
VERTEX
  8
0
  5
2EE
 10
0.284706
 20
0.567349
 30
0.000000
  70
    32
  0
VERTEX
  8
0
  5
2EF
 10
0.285147
 20
0.566282
 30
0.000000
  70
    32
  0
VERTEX
  8
0
  5
2F0
 10
0.285590
 20
0.565216
 30
0.000000
  70
    32
  0
VERTEX
  8
0
  5
2F1
 10
0.286035
 20
0.564150
 30
0.000000
  70
    32
  0
VERTEX
  8
0
  5
2F2
 10
0.286483
 20
0.563086
 30
0.000000
  70
    32
  0
VERTEX
  8
0
  5
2F3
 10
0.286932
 20
0.562022
 30
0.000000
  70
    32
  0
VERTEX
  8
0
  5
2F4
 10
0.287384
 20
0.560959
 30
0.000000
  70
    32
  0
VERTEX
  8
0
  5
2F5
 10
0.287837
 20
0.559897
 30
0.000000
  70
    32
  0
VERTEX
  8
0
  5
2F6
 10
0.288293
 20
0.558836
 30
0.000000
  70
    32
  0
VERTEX
  8
0
  5
2F7
 10
0.288751
 20
0.557776
 30
0.000000
  70
    32
  0
VERTEX
  8
0
  5
2F8
 10
0.289211
 20
0.556717
 30
0.000000
  70
    32
  0
VERTEX
  8
0
  5
2F9
 10
0.289673
 20
0.555658
 30
0.000000
  70
    32
  0
VERTEX
  8
0
  5
2FA
 10
0.290137
 20
0.554601
 30
0.000000
  70
    32
  0
VERTEX
  8
0
  5
2FB
 10
0.290603
 20
0.553544
 30
0.000000
  70
    32
  0
VERTEX
  8
0
  5
2FC
 10
0.291071
 20
0.552488
 30
0.000000
  70
    32
  0
VERTEX
  8
0
  5
2FD
 10
0.291542
 20
0.551433
 30
0.000000
  70
    32
  0
VERTEX
  8
0
  5
2FE
 10
0.292014
 20
0.550379
 30
0.000000
  70
    32
  0
VERTEX
  8
0
  5
2FF
 10
0.292489
 20
0.549326
 30
0.000000
  70
    32
  0
VERTEX
  8
0
  5
300
 10
0.292965
 20
0.548274
 30
0.000000
  70
    32
  0
VERTEX
  8
0
  5
301
 10
0.293444
 20
0.547222
 30
0.000000
  70
    32
  0
VERTEX
  8
0
  5
302
 10
0.293925
 20
0.546172
 30
0.000000
  70
    32
  0
VERTEX
  8
0
  5
303
 10
0.294407
 20
0.545122
 30
0.000000
  70
    32
  0
VERTEX
  8
0
  5
304
 10
0.294892
 20
0.544073
 30
0.000000
  70
    32
  0
VERTEX
  8
0
  5
305
 10
0.295379
 20
0.543026
 30
0.000000
  70
    32
  0
VERTEX
  8
0
  5
306
 10
0.295868
 20
0.541979
 30
0.000000
  70
    32
  0
VERTEX
  8
0
  5
307
 10
0.296360
 20
0.540933
 30
0.000000
  70
    32
  0
VERTEX
  8
0
  5
308
 10
0.296853
 20
0.539888
 30
0.000000
  70
    32
  0
VERTEX
  8
0
  5
309
 10
0.297348
 20
0.538844
 30
0.000000
  70
    32
  0
VERTEX
  8
0
  5
30A
 10
0.297845
 20
0.537800
 30
0.000000
  70
    32
  0
VERTEX
  8
0
  5
30B
 10
0.298345
 20
0.536758
 30
0.000000
  70
    32
  0
VERTEX
  8
0
  5
30C
 10
0.298846
 20
0.535717
 30
0.000000
  70
    32
  0
VERTEX
  8
0
  5
30D
 10
0.299350
 20
0.534676
 30
0.000000
  70
    32
  0
VERTEX
  8
0
  5
30E
 10
0.299856
 20
0.533637
 30
0.000000
  70
    32
  0
VERTEX
  8
0
  5
30F
 10
0.300363
 20
0.532598
 30
0.000000
  70
    32
  0
VERTEX
  8
0
  5
310
 10
0.300873
 20
0.531561
 30
0.000000
  70
    32
  0
VERTEX
  8
0
  5
311
 10
0.301385
 20
0.530524
 30
0.000000
  70
    32
  0
VERTEX
  8
0
  5
312
 10
0.301899
 20
0.529488
 30
0.000000
  70
    32
  0
VERTEX
  8
0
  5
313
 10
0.302415
 20
0.528453
 30
0.000000
  70
    32
  0
VERTEX
  8
0
  5
314
 10
0.302933
 20
0.527420
 30
0.000000
  70
    32
  0
VERTEX
  8
0
  5
315
 10
0.303453
 20
0.526387
 30
0.000000
  70
    32
  0
VERTEX
  8
0
  5
316
 10
0.303975
 20
0.525355
 30
0.000000
  70
    32
  0
VERTEX
  8
0
  5
317
 10
0.304499
 20
0.524324
 30
0.000000
  70
    32
  0
VERTEX
  8
0
  5
318
 10
0.305026
 20
0.523294
 30
0.000000
  70
    32
  0
VERTEX
  8
0
  5
319
 10
0.305554
 20
0.522265
 30
0.000000
  70
    32
  0
VERTEX
  8
0
  5
31A
 10
0.306084
 20
0.521237
 30
0.000000
  70
    32
  0
VERTEX
  8
0
  5
31B
 10
0.306617
 20
0.520210
 30
0.000000
  70
    32
  0
SEQEND
  8
0
  5
31C
  0
POLYLINE
  8
0
  5
31D
  66
     1
 10
0.000000
 20
0.000000
 30
0.000000
  70
     8
  0
VERTEX
  8
0
  5
31E
 10
0.532815
 20
-0.362286
 30
0.000000
  70
    32
  0
VERTEX
  8
0
  5
31F
 10
0.530548
 20
-0.362447
 30
0.000000
  70
    32
  0
VERTEX
  8
0
  5
320
 10
0.528284
 20
-0.362626
 30
0.000000
  70
    32
  0
VERTEX
  8
0
  5
321
 10
0.526024
 20
-0.362823
 30
0.000000
  70
    32
  0
VERTEX
  8
0
  5
322
 10
0.523768
 20
-0.363038
 30
0.000000
  70
    32
  0
VERTEX
  8
0
  5
323
 10
0.521517
 20
-0.363272
 30
0.000000
  70
    32
  0
VERTEX
  8
0
  5
324
 10
0.519270
 20
-0.363524
 30
0.000000
  70
    32
  0
VERTEX
  8
0
  5
325
 10
0.517027
 20
-0.363794
 30
0.000000
  70
    32
  0
VERTEX
  8
0
  5
326
 10
0.514789
 20
-0.364083
 30
0.000000
  70
    32
  0
VERTEX
  8
0
  5
327
 10
0.512555
 20
-0.364389
 30
0.000000
  70
    32
  0
VERTEX
  8
0
  5
328
 10
0.510326
 20
-0.364713
 30
0.000000
  70
    32
  0
VERTEX
  8
0
  5
329
 10
0.508101
 20
-0.365055
 30
0.000000
  70
    32
  0
VERTEX
  8
0
  5
32A
 10
0.505882
 20
-0.365415
 30
0.000000
  70
    32
  0
VERTEX
  8
0
  5
32B
 10
0.503667
 20
-0.365793
 30
0.000000
  70
    32
  0
VERTEX
  8
0
  5
32C
 10
0.501458
 20
-0.366188
 30
0.000000
  70
    32
  0
VERTEX
  8
0
  5
32D
 10
0.499254
 20
-0.366601
 30
0.000000
  70
    32
  0
VERTEX
  8
0
  5
32E
 10
0.497054
 20
-0.367032
 30
0.000000
  70
    32
  0
VERTEX
  8
0
  5
32F
 10
0.494861
 20
-0.367480
 30
0.000000
  70
    32
  0
VERTEX
  8
0
  5
330
 10
0.492672
 20
-0.367945
 30
0.000000
  70
    32
  0
VERTEX
  8
0
  5
331
 10
0.490489
 20
-0.368428
 30
0.000000
  70
    32
  0
VERTEX
  8
0
  5
332
 10
0.488312
 20
-0.368929
 30
0.000000
  70
    32
  0
VERTEX
  8
0
  5
333
 10
0.486140
 20
-0.369447
 30
0.000000
  70
    32
  0
VERTEX
  8
0
  5
334
 10
0.483974
 20
-0.369981
 30
0.000000
  70
    32
  0
VERTEX
  8
0
  5
335
 10
0.481814
 20
-0.370534
 30
0.000000
  70
    32
  0
VERTEX
  8
0
  5
336
 10
0.479659
 20
-0.371103
 30
0.000000
  70
    32
  0
VERTEX
  8
0
  5
337
 10
0.477511
 20
-0.371689
 30
0.000000
  70
    32
  0
VERTEX
  8
0
  5
338
 10
0.475369
 20
-0.372292
 30
0.000000
  70
    32
  0
VERTEX
  8
0
  5
339
 10
0.473233
 20
-0.372913
 30
0.000000
  70
    32
  0
VERTEX
  8
0
  5
33A
 10
0.471104
 20
-0.373550
 30
0.000000
  70
    32
  0
VERTEX
  8
0
  5
33B
 10
0.468981
 20
-0.374204
 30
0.000000
  70
    32
  0
VERTEX
  8
0
  5
33C
 10
0.466864
 20
-0.374874
 30
0.000000
  70
    32
  0
VERTEX
  8
0
  5
33D
 10
0.464754
 20
-0.375562
 30
0.000000
  70
    32
  0
VERTEX
  8
0
  5
33E
 10
0.462650
 20
-0.376266
 30
0.000000
  70
    32
  0
VERTEX
  8
0
  5
33F
 10
0.460554
 20
-0.376986
 30
0.000000
  70
    32
  0
VERTEX
  8
0
  5
340
 10
0.458464
 20
-0.377723
 30
0.000000
  70
    32
  0
VERTEX
  8
0
  5
341
 10
0.456381
 20
-0.378477
 30
0.000000
  70
    32
  0
VERTEX
  8
0
  5
342
 10
0.454305
 20
-0.379247
 30
0.000000
  70
    32
  0
VERTEX
  8
0
  5
343
 10
0.452236
 20
-0.380033
 30
0.000000
  70
    32
  0
VERTEX
  8
0
  5
344
 10
0.450174
 20
-0.380836
 30
0.000000
  70
    32
  0
VERTEX
  8
0
  5
345
 10
0.448120
 20
-0.381655
 30
0.000000
  70
    32
  0
VERTEX
  8
0
  5
346
 10
0.446073
 20
-0.382490
 30
0.000000
  70
    32
  0
VERTEX
  8
0
  5
347
 10
0.444034
 20
-0.383341
 30
0.000000
  70
    32
  0
VERTEX
  8
0
  5
348
 10
0.442002
 20
-0.384208
 30
0.000000
  70
    32
  0
VERTEX
  8
0
  5
349
 10
0.439978
 20
-0.385091
 30
0.000000
  70
    32
  0
VERTEX
  8
0
  5
34A
 10
0.437962
 20
-0.385990
 30
0.000000
  70
    32
  0
VERTEX
  8
0
  5
34B
 10
0.435953
 20
-0.386905
 30
0.000000
  70
    32
  0
VERTEX
  8
0
  5
34C
 10
0.433952
 20
-0.387835
 30
0.000000
  70
    32
  0
VERTEX
  8
0
  5
34D
 10
0.431960
 20
-0.388782
 30
0.000000
  70
    32
  0
VERTEX
  8
0
  5
34E
 10
0.429975
 20
-0.389744
 30
0.000000
  70
    32
  0
VERTEX
  8
0
  5
34F
 10
0.427999
 20
-0.390722
 30
0.000000
  70
    32
  0
VERTEX
  8
0
  5
350
 10
0.426031
 20
-0.391715
 30
0.000000
  70
    32
  0
VERTEX
  8
0
  5
351
 10
0.424071
 20
-0.392724
 30
0.000000
  70
    32
  0
VERTEX
  8
0
  5
352
 10
0.422120
 20
-0.393748
 30
0.000000
  70
    32
  0
VERTEX
  8
0
  5
353
 10
0.420178
 20
-0.394788
 30
0.000000
  70
    32
  0
VERTEX
  8
0
  5
354
 10
0.418244
 20
-0.395843
 30
0.000000
  70
    32
  0
VERTEX
  8
0
  5
355
 10
0.416319
 20
-0.396913
 30
0.000000
  70
    32
  0
VERTEX
  8
0
  5
356
 10
0.414403
 20
-0.397999
 30
0.000000
  70
    32
  0
VERTEX
  8
0
  5
357
 10
0.412495
 20
-0.399099
 30
0.000000
  70
    32
  0
VERTEX
  8
0
  5
358
 10
0.410597
 20
-0.400215
 30
0.000000
  70
    32
  0
VERTEX
  8
0
  5
359
 10
0.408708
 20
-0.401346
 30
0.000000
  70
    32
  0
VERTEX
  8
0
  5
35A
 10
0.406828
 20
-0.402492
 30
0.000000
  70
    32
  0
VERTEX
  8
0
  5
35B
 10
0.404957
 20
-0.403652
 30
0.000000
  70
    32
  0
VERTEX
  8
0
  5
35C
 10
0.403096
 20
-0.404828
 30
0.000000
  70
    32
  0
VERTEX
  8
0
  5
35D
 10
0.401244
 20
-0.406018
 30
0.000000
  70
    32
  0
VERTEX
  8
0
  5
35E
 10
0.399402
 20
-0.407223
 30
0.000000
  70
    32
  0
VERTEX
  8
0
  5
35F
 10
0.397569
 20
-0.408443
 30
0.000000
  70
    32
  0
VERTEX
  8
0
  5
360
 10
0.395747
 20
-0.409677
 30
0.000000
  70
    32
  0
VERTEX
  8
0
  5
361
 10
0.393934
 20
-0.410926
 30
0.000000
  70
    32
  0
VERTEX
  8
0
  5
362
 10
0.392131
 20
-0.412189
 30
0.000000
  70
    32
  0
VERTEX
  8
0
  5
363
 10
0.390338
 20
-0.413467
 30
0.000000
  70
    32
  0
VERTEX
  8
0
  5
364
 10
0.388555
 20
-0.414759
 30
0.000000
  70
    32
  0
VERTEX
  8
0
  5
365
 10
0.386782
 20
-0.416066
 30
0.000000
  70
    32
  0
VERTEX
  8
0
  5
366
 10
0.385020
 20
-0.417386
 30
0.000000
  70
    32
  0
VERTEX
  8
0
  5
367
 10
0.383268
 20
-0.418721
 30
0.000000
  70
    32
  0
VERTEX
  8
0
  5
368
 10
0.381527
 20
-0.420070
 30
0.000000
  70
    32
  0
VERTEX
  8
0
  5
369
 10
0.379796
 20
-0.421433
 30
0.000000
  70
    32
  0
VERTEX
  8
0
  5
36A
 10
0.378075
 20
-0.422811
 30
0.000000
  70
    32
  0
VERTEX
  8
0
  5
36B
 10
0.376366
 20
-0.424202
 30
0.000000
  70
    32
  0
VERTEX
  8
0
  5
36C
 10
0.374667
 20
-0.425607
 30
0.000000
  70
    32
  0
VERTEX
  8
0
  5
36D
 10
0.372980
 20
-0.427026
 30
0.000000
  70
    32
  0
VERTEX
  8
0
  5
36E
 10
0.371303
 20
-0.428458
 30
0.000000
  70
    32
  0
VERTEX
  8
0
  5
36F
 10
0.369638
 20
-0.429905
 30
0.000000
  70
    32
  0
VERTEX
  8
0
  5
370
 10
0.367983
 20
-0.431365
 30
0.000000
  70
    32
  0
VERTEX
  8
0
  5
371
 10
0.366340
 20
-0.432838
 30
0.000000
  70
    32
  0
VERTEX
  8
0
  5
372
 10
0.364709
 20
-0.434325
 30
0.000000
  70
    32
  0
VERTEX
  8
0
  5
373
 10
0.363088
 20
-0.435826
 30
0.000000
  70
    32
  0
VERTEX
  8
0
  5
374
 10
0.361480
 20
-0.437340
 30
0.000000
  70
    32
  0
VERTEX
  8
0
  5
375
 10
0.359883
 20
-0.438867
 30
0.000000
  70
    32
  0
VERTEX
  8
0
  5
376
 10
0.358298
 20
-0.440408
 30
0.000000
  70
    32
  0
VERTEX
  8
0
  5
377
 10
0.356724
 20
-0.441962
 30
0.000000
  70
    32
  0
VERTEX
  8
0
  5
378
 10
0.355163
 20
-0.443529
 30
0.000000
  70
    32
  0
VERTEX
  8
0
  5
379
 10
0.353614
 20
-0.445110
 30
0.000000
  70
    32
  0
VERTEX
  8
0
  5
37A
 10
0.352077
 20
-0.446703
 30
0.000000
  70
    32
  0
VERTEX
  8
0
  5
37B
 10
0.350552
 20
-0.448309
 30
0.000000
  70
    32
  0
VERTEX
  8
0
  5
37C
 10
0.349039
 20
-0.449929
 30
0.000000
  70
    32
  0
VERTEX
  8
0
  5
37D
 10
0.347539
 20
-0.451561
 30
0.000000
  70
    32
  0
VERTEX
  8
0
  5
37E
 10
0.346051
 20
-0.453206
 30
0.000000
  70
    32
  0
VERTEX
  8
0
  5
37F
 10
0.344576
 20
-0.454863
 30
0.000000
  70
    32
  0
VERTEX
  8
0
  5
380
 10
0.343113
 20
-0.456534
 30
0.000000
  70
    32
  0
VERTEX
  8
0
  5
381
 10
0.341663
 20
-0.458217
 30
0.000000
  70
    32
  0
VERTEX
  8
0
  5
382
 10
0.340226
 20
-0.459913
 30
0.000000
  70
    32
  0
VERTEX
  8
0
  5
383
 10
0.338802
 20
-0.461621
 30
0.000000
  70
    32
  0
VERTEX
  8
0
  5
384
 10
0.337391
 20
-0.463342
 30
0.000000
  70
    32
  0
VERTEX
  8
0
  5
385
 10
0.335993
 20
-0.465075
 30
0.000000
  70
    32
  0
VERTEX
  8
0
  5
386
 10
0.334609
 20
-0.466820
 30
0.000000
  70
    32
  0
VERTEX
  8
0
  5
387
 10
0.333237
 20
-0.468578
 30
0.000000
  70
    32
  0
VERTEX
  8
0
  5
388
 10
0.331879
 20
-0.470348
 30
0.000000
  70
    32
  0
VERTEX
  8
0
  5
389
 10
0.330535
 20
-0.472130
 30
0.000000
  70
    32
  0
VERTEX
  8
0
  5
38A
 10
0.329204
 20
-0.473924
 30
0.000000
  70
    32
  0
VERTEX
  8
0
  5
38B
 10
0.327887
 20
-0.475731
 30
0.000000
  70
    32
  0
VERTEX
  8
0
  5
38C
 10
0.326583
 20
-0.477549
 30
0.000000
  70
    32
  0
VERTEX
  8
0
  5
38D
 10
0.325293
 20
-0.479379
 30
0.000000
  70
    32
  0
VERTEX
  8
0
  5
38E
 10
0.324018
 20
-0.481221
 30
0.000000
  70
    32
  0
VERTEX
  8
0
  5
38F
 10
0.322756
 20
-0.483075
 30
0.000000
  70
    32
  0
VERTEX
  8
0
  5
390
 10
0.321509
 20
-0.484941
 30
0.000000
  70
    32
  0
VERTEX
  8
0
  5
391
 10
0.320275
 20
-0.486818
 30
0.000000
  70
    32
  0
VERTEX
  8
0
  5
392
 10
0.319056
 20
-0.488707
 30
0.000000
  70
    32
  0
VERTEX
  8
0
  5
393
 10
0.317851
 20
-0.490608
 30
0.000000
  70
    32
  0
VERTEX
  8
0
  5
394
 10
0.316661
 20
-0.492520
 30
0.000000
  70
    32
  0
VERTEX
  8
0
  5
395
 10
0.315486
 20
-0.494444
 30
0.000000
  70
    32
  0
VERTEX
  8
0
  5
396
 10
0.314325
 20
-0.496378
 30
0.000000
  70
    32
  0
VERTEX
  8
0
  5
397
 10
0.313179
 20
-0.498325
 30
0.000000
  70
    32
  0
VERTEX
  8
0
  5
398
 10
0.312047
 20
-0.500282
 30
0.000000
  70
    32
  0
VERTEX
  8
0
  5
399
 10
0.310931
 20
-0.502251
 30
0.000000
  70
    32
  0
VERTEX
  8
0
  5
39A
 10
0.309830
 20
-0.504231
 30
0.000000
  70
    32
  0
VERTEX
  8
0
  5
39B
 10
0.308743
 20
-0.506222
 30
0.000000
  70
    32
  0
VERTEX
  8
0
  5
39C
 10
0.307672
 20
-0.508224
 30
0.000000
  70
    32
  0
VERTEX
  8
0
  5
39D
 10
0.306617
 20
-0.510237
 30
0.000000
  70
    32
  0
SEQEND
  8
0
  5
39E
  0
POLYLINE
  8
0
  5
39F
  66
     1
 10
0.000000
 20
0.000000
 30
0.000000
  70
     8
  0
VERTEX
  8
0
  5
3A0
 10
0.306603
 20
0.520210
 30
0.000000
  70
    32
  0
VERTEX
  8
0
  5
3A1
 10
0.307660
 20
0.518197
 30
0.000000
  70
    32
  0
VERTEX
  8
0
  5
3A2
 10
0.308731
 20
0.516195
 30
0.000000
  70
    32
  0
VERTEX
  8
0
  5
3A3
 10
0.309818
 20
0.514204
 30
0.000000
  70
    32
  0
VERTEX
  8
0
  5
3A4
 10
0.310920
 20
0.512224
 30
0.000000
  70
    32
  0
VERTEX
  8
0
  5
3A5
 10
0.312037
 20
0.510255
 30
0.000000
  70
    32
  0
VERTEX
  8
0
  5
3A6
 10
0.313169
 20
0.508298
 30
0.000000
  70
    32
  0
VERTEX
  8
0
  5
3A7
 10
0.314316
 20
0.506351
 30
0.000000
  70
    32
  0
VERTEX
  8
0
  5
3A8
 10
0.315477
 20
0.504416
 30
0.000000
  70
    32
  0
VERTEX
  8
0
  5
3A9
 10
0.316653
 20
0.502493
 30
0.000000
  70
    32
  0
VERTEX
  8
0
  5
3AA
 10
0.317844
 20
0.500581
 30
0.000000
  70
    32
  0
VERTEX
  8
0
  5
3AB
 10
0.319049
 20
0.498680
 30
0.000000
  70
    32
  0
VERTEX
  8
0
  5
3AC
 10
0.320269
 20
0.496791
 30
0.000000
  70
    32
  0
VERTEX
  8
0
  5
3AD
 10
0.321502
 20
0.494914
 30
0.000000
  70
    32
  0
VERTEX
  8
0
  5
3AE
 10
0.322750
 20
0.493048
 30
0.000000
  70
    32
  0
VERTEX
  8
0
  5
3AF
 10
0.324013
 20
0.491194
 30
0.000000
  70
    32
  0
VERTEX
  8
0
  5
3B0
 10
0.325289
 20
0.489352
 30
0.000000
  70
    32
  0
VERTEX
  8
0
  5
3B1
 10
0.326579
 20
0.487522
 30
0.000000
  70
    32
  0
VERTEX
  8
0
  5
3B2
 10
0.327883
 20
0.485704
 30
0.000000
  70
    32
  0
VERTEX
  8
0
  5
3B3
 10
0.329201
 20
0.483897
 30
0.000000
  70
    32
  0
VERTEX
  8
0
  5
3B4
 10
0.330532
 20
0.482103
 30
0.000000
  70
    32
  0
VERTEX
  8
0
  5
3B5
 10
0.331877
 20
0.480321
 30
0.000000
  70
    32
  0
VERTEX
  8
0
  5
3B6
 10
0.333235
 20
0.478551
 30
0.000000
  70
    32
  0
VERTEX
  8
0
  5
3B7
 10
0.334607
 20
0.476793
 30
0.000000
  70
    32
  0
VERTEX
  8
0
  5
3B8
 10
0.335992
 20
0.475048
 30
0.000000
  70
    32
  0
VERTEX
  8
0
  5
3B9
 10
0.337390
 20
0.473315
 30
0.000000
  70
    32
  0
VERTEX
  8
0
  5
3BA
 10
0.338802
 20
0.471594
 30
0.000000
  70
    32
  0
VERTEX
  8
0
  5
3BB
 10
0.340226
 20
0.469886
 30
0.000000
  70
    32
  0
VERTEX
  8
0
  5
3BC
 10
0.341664
 20
0.468190
 30
0.000000
  70
    32
  0
VERTEX
  8
0
  5
3BD
 10
0.343114
 20
0.466507
 30
0.000000
  70
    32
  0
VERTEX
  8
0
  5
3BE
 10
0.344577
 20
0.464836
 30
0.000000
  70
    32
  0
VERTEX
  8
0
  5
3BF
 10
0.346052
 20
0.463179
 30
0.000000
  70
    32
  0
VERTEX
  8
0
  5
3C0
 10
0.347540
 20
0.461534
 30
0.000000
  70
    32
  0
VERTEX
  8
0
  5
3C1
 10
0.349041
 20
0.459901
 30
0.000000
  70
    32
  0
VERTEX
  8
0
  5
3C2
 10
0.350554
 20
0.458282
 30
0.000000
  70
    32
  0
VERTEX
  8
0
  5
3C3
 10
0.352079
 20
0.456676
 30
0.000000
  70
    32
  0
VERTEX
  8
0
  5
3C4
 10
0.353617
 20
0.455082
 30
0.000000
  70
    32
  0
VERTEX
  8
0
  5
3C5
 10
0.355166
 20
0.453502
 30
0.000000
  70
    32
  0
VERTEX
  8
0
  5
3C6
 10
0.356728
 20
0.451935
 30
0.000000
  70
    32
  0
VERTEX
  8
0
  5
3C7
 10
0.358302
 20
0.450381
 30
0.000000
  70
    32
  0
VERTEX
  8
0
  5
3C8
 10
0.359887
 20
0.448840
 30
0.000000
  70
    32
  0
VERTEX
  8
0
  5
3C9
 10
0.361484
 20
0.447313
 30
0.000000
  70
    32
  0
VERTEX
  8
0
  5
3CA
 10
0.363093
 20
0.445799
 30
0.000000
  70
    32
  0
VERTEX
  8
0
  5
3CB
 10
0.364713
 20
0.444298
 30
0.000000
  70
    32
  0
VERTEX
  8
0
  5
3CC
 10
0.366345
 20
0.442811
 30
0.000000
  70
    32
  0
VERTEX
  8
0
  5
3CD
 10
0.367988
 20
0.441337
 30
0.000000
  70
    32
  0
VERTEX
  8
0
  5
3CE
 10
0.369643
 20
0.439877
 30
0.000000
  70
    32
  0
VERTEX
  8
0
  5
3CF
 10
0.371308
 20
0.438431
 30
0.000000
  70
    32
  0
VERTEX
  8
0
  5
3D0
 10
0.372985
 20
0.436998
 30
0.000000
  70
    32
  0
VERTEX
  8
0
  5
3D1
 10
0.374673
 20
0.435580
 30
0.000000
  70
    32
  0
VERTEX
  8
0
  5
3D2
 10
0.376372
 20
0.434175
 30
0.000000
  70
    32
  0
VERTEX
  8
0
  5
3D3
 10
0.378081
 20
0.432783
 30
0.000000
  70
    32
  0
VERTEX
  8
0
  5
3D4
 10
0.379802
 20
0.431406
 30
0.000000
  70
    32
  0
VERTEX
  8
0
  5
3D5
 10
0.381533
 20
0.430043
 30
0.000000
  70
    32
  0
VERTEX
  8
0
  5
3D6
 10
0.383274
 20
0.428694
 30
0.000000
  70
    32
  0
VERTEX
  8
0
  5
3D7
 10
0.385026
 20
0.427359
 30
0.000000
  70
    32
  0
VERTEX
  8
0
  5
3D8
 10
0.386789
 20
0.426038
 30
0.000000
  70
    32
  0
VERTEX
  8
0
  5
3D9
 10
0.388562
 20
0.424732
 30
0.000000
  70
    32
  0
VERTEX
  8
0
  5
3DA
 10
0.390344
 20
0.423440
 30
0.000000
  70
    32
  0
VERTEX
  8
0
  5
3DB
 10
0.392137
 20
0.422162
 30
0.000000
  70
    32
  0
VERTEX
  8
0
  5
3DC
 10
0.393940
 20
0.420899
 30
0.000000
  70
    32
  0
VERTEX
  8
0
  5
3DD
 10
0.395753
 20
0.419650
 30
0.000000
  70
    32
  0
VERTEX
  8
0
  5
3DE
 10
0.397576
 20
0.418416
 30
0.000000
  70
    32
  0
VERTEX
  8
0
  5
3DF
 10
0.399409
 20
0.417196
 30
0.000000
  70
    32
  0
VERTEX
  8
0
  5
3E0
 10
0.401251
 20
0.415991
 30
0.000000
  70
    32
  0
VERTEX
  8
0
  5
3E1
 10
0.403103
 20
0.414801
 30
0.000000
  70
    32
  0
VERTEX
  8
0
  5
3E2
 10
0.404964
 20
0.413625
 30
0.000000
  70
    32
  0
VERTEX
  8
0
  5
3E3
 10
0.406835
 20
0.412464
 30
0.000000
  70
    32
  0
VERTEX
  8
0
  5
3E4
 10
0.408715
 20
0.411319
 30
0.000000
  70
    32
  0
VERTEX
  8
0
  5
3E5
 10
0.410604
 20
0.410188
 30
0.000000
  70
    32
  0
VERTEX
  8
0
  5
3E6
 10
0.412502
 20
0.409072
 30
0.000000
  70
    32
  0
VERTEX
  8
0
  5
3E7
 10
0.414409
 20
0.407972
 30
0.000000
  70
    32
  0
VERTEX
  8
0
  5
3E8
 10
0.416325
 20
0.406886
 30
0.000000
  70
    32
  0
VERTEX
  8
0
  5
3E9
 10
0.418250
 20
0.405816
 30
0.000000
  70
    32
  0
VERTEX
  8
0
  5
3EA
 10
0.420184
 20
0.404761
 30
0.000000
  70
    32
  0
VERTEX
  8
0
  5
3EB
 10
0.422126
 20
0.403721
 30
0.000000
  70
    32
  0
VERTEX
  8
0
  5
3EC
 10
0.424077
 20
0.402697
 30
0.000000
  70
    32
  0
VERTEX
  8
0
  5
3ED
 10
0.426037
 20
0.401688
 30
0.000000
  70
    32
  0
VERTEX
  8
0
  5
3EE
 10
0.428005
 20
0.400695
 30
0.000000
  70
    32
  0
VERTEX
  8
0
  5
3EF
 10
0.429981
 20
0.399717
 30
0.000000
  70
    32
  0
VERTEX
  8
0
  5
3F0
 10
0.431965
 20
0.398755
 30
0.000000
  70
    32
  0
VERTEX
  8
0
  5
3F1
 10
0.433958
 20
0.397808
 30
0.000000
  70
    32
  0
VERTEX
  8
0
  5
3F2
 10
0.435958
 20
0.396878
 30
0.000000
  70
    32
  0
VERTEX
  8
0
  5
3F3
 10
0.437966
 20
0.395963
 30
0.000000
  70
    32
  0
VERTEX
  8
0
  5
3F4
 10
0.439983
 20
0.395064
 30
0.000000
  70
    32
  0
VERTEX
  8
0
  5
3F5
 10
0.442007
 20
0.394181
 30
0.000000
  70
    32
  0
VERTEX
  8
0
  5
3F6
 10
0.444038
 20
0.393313
 30
0.000000
  70
    32
  0
VERTEX
  8
0
  5
3F7
 10
0.446077
 20
0.392462
 30
0.000000
  70
    32
  0
VERTEX
  8
0
  5
3F8
 10
0.448124
 20
0.391627
 30
0.000000
  70
    32
  0
VERTEX
  8
0
  5
3F9
 10
0.450178
 20
0.390809
 30
0.000000
  70
    32
  0
VERTEX
  8
0
  5
3FA
 10
0.452239
 20
0.390006
 30
0.000000
  70
    32
  0
VERTEX
  8
0
  5
3FB
 10
0.454308
 20
0.389220
 30
0.000000
  70
    32
  0
VERTEX
  8
0
  5
3FC
 10
0.456383
 20
0.388450
 30
0.000000
  70
    32
  0
VERTEX
  8
0
  5
3FD
 10
0.458466
 20
0.387696
 30
0.000000
  70
    32
  0
VERTEX
  8
0
  5
3FE
 10
0.460556
 20
0.386959
 30
0.000000
  70
    32
  0
VERTEX
  8
0
  5
3FF
 10
0.462652
 20
0.386238
 30
0.000000
  70
    32
  0
VERTEX
  8
0
  5
400
 10
0.464755
 20
0.385534
 30
0.000000
  70
    32
  0
VERTEX
  8
0
  5
401
 10
0.466865
 20
0.384847
 30
0.000000
  70
    32
  0
VERTEX
  8
0
  5
402
 10
0.468981
 20
0.384176
 30
0.000000
  70
    32
  0
VERTEX
  8
0
  5
403
 10
0.471104
 20
0.383523
 30
0.000000
  70
    32
  0
VERTEX
  8
0
  5
404
 10
0.473233
 20
0.382885
 30
0.000000
  70
    32
  0
VERTEX
  8
0
  5
405
 10
0.475369
 20
0.382265
 30
0.000000
  70
    32
  0
VERTEX
  8
0
  5
406
 10
0.477511
 20
0.381662
 30
0.000000
  70
    32
  0
VERTEX
  8
0
  5
407
 10
0.479658
 20
0.381076
 30
0.000000
  70
    32
  0
VERTEX
  8
0
  5
408
 10
0.481812
 20
0.380506
 30
0.000000
  70
    32
  0
VERTEX
  8
0
  5
409
 10
0.483972
 20
0.379954
 30
0.000000
  70
    32
  0
VERTEX
  8
0
  5
40A
 10
0.486138
 20
0.379419
 30
0.000000
  70
    32
  0
VERTEX
  8
0
  5
40B
 10
0.488309
 20
0.378902
 30
0.000000
  70
    32
  0
VERTEX
  8
0
  5
40C
 10
0.490486
 20
0.378401
 30
0.000000
  70
    32
  0
VERTEX
  8
0
  5
40D
 10
0.492668
 20
0.377918
 30
0.000000
  70
    32
  0
VERTEX
  8
0
  5
40E
 10
0.494856
 20
0.377453
 30
0.000000
  70
    32
  0
VERTEX
  8
0
  5
40F
 10
0.497050
 20
0.377005
 30
0.000000
  70
    32
  0
VERTEX
  8
0
  5
410
 10
0.499249
 20
0.376574
 30
0.000000
  70
    32
  0
VERTEX
  8
0
  5
411
 10
0.501452
 20
0.376161
 30
0.000000
  70
    32
  0
VERTEX
  8
0
  5
412
 10
0.503661
 20
0.375765
 30
0.000000
  70
    32
  0
VERTEX
  8
0
  5
413
 10
0.505875
 20
0.375388
 30
0.000000
  70
    32
  0
VERTEX
  8
0
  5
414
 10
0.508094
 20
0.375028
 30
0.000000
  70
    32
  0
VERTEX
  8
0
  5
415
 10
0.510318
 20
0.374686
 30
0.000000
  70
    32
  0
VERTEX
  8
0
  5
416
 10
0.512547
 20
0.374362
 30
0.000000
  70
    32
  0
VERTEX
  8
0
  5
417
 10
0.514780
 20
0.374056
 30
0.000000
  70
    32
  0
VERTEX
  8
0
  5
418
 10
0.517018
 20
0.373767
 30
0.000000
  70
    32
  0
VERTEX
  8
0
  5
419
 10
0.519260
 20
0.373497
 30
0.000000
  70
    32
  0
VERTEX
  8
0
  5
41A
 10
0.521506
 20
0.373245
 30
0.000000
  70
    32
  0
VERTEX
  8
0
  5
41B
 10
0.523757
 20
0.373011
 30
0.000000
  70
    32
  0
VERTEX
  8
0
  5
41C
 10
0.526012
 20
0.372796
 30
0.000000
  70
    32
  0
VERTEX
  8
0
  5
41D
 10
0.528272
 20
0.372599
 30
0.000000
  70
    32
  0
VERTEX
  8
0
  5
41E
 10
0.530535
 20
0.372420
 30
0.000000
  70
    32
  0
VERTEX
  8
0
  5
41F
 10
0.532802
 20
0.372259
 30
0.000000
  70
    32
  0
SEQEND
  8
0
  5
420
  0
POLYLINE
  8
0
  5
421
  66
     1
 10
0.000000
 20
0.000000
 30
0.000000
  70
     8
  0
VERTEX
  8
0
  5
422
 10
0.255903
 20
0.917833
 30
0.000000
  70
    32
  0
VERTEX
  8
0
  5
423
 10
0.255901
 20
0.918089
 30
0.000000
  70
    32
  0
VERTEX
  8
0
  5
424
 10
0.255896
 20
0.918344
 30
0.000000
  70
    32
  0
VERTEX
  8
0
  5
425
 10
0.255888
 20
0.918598
 30
0.000000
  70
    32
  0
VERTEX
  8
0
  5
426
 10
0.255877
 20
0.918852
 30
0.000000
  70
    32
  0
VERTEX
  8
0
  5
427
 10
0.255862
 20
0.919105
 30
0.000000
  70
    32
  0
VERTEX
  8
0
  5
428
 10
0.255845
 20
0.919357
 30
0.000000
  70
    32
  0
VERTEX
  8
0
  5
429
 10
0.255824
 20
0.919608
 30
0.000000
  70
    32
  0
VERTEX
  8
0
  5
42A
 10
0.255800
 20
0.919858
 30
0.000000
  70
    32
  0
VERTEX
  8
0
  5
42B
 10
0.255773
 20
0.920107
 30
0.000000
  70
    32
  0
VERTEX
  8
0
  5
42C
 10
0.255742
 20
0.920355
 30
0.000000
  70
    32
  0
VERTEX
  8
0
  5
42D
 10
0.255709
 20
0.920603
 30
0.000000
  70
    32
  0
VERTEX
  8
0
  5
42E
 10
0.255673
 20
0.920849
 30
0.000000
  70
    32
  0
VERTEX
  8
0
  5
42F
 10
0.255633
 20
0.921095
 30
0.000000
  70
    32
  0
VERTEX
  8
0
  5
430
 10
0.255591
 20
0.921339
 30
0.000000
  70
    32
  0
VERTEX
  8
0
  5
431
 10
0.255545
 20
0.921582
 30
0.000000
  70
    32
  0
VERTEX
  8
0
  5
432
 10
0.255497
 20
0.921825
 30
0.000000
  70
    32
  0
VERTEX
  8
0
  5
433
 10
0.255446
 20
0.922066
 30
0.000000
  70
    32
  0
VERTEX
  8
0
  5
434
 10
0.255391
 20
0.922306
 30
0.000000
  70
    32
  0
VERTEX
  8
0
  5
435
 10
0.255334
 20
0.922545
 30
0.000000
  70
    32
  0
VERTEX
  8
0
  5
436
 10
0.255274
 20
0.922783
 30
0.000000
  70
    32
  0
VERTEX
  8
0
  5
437
 10
0.255211
 20
0.923020
 30
0.000000
  70
    32
  0
VERTEX
  8
0
  5
438
 10
0.255145
 20
0.923256
 30
0.000000
  70
    32
  0
VERTEX
  8
0
  5
439
 10
0.255077
 20
0.923490
 30
0.000000
  70
    32
  0
VERTEX
  8
0
  5
43A
 10
0.255005
 20
0.923723
 30
0.000000
  70
    32
  0
VERTEX
  8
0
  5
43B
 10
0.254931
 20
0.923955
 30
0.000000
  70
    32
  0
VERTEX
  8
0
  5
43C
 10
0.254854
 20
0.924186
 30
0.000000
  70
    32
  0
VERTEX
  8
0
  5
43D
 10
0.254774
 20
0.924416
 30
0.000000
  70
    32
  0
VERTEX
  8
0
  5
43E
 10
0.254691
 20
0.924644
 30
0.000000
  70
    32
  0
VERTEX
  8
0
  5
43F
 10
0.254606
 20
0.924871
 30
0.000000
  70
    32
  0
VERTEX
  8
0
  5
440
 10
0.254518
 20
0.925096
 30
0.000000
  70
    32
  0
VERTEX
  8
0
  5
441
 10
0.254427
 20
0.925321
 30
0.000000
  70
    32
  0
VERTEX
  8
0
  5
442
 10
0.254334
 20
0.925543
 30
0.000000
  70
    32
  0
VERTEX
  8
0
  5
443
 10
0.254238
 20
0.925765
 30
0.000000
  70
    32
  0
VERTEX
  8
0
  5
444
 10
0.254139
 20
0.925985
 30
0.000000
  70
    32
  0
VERTEX
  8
0
  5
445
 10
0.254038
 20
0.926204
 30
0.000000
  70
    32
  0
VERTEX
  8
0
  5
446
 10
0.253934
 20
0.926421
 30
0.000000
  70
    32
  0
VERTEX
  8
0
  5
447
 10
0.253827
 20
0.926636
 30
0.000000
  70
    32
  0
VERTEX
  8
0
  5
448
 10
0.253718
 20
0.926851
 30
0.000000
  70
    32
  0
VERTEX
  8
0
  5
449
 10
0.253607
 20
0.927063
 30
0.000000
  70
    32
  0
VERTEX
  8
0
  5
44A
 10
0.253493
 20
0.927275
 30
0.000000
  70
    32
  0
VERTEX
  8
0
  5
44B
 10
0.253376
 20
0.927484
 30
0.000000
  70
    32
  0
VERTEX
  8
0
  5
44C
 10
0.253257
 20
0.927692
 30
0.000000
  70
    32
  0
VERTEX
  8
0
  5
44D
 10
0.253136
 20
0.927899
 30
0.000000
  70
    32
  0
VERTEX
  8
0
  5
44E
 10
0.253012
 20
0.928104
 30
0.000000
  70
    32
  0
VERTEX
  8
0
  5
44F
 10
0.252886
 20
0.928307
 30
0.000000
  70
    32
  0
VERTEX
  8
0
  5
450
 10
0.252757
 20
0.928509
 30
0.000000
  70
    32
  0
VERTEX
  8
0
  5
451
 10
0.252626
 20
0.928709
 30
0.000000
  70
    32
  0
VERTEX
  8
0
  5
452
 10
0.252493
 20
0.928907
 30
0.000000
  70
    32
  0
VERTEX
  8
0
  5
453
 10
0.252357
 20
0.929103
 30
0.000000
  70
    32
  0
VERTEX
  8
0
  5
454
 10
0.252219
 20
0.929298
 30
0.000000
  70
    32
  0
VERTEX
  8
0
  5
455
 10
0.252079
 20
0.929491
 30
0.000000
  70
    32
  0
VERTEX
  8
0
  5
456
 10
0.251936
 20
0.929683
 30
0.000000
  70
    32
  0
VERTEX
  8
0
  5
457
 10
0.251792
 20
0.929872
 30
0.000000
  70
    32
  0
VERTEX
  8
0
  5
458
 10
0.251644
 20
0.930060
 30
0.000000
  70
    32
  0
VERTEX
  8
0
  5
459
 10
0.251495
 20
0.930246
 30
0.000000
  70
    32
  0
VERTEX
  8
0
  5
45A
 10
0.251344
 20
0.930430
 30
0.000000
  70
    32
  0
VERTEX
  8
0
  5
45B
 10
0.251190
 20
0.930612
 30
0.000000
  70
    32
  0
VERTEX
  8
0
  5
45C
 10
0.251034
 20
0.930792
 30
0.000000
  70
    32
  0
VERTEX
  8
0
  5
45D
 10
0.250876
 20
0.930971
 30
0.000000
  70
    32
  0
VERTEX
  8
0
  5
45E
 10
0.250716
 20
0.931147
 30
0.000000
  70
    32
  0
VERTEX
  8
0
  5
45F
 10
0.250554
 20
0.931321
 30
0.000000
  70
    32
  0
VERTEX
  8
0
  5
460
 10
0.250390
 20
0.931494
 30
0.000000
  70
    32
  0
VERTEX
  8
0
  5
461
 10
0.250224
 20
0.931665
 30
0.000000
  70
    32
  0
VERTEX
  8
0
  5
462
 10
0.250056
 20
0.931833
 30
0.000000
  70
    32
  0
VERTEX
  8
0
  5
463
 10
0.249885
 20
0.932000
 30
0.000000
  70
    32
  0
VERTEX
  8
0
  5
464
 10
0.249713
 20
0.932164
 30
0.000000
  70
    32
  0
VERTEX
  8
0
  5
465
 10
0.249539
 20
0.932326
 30
0.000000
  70
    32
  0
VERTEX
  8
0
  5
466
 10
0.249362
 20
0.932487
 30
0.000000
  70
    32
  0
VERTEX
  8
0
  5
467
 10
0.249184
 20
0.932645
 30
0.000000
  70
    32
  0
VERTEX
  8
0
  5
468
 10
0.249004
 20
0.932801
 30
0.000000
  70
    32
  0
VERTEX
  8
0
  5
469
 10
0.248822
 20
0.932955
 30
0.000000
  70
    32
  0
VERTEX
  8
0
  5
46A
 10
0.248638
 20
0.933107
 30
0.000000
  70
    32
  0
VERTEX
  8
0
  5
46B
 10
0.248453
 20
0.933256
 30
0.000000
  70
    32
  0
VERTEX
  8
0
  5
46C
 10
0.248265
 20
0.933404
 30
0.000000
  70
    32
  0
VERTEX
  8
0
  5
46D
 10
0.248076
 20
0.933549
 30
0.000000
  70
    32
  0
VERTEX
  8
0
  5
46E
 10
0.247884
 20
0.933691
 30
0.000000
  70
    32
  0
VERTEX
  8
0
  5
46F
 10
0.247692
 20
0.933832
 30
0.000000
  70
    32
  0
VERTEX
  8
0
  5
470
 10
0.247497
 20
0.933970
 30
0.000000
  70
    32
  0
VERTEX
  8
0
  5
471
 10
0.247300
 20
0.934106
 30
0.000000
  70
    32
  0
VERTEX
  8
0
  5
472
 10
0.247102
 20
0.934240
 30
0.000000
  70
    32
  0
VERTEX
  8
0
  5
473
 10
0.246902
 20
0.934371
 30
0.000000
  70
    32
  0
VERTEX
  8
0
  5
474
 10
0.246701
 20
0.934500
 30
0.000000
  70
    32
  0
VERTEX
  8
0
  5
475
 10
0.246497
 20
0.934627
 30
0.000000
  70
    32
  0
VERTEX
  8
0
  5
476
 10
0.246293
 20
0.934751
 30
0.000000
  70
    32
  0
VERTEX
  8
0
  5
477
 10
0.246086
 20
0.934873
 30
0.000000
  70
    32
  0
VERTEX
  8
0
  5
478
 10
0.245878
 20
0.934992
 30
0.000000
  70
    32
  0
VERTEX
  8
0
  5
479
 10
0.245668
 20
0.935109
 30
0.000000
  70
    32
  0
VERTEX
  8
0
  5
47A
 10
0.245457
 20
0.935223
 30
0.000000
  70
    32
  0
VERTEX
  8
0
  5
47B
 10
0.245244
 20
0.935335
 30
0.000000
  70
    32
  0
VERTEX
  8
0
  5
47C
 10
0.245030
 20
0.935444
 30
0.000000
  70
    32
  0
VERTEX
  8
0
  5
47D
 10
0.244814
 20
0.935551
 30
0.000000
  70
    32
  0
VERTEX
  8
0
  5
47E
 10
0.244597
 20
0.935655
 30
0.000000
  70
    32
  0
VERTEX
  8
0
  5
47F
 10
0.244378
 20
0.935757
 30
0.000000
  70
    32
  0
VERTEX
  8
0
  5
480
 10
0.244158
 20
0.935856
 30
0.000000
  70
    32
  0
VERTEX
  8
0
  5
481
 10
0.243936
 20
0.935952
 30
0.000000
  70
    32
  0
VERTEX
  8
0
  5
482
 10
0.243713
 20
0.936046
 30
0.000000
  70
    32
  0
VERTEX
  8
0
  5
483
 10
0.243489
 20
0.936137
 30
0.000000
  70
    32
  0
VERTEX
  8
0
  5
484
 10
0.243263
 20
0.936225
 30
0.000000
  70
    32
  0
VERTEX
  8
0
  5
485
 10
0.243036
 20
0.936311
 30
0.000000
  70
    32
  0
VERTEX
  8
0
  5
486
 10
0.242807
 20
0.936394
 30
0.000000
  70
    32
  0
VERTEX
  8
0
  5
487
 10
0.242578
 20
0.936474
 30
0.000000
  70
    32
  0
VERTEX
  8
0
  5
488
 10
0.242346
 20
0.936551
 30
0.000000
  70
    32
  0
VERTEX
  8
0
  5
489
 10
0.242114
 20
0.936626
 30
0.000000
  70
    32
  0
VERTEX
  8
0
  5
48A
 10
0.241881
 20
0.936698
 30
0.000000
  70
    32
  0
VERTEX
  8
0
  5
48B
 10
0.241646
 20
0.936767
 30
0.000000
  70
    32
  0
VERTEX
  8
0
  5
48C
 10
0.241410
 20
0.936833
 30
0.000000
  70
    32
  0
VERTEX
  8
0
  5
48D
 10
0.241173
 20
0.936896
 30
0.000000
  70
    32
  0
VERTEX
  8
0
  5
48E
 10
0.240934
 20
0.936956
 30
0.000000
  70
    32
  0
VERTEX
  8
0
  5
48F
 10
0.240695
 20
0.937014
 30
0.000000
  70
    32
  0
VERTEX
  8
0
  5
490
 10
0.240454
 20
0.937068
 30
0.000000
  70
    32
  0
VERTEX
  8
0
  5
491
 10
0.240212
 20
0.937120
 30
0.000000
  70
    32
  0
VERTEX
  8
0
  5
492
 10
0.239969
 20
0.937168
 30
0.000000
  70
    32
  0
VERTEX
  8
0
  5
493
 10
0.239725
 20
0.937214
 30
0.000000
  70
    32
  0
VERTEX
  8
0
  5
494
 10
0.239480
 20
0.937256
 30
0.000000
  70
    32
  0
VERTEX
  8
0
  5
495
 10
0.239234
 20
0.937296
 30
0.000000
  70
    32
  0
VERTEX
  8
0
  5
496
 10
0.238987
 20
0.937333
 30
0.000000
  70
    32
  0
VERTEX
  8
0
  5
497
 10
0.238739
 20
0.937366
 30
0.000000
  70
    32
  0
VERTEX
  8
0
  5
498
 10
0.238490
 20
0.937396
 30
0.000000
  70
    32
  0
VERTEX
  8
0
  5
499
 10
0.238240
 20
0.937424
 30
0.000000
  70
    32
  0
VERTEX
  8
0
  5
49A
 10
0.237989
 20
0.937448
 30
0.000000
  70
    32
  0
VERTEX
  8
0
  5
49B
 10
0.237738
 20
0.937469
 30
0.000000
  70
    32
  0
VERTEX
  8
0
  5
49C
 10
0.237485
 20
0.937486
 30
0.000000
  70
    32
  0
VERTEX
  8
0
  5
49D
 10
0.237231
 20
0.937501
 30
0.000000
  70
    32
  0
VERTEX
  8
0
  5
49E
 10
0.236977
 20
0.937512
 30
0.000000
  70
    32
  0
VERTEX
  8
0
  5
49F
 10
0.236722
 20
0.937521
 30
0.000000
  70
    32
  0
VERTEX
  8
0
  5
4A0
 10
0.236465
 20
0.937525
 30
0.000000
  70
    32
  0
VERTEX
  8
0
  5
4A1
 10
0.236209
 20
0.937527
 30
0.000000
  70
    32
  0
SEQEND
  8
0
  5
4A2
  0
POLYLINE
  8
0
  5
4A3
  66
     1
 10
0.000000
 20
0.000000
 30
0.000000
  70
     8
  0
VERTEX
  8
0
  5
4A4
 10
0.236222
 20
-0.937500
 30
0.000000
  70
    32
  0
VERTEX
  8
0
  5
4A5
 10
0.236478
 20
-0.937498
 30
0.000000
  70
    32
  0
VERTEX
  8
0
  5
4A6
 10
0.236734
 20
-0.937493
 30
0.000000
  70
    32
  0
VERTEX
  8
0
  5
4A7
 10
0.236989
 20
-0.937485
 30
0.000000
  70
    32
  0
VERTEX
  8
0
  5
4A8
 10
0.237242
 20
-0.937474
 30
0.000000
  70
    32
  0
VERTEX
  8
0
  5
4A9
 10
0.237495
 20
-0.937459
 30
0.000000
  70
    32
  0
VERTEX
  8
0
  5
4AA
 10
0.237748
 20
-0.937442
 30
0.000000
  70
    32
  0
VERTEX
  8
0
  5
4AB
 10
0.237999
 20
-0.937421
 30
0.000000
  70
    32
  0
VERTEX
  8
0
  5
4AC
 10
0.238249
 20
-0.937397
 30
0.000000
  70
    32
  0
VERTEX
  8
0
  5
4AD
 10
0.238499
 20
-0.937370
 30
0.000000
  70
    32
  0
VERTEX
  8
0
  5
4AE
 10
0.238747
 20
-0.937339
 30
0.000000
  70
    32
  0
VERTEX
  8
0
  5
4AF
 10
0.238995
 20
-0.937306
 30
0.000000
  70
    32
  0
VERTEX
  8
0
  5
4B0
 10
0.239242
 20
-0.937270
 30
0.000000
  70
    32
  0
VERTEX
  8
0
  5
4B1
 10
0.239487
 20
-0.937230
 30
0.000000
  70
    32
  0
VERTEX
  8
0
  5
4B2
 10
0.239732
 20
-0.937188
 30
0.000000
  70
    32
  0
VERTEX
  8
0
  5
4B3
 10
0.239975
 20
-0.937142
 30
0.000000
  70
    32
  0
VERTEX
  8
0
  5
4B4
 10
0.240218
 20
-0.937094
 30
0.000000
  70
    32
  0
VERTEX
  8
0
  5
4B5
 10
0.240459
 20
-0.937042
 30
0.000000
  70
    32
  0
VERTEX
  8
0
  5
4B6
 10
0.240700
 20
-0.936988
 30
0.000000
  70
    32
  0
VERTEX
  8
0
  5
4B7
 10
0.240939
 20
-0.936931
 30
0.000000
  70
    32
  0
VERTEX
  8
0
  5
4B8
 10
0.241177
 20
-0.936870
 30
0.000000
  70
    32
  0
VERTEX
  8
0
  5
4B9
 10
0.241414
 20
-0.936807
 30
0.000000
  70
    32
  0
VERTEX
  8
0
  5
4BA
 10
0.241650
 20
-0.936741
 30
0.000000
  70
    32
  0
VERTEX
  8
0
  5
4BB
 10
0.241884
 20
-0.936673
 30
0.000000
  70
    32
  0
VERTEX
  8
0
  5
4BC
 10
0.242118
 20
-0.936601
 30
0.000000
  70
    32
  0
VERTEX
  8
0
  5
4BD
 10
0.242350
 20
-0.936527
 30
0.000000
  70
    32
  0
VERTEX
  8
0
  5
4BE
 10
0.242581
 20
-0.936449
 30
0.000000
  70
    32
  0
VERTEX
  8
0
  5
4BF
 10
0.242810
 20
-0.936369
 30
0.000000
  70
    32
  0
VERTEX
  8
0
  5
4C0
 10
0.243038
 20
-0.936287
 30
0.000000
  70
    32
  0
VERTEX
  8
0
  5
4C1
 10
0.243265
 20
-0.936201
 30
0.000000
  70
    32
  0
VERTEX
  8
0
  5
4C2
 10
0.243491
 20
-0.936113
 30
0.000000
  70
    32
  0
VERTEX
  8
0
  5
4C3
 10
0.243715
 20
-0.936022
 30
0.000000
  70
    32
  0
VERTEX
  8
0
  5
4C4
 10
0.243938
 20
-0.935929
 30
0.000000
  70
    32
  0
VERTEX
  8
0
  5
4C5
 10
0.244160
 20
-0.935833
 30
0.000000
  70
    32
  0
VERTEX
  8
0
  5
4C6
 10
0.244380
 20
-0.935734
 30
0.000000
  70
    32
  0
VERTEX
  8
0
  5
4C7
 10
0.244599
 20
-0.935633
 30
0.000000
  70
    32
  0
VERTEX
  8
0
  5
4C8
 10
0.244816
 20
-0.935529
 30
0.000000
  70
    32
  0
VERTEX
  8
0
  5
4C9
 10
0.245032
 20
-0.935422
 30
0.000000
  70
    32
  0
VERTEX
  8
0
  5
4CA
 10
0.245246
 20
-0.935313
 30
0.000000
  70
    32
  0
VERTEX
  8
0
  5
4CB
 10
0.245459
 20
-0.935201
 30
0.000000
  70
    32
  0
VERTEX
  8
0
  5
4CC
 10
0.245670
 20
-0.935087
 30
0.000000
  70
    32
  0
VERTEX
  8
0
  5
4CD
 10
0.245880
 20
-0.934971
 30
0.000000
  70
    32
  0
VERTEX
  8
0
  5
4CE
 10
0.246088
 20
-0.934852
 30
0.000000
  70
    32
  0
VERTEX
  8
0
  5
4CF
 10
0.246294
 20
-0.934730
 30
0.000000
  70
    32
  0
VERTEX
  8
0
  5
4D0
 10
0.246499
 20
-0.934606
 30
0.000000
  70
    32
  0
VERTEX
  8
0
  5
4D1
 10
0.246702
 20
-0.934480
 30
0.000000
  70
    32
  0
VERTEX
  8
0
  5
4D2
 10
0.246904
 20
-0.934351
 30
0.000000
  70
    32
  0
VERTEX
  8
0
  5
4D3
 10
0.247104
 20
-0.934220
 30
0.000000
  70
    32
  0
VERTEX
  8
0
  5
4D4
 10
0.247302
 20
-0.934087
 30
0.000000
  70
    32
  0
VERTEX
  8
0
  5
4D5
 10
0.247499
 20
-0.933951
 30
0.000000
  70
    32
  0
VERTEX
  8
0
  5
4D6
 10
0.247693
 20
-0.933813
 30
0.000000
  70
    32
  0
VERTEX
  8
0
  5
4D7
 10
0.247886
 20
-0.933672
 30
0.000000
  70
    32
  0
VERTEX
  8
0
  5
4D8
 10
0.248078
 20
-0.933530
 30
0.000000
  70
    32
  0
VERTEX
  8
0
  5
4D9
 10
0.248267
 20
-0.933385
 30
0.000000
  70
    32
  0
VERTEX
  8
0
  5
4DA
 10
0.248455
 20
-0.933237
 30
0.000000
  70
    32
  0
VERTEX
  8
0
  5
4DB
 10
0.248641
 20
-0.933088
 30
0.000000
  70
    32
  0
VERTEX
  8
0
  5
4DC
 10
0.248825
 20
-0.932937
 30
0.000000
  70
    32
  0
VERTEX
  8
0
  5
4DD
 10
0.249007
 20
-0.932783
 30
0.000000
  70
    32
  0
VERTEX
  8
0
  5
4DE
 10
0.249187
 20
-0.932627
 30
0.000000
  70
    32
  0
VERTEX
  8
0
  5
4DF
 10
0.249365
 20
-0.932469
 30
0.000000
  70
    32
  0
VERTEX
  8
0
  5
4E0
 10
0.249542
 20
-0.932309
 30
0.000000
  70
    32
  0
VERTEX
  8
0
  5
4E1
 10
0.249716
 20
-0.932147
 30
0.000000
  70
    32
  0
VERTEX
  8
0
  5
4E2
 10
0.249888
 20
-0.931982
 30
0.000000
  70
    32
  0
VERTEX
  8
0
  5
4E3
 10
0.250059
 20
-0.931816
 30
0.000000
  70
    32
  0
VERTEX
  8
0
  5
4E4
 10
0.250227
 20
-0.931648
 30
0.000000
  70
    32
  0
VERTEX
  8
0
  5
4E5
 10
0.250394
 20
-0.931477
 30
0.000000
  70
    32
  0
VERTEX
  8
0
  5
4E6
 10
0.250558
 20
-0.931305
 30
0.000000
  70
    32
  0
VERTEX
  8
0
  5
4E7
 10
0.250720
 20
-0.931131
 30
0.000000
  70
    32
  0
VERTEX
  8
0
  5
4E8
 10
0.250881
 20
-0.930954
 30
0.000000
  70
    32
  0
VERTEX
  8
0
  5
4E9
 10
0.251039
 20
-0.930776
 30
0.000000
  70
    32
  0
VERTEX
  8
0
  5
4EA
 10
0.251195
 20
-0.930596
 30
0.000000
  70
    32
  0
VERTEX
  8
0
  5
4EB
 10
0.251348
 20
-0.930414
 30
0.000000
  70
    32
  0
VERTEX
  8
0
  5
4EC
 10
0.251500
 20
-0.930230
 30
0.000000
  70
    32
  0
VERTEX
  8
0
  5
4ED
 10
0.251650
 20
-0.930044
 30
0.000000
  70
    32
  0
VERTEX
  8
0
  5
4EE
 10
0.251797
 20
-0.929857
 30
0.000000
  70
    32
  0
VERTEX
  8
0
  5
4EF
 10
0.251942
 20
-0.929667
 30
0.000000
  70
    32
  0
VERTEX
  8
0
  5
4F0
 10
0.252085
 20
-0.929476
 30
0.000000
  70
    32
  0
VERTEX
  8
0
  5
4F1
 10
0.252225
 20
-0.929283
 30
0.000000
  70
    32
  0
VERTEX
  8
0
  5
4F2
 10
0.252363
 20
-0.929088
 30
0.000000
  70
    32
  0
VERTEX
  8
0
  5
4F3
 10
0.252499
 20
-0.928892
 30
0.000000
  70
    32
  0
VERTEX
  8
0
  5
4F4
 10
0.252633
 20
-0.928693
 30
0.000000
  70
    32
  0
VERTEX
  8
0
  5
4F5
 10
0.252764
 20
-0.928494
 30
0.000000
  70
    32
  0
VERTEX
  8
0
  5
4F6
 10
0.252893
 20
-0.928292
 30
0.000000
  70
    32
  0
VERTEX
  8
0
  5
4F7
 10
0.253019
 20
-0.928089
 30
0.000000
  70
    32
  0
VERTEX
  8
0
  5
4F8
 10
0.253143
 20
-0.927884
 30
0.000000
  70
    32
  0
VERTEX
  8
0
  5
4F9
 10
0.253265
 20
-0.927677
 30
0.000000
  70
    32
  0
VERTEX
  8
0
  5
4FA
 10
0.253384
 20
-0.927469
 30
0.000000
  70
    32
  0
VERTEX
  8
0
  5
4FB
 10
0.253501
 20
-0.927260
 30
0.000000
  70
    32
  0
VERTEX
  8
0
  5
4FC
 10
0.253615
 20
-0.927048
 30
0.000000
  70
    32
  0
VERTEX
  8
0
  5
4FD
 10
0.253727
 20
-0.926836
 30
0.000000
  70
    32
  0
VERTEX
  8
0
  5
4FE
 10
0.253836
 20
-0.926621
 30
0.000000
  70
    32
  0
VERTEX
  8
0
  5
4FF
 10
0.253943
 20
-0.926405
 30
0.000000
  70
    32
  0
VERTEX
  8
0
  5
500
 10
0.254047
 20
-0.926188
 30
0.000000
  70
    32
  0
VERTEX
  8
0
  5
501
 10
0.254148
 20
-0.925969
 30
0.000000
  70
    32
  0
VERTEX
  8
0
  5
502
 10
0.254247
 20
-0.925749
 30
0.000000
  70
    32
  0
VERTEX
  8
0
  5
503
 10
0.254343
 20
-0.925528
 30
0.000000
  70
    32
  0
VERTEX
  8
0
  5
504
 10
0.254437
 20
-0.925305
 30
0.000000
  70
    32
  0
VERTEX
  8
0
  5
505
 10
0.254528
 20
-0.925080
 30
0.000000
  70
    32
  0
VERTEX
  8
0
  5
506
 10
0.254616
 20
-0.924855
 30
0.000000
  70
    32
  0
VERTEX
  8
0
  5
507
 10
0.254702
 20
-0.924628
 30
0.000000
  70
    32
  0
VERTEX
  8
0
  5
508
 10
0.254784
 20
-0.924399
 30
0.000000
  70
    32
  0
VERTEX
  8
0
  5
509
 10
0.254864
 20
-0.924170
 30
0.000000
  70
    32
  0
VERTEX
  8
0
  5
50A
 10
0.254942
 20
-0.923939
 30
0.000000
  70
    32
  0
VERTEX
  8
0
  5
50B
 10
0.255016
 20
-0.923706
 30
0.000000
  70
    32
  0
VERTEX
  8
0
  5
50C
 10
0.255088
 20
-0.923473
 30
0.000000
  70
    32
  0
VERTEX
  8
0
  5
50D
 10
0.255157
 20
-0.923238
 30
0.000000
  70
    32
  0
VERTEX
  8
0
  5
50E
 10
0.255223
 20
-0.923002
 30
0.000000
  70
    32
  0
VERTEX
  8
0
  5
50F
 10
0.255286
 20
-0.922765
 30
0.000000
  70
    32
  0
VERTEX
  8
0
  5
510
 10
0.255346
 20
-0.922527
 30
0.000000
  70
    32
  0
VERTEX
  8
0
  5
511
 10
0.255404
 20
-0.922288
 30
0.000000
  70
    32
  0
VERTEX
  8
0
  5
512
 10
0.255458
 20
-0.922047
 30
0.000000
  70
    32
  0
VERTEX
  8
0
  5
513
 10
0.255509
 20
-0.921805
 30
0.000000
  70
    32
  0
VERTEX
  8
0
  5
514
 10
0.255558
 20
-0.921563
 30
0.000000
  70
    32
  0
VERTEX
  8
0
  5
515
 10
0.255604
 20
-0.921319
 30
0.000000
  70
    32
  0
VERTEX
  8
0
  5
516
 10
0.255646
 20
-0.921074
 30
0.000000
  70
    32
  0
VERTEX
  8
0
  5
517
 10
0.255686
 20
-0.920828
 30
0.000000
  70
    32
  0
VERTEX
  8
0
  5
518
 10
0.255722
 20
-0.920582
 30
0.000000
  70
    32
  0
VERTEX
  8
0
  5
519
 10
0.255755
 20
-0.920334
 30
0.000000
  70
    32
  0
VERTEX
  8
0
  5
51A
 10
0.255786
 20
-0.920085
 30
0.000000
  70
    32
  0
VERTEX
  8
0
  5
51B
 10
0.255813
 20
-0.919835
 30
0.000000
  70
    32
  0
VERTEX
  8
0
  5
51C
 10
0.255837
 20
-0.919585
 30
0.000000
  70
    32
  0
VERTEX
  8
0
  5
51D
 10
0.255858
 20
-0.919333
 30
0.000000
  70
    32
  0
VERTEX
  8
0
  5
51E
 10
0.255876
 20
-0.919081
 30
0.000000
  70
    32
  0
VERTEX
  8
0
  5
51F
 10
0.255890
 20
-0.918827
 30
0.000000
  70
    32
  0
VERTEX
  8
0
  5
520
 10
0.255902
 20
-0.918573
 30
0.000000
  70
    32
  0
VERTEX
  8
0
  5
521
 10
0.255910
 20
-0.918318
 30
0.000000
  70
    32
  0
VERTEX
  8
0
  5
522
 10
0.255915
 20
-0.918062
 30
0.000000
  70
    32
  0
VERTEX
  8
0
  5
523
 10
0.255916
 20
-0.917806
 30
0.000000
  70
    32
  0
SEQEND
  8
0
  5
524
  0
CIRCLE
  5
98
  8
0
 10
2.4187883814976909
 20
0.0049932182445218
 30
0.0
 40
0.3937432802882377
  0
ATTDEF
  5
99
  8
DEFPOINTS
 10
0.0
 20
-0.005
 30
0.0
 40
0.001
  1
BRASS
  3

  2
MATERIAL
 70
     8
1001
AcDbAttr
1070
     0
1070
     1
  0
ATTDEF
  5
9B
  8
DEFPOINTS
 10
0.0
 20
-0.0033333333333333
 30
0.0
 40
0.001
  1
30" TOWEL BAR
  3

  2
PRODUCT
 70
     8
1001
AcDbAttr
1070
     0
1070
     1
  0
ATTDEF
  5
9C
  8
DEFPOINTS
 10
0.0
 20
-0.0016666666666667
 30
0.0
 40
0.001
  1
PURIST
  3

  2
TRADENAME
 70
     8
1001
AcDbAttr
1070
     0
1070
     1
  0
ATTDEF
  5
9D
  8
DEFPOINTS
 10
0.0
 20
0.0
 30
0.0
 40
0.001
  1
K-14437
  3

  2
MODELNUMBER
 70
     8
1001
AcDbAttr
1070
     0
1070
     1
  0
ENDSEC
  0
EOF
