  0
SECTION
  2
HEADER
  9
$ACADVER
  1
AC1009
  9
$DWGCODEPAGE
  3
ansi_1252
  9
$INSBASE
 10
0.0
 20
0.0
 30
0.0
  9
$EXTMIN
 10
1.000000000000000E+20
 20
1.000000000000000E+20
 30
1.000000000000000E+20
  9
$EXTMAX
 10
0.0
 20
0.0
 30
0.0
  9
$LIMMIN
 10
0.0
 20
0.0
  9
$LIMMAX
 10
144.0
 20
108.0
  9
$ORTHOMODE
 70
     1
  9
$REGENMODE
 70
     1
  9
$FILLMODE
 70
     1
  9
$QTEXTMODE
 70
     0
  9
$MIRRTEXT
 70
     1
  9
$DRAGMODE
 70
     2
  9
$LTSCALE
 40
4.0
  9
$OSMODE
 70
    37
  9
$ATTMODE
 70
     1
  9
$TEXTSIZE
 40
0.003
  9
$TRACEWID
 40
0.05
  9
$TEXTSTYLE
  7
STANDARD
  9
$CLAYER
  8
0
  9
$CELTYPE
  6
CONTINUOUS
  9
$CECOLOR
 62
   256
  9
$DIMSCALE
 40
1.0
  9
$DIMASZ
 40
0.18
  9
$DIMEXO
 40
0.0625
  9
$DIMDLI
 40
0.38
  9
$DIMRND
 40
0.0
  9
$DIMDLE
 40
0.0
  9
$DIMEXE
 40
0.18
  9
$DIMTP
 40
0.0
  9
$DIMTM
 40
0.0
  9
$DIMTXT
 40
0.18
  9
$DIMCEN
 40
0.09
  9
$DIMTSZ
 40
0.0
  9
$DIMTOL
 70
     0
  9
$DIMLIM
 70
     0
  9
$DIMTIH
 70
     1
  9
$DIMTOH
 70
     1
  9
$DIMSE1
 70
     0
  9
$DIMSE2
 70
     0
  9
$DIMTAD
 70
     0
  9
$DIMZIN
 70
     0
  9
$DIMBLK
  1

  9
$DIMASO
 70
     1
  9
$DIMSHO
 70
     1
  9
$DIMPOST
  1

  9
$DIMAPOST
  1

  9
$DIMALT
 70
     0
  9
$DIMALTD
 70
     2
  9
$DIMALTF
 40
25.4
  9
$DIMLFAC
 40
1.0
  9
$DIMTOFL
 70
     0
  9
$DIMTVP
 40
0.0
  9
$DIMTIX
 70
     0
  9
$DIMSOXD
 70
     0
  9
$DIMSAH
 70
     0
  9
$DIMBLK1
  1

  9
$DIMBLK2
  1

  9
$DIMSTYLE
  2
STANDARD
  9
$DIMCLRD
 70
     0
  9
$DIMCLRE
 70
     0
  9
$DIMCLRT
 70
     0
  9
$DIMTFAC
 40
1.0
  9
$DIMGAP
 40
0.09
  9
$LUNITS
 70
     2
  9
$LUPREC
 70
     4
  9
$SKETCHINC
 40
0.1
  9
$FILLETRAD
 40
0.0
  9
$AUNITS
 70
     0
  9
$AUPREC
 70
     0
  9
$MENU
  1
acad
  9
$ELEVATION
 40
0.0
  9
$PELEVATION
 40
0.0
  9
$THICKNESS
 40
0.0
  9
$LIMCHECK
 70
     0
  9
$CHAMFERA
 40
0.0
  9
$CHAMFERB
 40
0.0
  9
$SKPOLY
 70
     0
  9
$TDCREATE
 40
2453705.469747361
  9
$TDUPDATE
 40
2453705.47566456
  9
$TDINDWG
 40
0.0059171991
  9
$TDUSRTIMER
 40
0.0059171991
  9
$USRTIMER
 70
     1
  9
$ANGBASE
 50
0.0
  9
$ANGDIR
 70
     0
  9
$PDMODE
 70
     3
  9
$PDSIZE
 40
-2.0
  9
$PLINEWID
 40
0.0
  9
$COORDS
 70
     1
  9
$SPLFRAME
 70
     0
  9
$SPLINETYPE
 70
     6
  9
$SPLINESEGS
 70
     8
  9
$ATTDIA
 70
     0
  9
$ATTREQ
 70
     1
  9
$HANDLING
 70
     1
  9
$HANDSEED
  5
12E
  9
$SURFTAB1
 70
     6
  9
$SURFTAB2
 70
     6
  9
$SURFTYPE
 70
     6
  9
$SURFU
 70
     6
  9
$SURFV
 70
     6
  9
$UCSNAME
  2

  9
$UCSORG
 10
0.0
 20
0.0
 30
0.0
  9
$UCSXDIR
 10
1.0
 20
0.0
 30
0.0
  9
$UCSYDIR
 10
0.0
 20
1.0
 30
0.0
  9
$PUCSNAME
  2

  9
$PUCSORG
 10
0.0
 20
0.0
 30
0.0
  9
$PUCSXDIR
 10
1.0
 20
0.0
 30
0.0
  9
$PUCSYDIR
 10
0.0
 20
1.0
 30
0.0
  9
$USERI1
 70
     0
  9
$USERI2
 70
     0
  9
$USERI3
 70
     0
  9
$USERI4
 70
     0
  9
$USERI5
 70
     0
  9
$USERR1
 40
0.0
  9
$USERR2
 40
0.0
  9
$USERR3
 40
0.0
  9
$USERR4
 40
0.0
  9
$USERR5
 40
0.0
  9
$WORLDVIEW
 70
     1
  9
$SHADEDGE
 70
     3
  9
$SHADEDIF
 70
    70
  9
$TILEMODE
 70
     1
  9
$MAXACTVP
 70
    16
  9
$PLIMCHECK
 70
     0
  9
$PEXTMIN
 10
1.000000000000000E+20
 20
1.000000000000000E+20
 30
1.000000000000000E+20
  9
$PEXTMAX
 10
-1.000000000000000E+20
 20
-1.000000000000000E+20
 30
-1.000000000000000E+20
  9
$PLIMMIN
 10
0.0
 20
0.0
  9
$PLIMMAX
 10
12.0
 20
9.0
  9
$UNITMODE
 70
     0
  9
$VISRETAIN
 70
     0
  9
$PLINEGEN
 70
     1
  9
$PSLTSCALE
 70
     0
  0
ENDSEC
  0
SECTION
  2
TABLES
  0
TABLE
  2
VPORT
 70
     1
  0
VPORT
  2
*ACTIVE
 70
     0
 10
0.0
 20
0.0
 11
1.0
 21
1.0
 12
-1.375815314212474
 22
-7.387762679099165
 13
0.0
 23
0.0
 14
1.0
 24
1.0
 15
0.0
 25
0.0
 16
0.0
 26
0.0
 36
1.0
 17
0.0
 27
0.0
 37
0.0
 40
30.01801634943175
 41
1.455696202531646
 42
50.0
 43
0.0
 44
0.0
 50
0.0
 51
0.0
 71
     0
 72
   100
 73
     1
 74
     1
 75
     0
 76
     0
 77
     0
 78
     0
  0
ENDTAB
  0
TABLE
  2
LTYPE
 70
     1
  0
LTYPE
  2
CONTINUOUS
 70
     0
  3
Solid line
 72
    65
 73
     0
 40
0.0
  0
ENDTAB
  0
TABLE
  2
LAYER
 70
     1
  0
LAYER
  2
0
 70
     0
 62
     7
  6
CONTINUOUS
  0
ENDTAB
  0
TABLE
  2
STYLE
 70
     1
  0
STYLE
  2
STANDARD
 70
     0
 40
0.0
 41
1.0
 50
0.0
 71
     0
 42
0.003
  3
txt
  4

  0
ENDTAB
  0
TABLE
  2
VIEW
 70
     0
  0
ENDTAB
  0
TABLE
  2
UCS
 70
     0
  0
ENDTAB
  0
TABLE
  2
APPID
 70
     1
  0
APPID
  2
ACAD
 70
     0
  0
ENDTAB
  0
TABLE
  2
DIMSTYLE
 70
     1
  0
DIMSTYLE
  2
STANDARD
 70
     0
  3

  4

  5

  6

  7

 40
1.0
 41
0.18
 42
0.0625
 43
0.38
 44
0.18
 45
0.0
 46
0.0
 47
0.0
 48
0.0
140
0.18
141
0.09
142
0.0
143
25.4
144
1.0
145
0.0
146
1.0
147
0.09
 71
     0
 72
     0
 73
     1
 74
     1
 75
     0
 76
     0
 77
     0
 78
     0
170
     0
171
     2
172
     0
173
     0
174
     0
175
     0
176
     0
177
     0
178
     0
  0
ENDTAB
  0
ENDSEC
  0
SECTION
  2
BLOCKS
  0
BLOCK
  8
0
  2
$MODEL_SPACE
 70
     2
 10
0.0
 20
0.0
 30
0.0
  3
$MODEL_SPACE
  1

  0
ENDBLK
  5
9
  8
0
  0
BLOCK
 67
     1
  8
0
  2
$PAPER_SPACE
 70
     0
 10
0.0
 20
0.0
 30
0.0
  3
$PAPER_SPACE
  1

  0
ENDBLK
  5
E
 67
     1
  8
0
  0
ENDSEC
  0
SECTION
  2
ENTITIES
  0
POLYLINE
  5
24
  8
0
 66
     1
 10
0.0
 20
0.0
 30
0.0
  0
VERTEX
  5
4A
  8
0
 10
0.622197829147677
 20
-8.204841602519434
 30
0.0
  0
VERTEX
  5
4B
  8
0
 10
0.7049673130549475
 20
-8.298887020149138
 30
0.0
  0
VERTEX
  5
4C
  8
0
 10
0.7670625902618811
 20
-8.404123140091016
 30
0.0
  0
VERTEX
  5
4D
  8
0
 10
0.8060814083555336
 20
-8.518589948173661
 30
0.0
  0
VERTEX
  5
4E
  8
0
 10
0.8196215149229609
 20
-8.640327430225653
 30
0.0
  0
VERTEX
  5
4F
  8
0
 10
0.8029429955681919
 20
-8.775245210369931
 30
0.0
  0
VERTEX
  5
50
  8
0
 10
0.7551083691452754
 20
-8.900907713388683
 30
0.0
  0
VERTEX
  5
51
  8
0
 10
0.679419033116296
 20
-9.014623026883166
 30
0.0
  0
VERTEX
  5
52
  8
0
 10
0.5791763849433393
 20
-9.113699238454629
 30
0.0
  0
VERTEX
  5
53
  8
0
 10
0.4576818220884902
 20
-9.195444435704326
 30
0.0
  0
VERTEX
  5
54
  8
0
 10
0.318236742013834
 20
-9.257166706233512
 30
0.0
  0
VERTEX
  5
55
  8
0
 10
0.1641425421814555
 20
-9.296174137643437
 30
0.0
  0
VERTEX
  5
56
  8
0
 10
-0.0012993799465599
 20
-9.309774817535356
 30
0.0
  0
VERTEX
  5
57
  8
0
 10
-0.1667413020745756
 20
-9.296174137643437
 30
0.0
  0
VERTEX
  5
58
  8
0
 10
-0.320835501906954
 20
-9.257166706233512
 30
0.0
  0
VERTEX
  5
59
  8
0
 10
-0.4602805819816102
 20
-9.195444435704326
 30
0.0
  0
VERTEX
  5
5A
  8
0
 10
-0.5817751448364591
 20
-9.113699238454629
 30
0.0
  0
VERTEX
  5
5B
  8
0
 10
-0.6820177930094156
 20
-9.014623026883166
 30
0.0
  0
VERTEX
  5
5C
  8
0
 10
-0.7577071290383945
 20
-8.900907713388683
 30
0.0
  0
VERTEX
  5
5D
  8
0
 10
-0.805541755461311
 20
-8.775245210369931
 30
0.0
  0
VERTEX
  5
5E
  8
0
 10
-0.8222202748160798
 20
-8.640327430225653
 30
0.0
  0
VERTEX
  5
5F
  8
0
 10
-0.8090847830990247
 20
-8.520402141153049
 30
0.0
  0
VERTEX
  5
60
  8
0
 10
-0.7712076439502922
 20
-8.407497350638808
 30
0.0
  0
VERTEX
  5
61
  8
0
 10
-0.7108828613735326
 20
-8.303483909348847
 30
0.0
  0
VERTEX
  5
62
  8
0
 10
-0.6304044393723959
 20
-8.210232667949084
 30
0.0
  0
SEQEND
  5
63
  8
0
  0
POLYLINE
  5
25
  8
0
 66
     1
 10
0.0
 20
0.0
 30
0.0
  0
VERTEX
  5
64
  8
0
 10
0.7691585489859428
 20
-8.40870594797026
 30
0.0
  0
VERTEX
  5
65
  8
0
 10
0.9037461354027667
 20
-8.495451565102021
 30
0.0
  0
VERTEX
  5
66
  8
0
 10
1.024931108519598
 20
-8.595177785596651
 30
0.0
  0
VERTEX
  5
67
  8
0
 10
1.131313414089853
 20
-8.706690560947324
 30
0.0
  0
VERTEX
  5
68
  8
0
 10
1.221492997866946
 20
-8.828795842647212
 30
0.0
  0
VERTEX
  5
69
  8
0
 10
1.294069805604296
 20
-8.960299582189492
 30
0.0
  0
VERTEX
  5
6A
  8
0
 10
1.347643783055316
 20
-9.100007731067338
 30
0.0
  0
VERTEX
  5
6B
  8
0
 10
1.380814875973423
 20
-9.246726240773924
 30
0.0
  0
VERTEX
  5
6C
  8
0
 10
1.392183030112033
 20
-9.399261062802424
 30
0.0
  0
VERTEX
  5
6D
  8
0
 10
1.377357275895756
 20
-9.573256372468283
 30
0.0
  0
VERTEX
  5
6E
  8
0
 10
1.334275136978601
 20
-9.739423345385479
 30
0.0
  0
VERTEX
  5
6F
  8
0
 10
1.265029298958086
 20
-9.895975761555638
 30
0.0
  0
VERTEX
  5
70
  8
0
 10
1.171712447431727
 20
-10.04112740098038
 30
0.0
  0
SEQEND
  5
71
  8
0
  0
POLYLINE
  5
26
  8
0
 66
     1
 10
0.0
 20
0.0
 30
0.0
  0
VERTEX
  5
72
  8
0
 10
0.8104109448236687
 20
-8.539710102520084
 30
0.0
  0
VERTEX
  5
73
  8
0
 10
0.8704718087078873
 20
-8.714641711472524
 30
0.0
  0
VERTEX
  5
74
  8
0
 10
0.9335376953628229
 20
-8.843533296083104
 30
0.0
  0
VERTEX
  5
75
  8
0
 10
1.002838437412365
 20
-8.939715368594536
 30
0.0
  0
VERTEX
  5
76
  8
0
 10
1.081603867480402
 20
-9.016518441249527
 30
0.0
  0
SEQEND
  5
77
  8
0
  0
POLYLINE
  5
27
  8
0
 66
     1
 10
0.0
 20
0.0
 30
0.0
  0
VERTEX
  5
78
  8
0
 10
0.6216643994854056
 20
-0.9015487329198777
 30
0.0
  0
VERTEX
  5
79
  8
0
 10
0.6216643994854056
 20
-0.9015487329198777
 30
0.0
  0
VERTEX
  5
7A
  8
0
 10
0.6252749339686019
 20
-0.8551743328020666
 30
0.0
  0
VERTEX
  5
7B
  8
0
 10
0.6357998581052375
 20
-0.8107272037953323
 30
0.0
  0
VERTEX
  5
7C
  8
0
 10
0.652779152925883
 20
-0.7688574633003734
 30
0.0
  0
VERTEX
  5
7D
  8
0
 10
0.6757527994611086
 20
-0.730215228717889
 30
0.0
  0
VERTEX
  5
7E
  8
0
 10
0.7042607787414849
 20
-0.6954506174485775
 30
0.0
  0
VERTEX
  5
7F
  8
0
 10
0.737843071797582
 20
-0.6652137468931378
 30
0.0
  0
VERTEX
  5
80
  8
0
 10
0.7760396596599706
 20
-0.6401547344522687
 30
0.0
  0
VERTEX
  5
81
  8
0
 10
0.8183905233592208
 20
-0.6209236975266688
 30
0.0
  0
SEQEND
  5
82
  8
0
  0
POLYLINE
  5
28
  8
0
 66
     1
 10
0.0
 20
0.0
 30
0.0
  0
VERTEX
  5
83
  8
0
 10
0.8183905233946405
 20
-0.6208416314119063
 30
0.0
  0
VERTEX
  5
84
  8
0
 10
0.9589612073765399
 20
-0.5759873775987341
 30
0.0
  0
VERTEX
  5
85
  8
0
 10
1.102229814458008
 20
-0.5416888761409098
 30
0.0
  0
VERTEX
  5
86
  8
0
 10
1.89333335897488
 20
-0.5416888761409098
 30
0.0
  0
VERTEX
  5
87
  8
0
 10
1.894058276208144
 20
-0.5418803637119536
 30
0.0
  0
SEQEND
  5
88
  8
0
  0
POLYLINE
  5
29
  8
0
 66
     1
 10
0.0
 20
0.0
 30
0.0
  0
VERTEX
  5
89
  8
0
 10
-0.8184589118128791
 20
-0.6208416314119063
 30
0.0
  0
VERTEX
  5
8A
  8
0
 10
-0.8184589118128791
 20
-0.6209236975137884
 30
0.0
  0
VERTEX
  5
8B
  8
0
 10
-0.7760844861632696
 20
-0.6401547344344659
 30
0.0
  0
VERTEX
  5
8C
  8
0
 10
-0.737876838607861
 20
-0.6652137468709327
 30
0.0
  0
VERTEX
  5
8D
  8
0
 10
-0.7042931029796895
 20
-0.6954506174224902
 30
0.0
  0
VERTEX
  5
8E
  8
0
 10
-0.6757904131117908
 20
-0.7302152286884395
 30
0.0
  0
VERTEX
  5
8F
  8
0
 10
-0.6528259028372011
 20
-0.7688574632680819
 30
0.0
  0
VERTEX
  5
90
  8
0
 10
-0.6358567059889563
 20
-0.8107272037607187
 30
0.0
  0
VERTEX
  5
91
  8
0
 10
-0.6253399564000923
 20
-0.8551743327656513
 30
0.0
  0
VERTEX
  5
92
  8
0
 10
-0.6217327879036452
 20
-0.9015487328821805
 30
0.0
  0
SEQEND
  5
93
  8
0
  0
POLYLINE
  5
2A
  8
0
 66
     1
 10
0.0
 20
0.0
 30
0.0
  0
VERTEX
  5
94
  8
0
 10
-0.8184589118128791
 20
-0.6208416314119063
 30
0.0
  0
VERTEX
  5
95
  8
0
 10
-0.9591185007384915
 20
-0.5759873775987341
 30
0.0
  0
VERTEX
  5
96
  8
0
 10
-1.102393946661784
 20
-0.5416888761409098
 30
0.0
  0
VERTEX
  5
97
  8
0
 10
-1.893319681291232
 20
-0.5416888761409098
 30
0.0
  0
VERTEX
  5
98
  8
0
 10
-1.893497491178657
 20
-0.541784619926446
 30
0.0
  0
SEQEND
  5
99
  8
0
  0
POLYLINE
  5
2B
  8
0
 66
     1
 10
0.0
 20
0.0
 30
0.0
  0
VERTEX
  5
9A
  8
0
 10
1.989501152703992
 20
-0.4638081454491783
 30
0.0
  0
VERTEX
  5
9B
  8
0
 10
1.928767108175489
 20
-0.5372983396898992
 30
0.0
  0
VERTEX
  5
9C
  8
0
 10
1.820321883661839
 20
-0.5416888761409098
 30
0.0
  0
VERTEX
  5
9D
  8
0
 10
1.548395855055881
 20
-0.5416888761409098
 30
0.0
  0
VERTEX
  5
9E
  8
0
 10
0.59656584999132
 20
-0.5416888761409098
 30
0.0
  0
VERTEX
  5
9F
  8
0
 10
-1.526962924779459
 20
-0.5416888761409098
 30
0.0
  0
VERTEX
  5
A0
  8
0
 10
-1.813264198899468
 20
-0.5416888761409098
 30
0.0
  0
VERTEX
  5
A1
  8
0
 10
-1.925713565290269
 20
-0.5378728024054452
 30
0.0
  0
VERTEX
  5
A2
  8
0
 10
-1.98965160722412
 20
-0.4638081454772776
 30
0.0
  0
SEQEND
  5
A3
  8
0
  0
POLYLINE
  5
2C
  8
0
 66
     1
 10
0.0
 20
0.0
 30
0.0
  0
VERTEX
  5
A4
  8
0
 10
-0.6214045234960937
 20
-7.916073564538394
 30
0.0
  0
VERTEX
  5
A5
  8
0
 10
-0.6214045234960937
 20
-8.277171251687506
 30
0.0
  0
VERTEX
  5
A6
  8
0
 10
-0.6087714996509324
 20
-8.37936467949076
 30
0.0
  0
VERTEX
  5
A7
  8
0
 10
-0.5725395026669522
 20
-8.474547706711443
 30
0.0
  0
VERTEX
  5
A8
  8
0
 10
-0.5152091443714093
 20
-8.560681343345419
 30
0.0
  0
VERTEX
  5
A9
  8
0
 10
-0.4392810365915593
 20
-8.635726599388553
 30
0.0
  0
VERTEX
  5
AA
  8
0
 10
-0.3472557911546582
 20
-8.697644484836708
 30
0.0
  0
VERTEX
  5
AB
  8
0
 10
-0.2416340198879619
 20
-8.744396009685751
 30
0.0
  0
VERTEX
  5
AC
  8
0
 10
-0.1249163346187263
 20
-8.773942183931542
 30
0.0
  0
VERTEX
  5
AD
  8
0
 10
0.0003966528257928
 20
-8.784244017569947
 30
0.0
  0
VERTEX
  5
AE
  8
0
 10
0.1257096402703116
 20
-8.773942183931542
 30
0.0
  0
VERTEX
  5
AF
  8
0
 10
0.242427325539547
 20
-8.744396009685751
 30
0.0
  0
VERTEX
  5
B0
  8
0
 10
0.3480490968062432
 20
-8.697644484836708
 30
0.0
  0
VERTEX
  5
B1
  8
0
 10
0.4400743422431441
 20
-8.635726599388553
 30
0.0
  0
VERTEX
  5
B2
  8
0
 10
0.5160024500229941
 20
-8.560681343345419
 30
0.0
  0
VERTEX
  5
B3
  8
0
 10
0.5733328083185371
 20
-8.474547706711443
 30
0.0
  0
VERTEX
  5
B4
  8
0
 10
0.6095648053025171
 20
-8.37936467949076
 30
0.0
  0
VERTEX
  5
B5
  8
0
 10
0.6221978291476784
 20
-8.277171251687506
 30
0.0
  0
VERTEX
  5
B6
  8
0
 10
0.6221978291476784
 20
-7.890345841596499
 30
0.0
  0
SEQEND
  5
B7
  8
0
  0
POLYLINE
  5
2D
  8
0
 66
     1
 10
0.0
 20
0.0
 30
0.0
  0
VERTEX
  5
B8
  8
0
 10
0.5446316851798505
 20
-8.550540275918337
 30
0.0
  0
VERTEX
  5
B9
  8
0
 10
0.5497744942314995
 20
-8.612158240752592
 30
0.0
  0
VERTEX
  5
BA
  8
0
 10
0.5386124625199196
 20
-8.702452564638145
 30
0.0
  0
VERTEX
  5
BB
  8
0
 10
0.5065993897999276
 20
-8.78655234039935
 30
0.0
  0
VERTEX
  5
BC
  8
0
 10
0.4559448096936454
 20
-8.862656120928554
 30
0.0
  0
VERTEX
  5
BD
  8
0
 10
0.3888582558231947
 20
-8.928962459118099
 30
0.0
  0
VERTEX
  5
BE
  8
0
 10
0.3075492618106974
 20
-8.98366990786033
 30
0.0
  0
VERTEX
  5
BF
  8
0
 10
0.2142273612782754
 20
-9.02497702004759
 30
0.0
  0
VERTEX
  5
C0
  8
0
 10
0.1111020878480503
 20
-9.05108234857223
 30
0.0
  0
VERTEX
  5
C1
  8
0
 10
0.000382975142144
 20
-9.060184446326588
 30
0.0
  0
VERTEX
  5
C2
  8
0
 10
-0.1103361375637623
 20
-9.05108234857223
 30
0.0
  0
VERTEX
  5
C3
  8
0
 10
-0.2134614109939873
 20
-9.02497702004759
 30
0.0
  0
VERTEX
  5
C4
  8
0
 10
-0.3067833115264094
 20
-8.98366990786033
 30
0.0
  0
VERTEX
  5
C5
  8
0
 10
-0.3880923055389066
 20
-8.928962459118099
 30
0.0
  0
VERTEX
  5
C6
  8
0
 10
-0.4551788594093573
 20
-8.862656120928554
 30
0.0
  0
VERTEX
  5
C7
  8
0
 10
-0.5058334395156395
 20
-8.78655234039935
 30
0.0
  0
VERTEX
  5
C8
  8
0
 10
-0.5378465122356315
 20
-8.702452564638145
 30
0.0
  0
VERTEX
  5
C9
  8
0
 10
-0.5490085439472114
 20
-8.612158240752592
 30
0.0
  0
VERTEX
  5
CA
  8
0
 10
-0.5416499501460382
 20
-8.538681724202686
 30
0.0
  0
SEQEND
  5
CB
  8
0
  0
POLYLINE
  5
2E
  8
0
 66
     1
 10
0.0
 20
0.0
 30
0.0
  0
VERTEX
  5
CC
  8
0
 10
-1.248033922145724
 20
-9.931500766597182
 30
0.0
  0
VERTEX
  5
CD
  8
0
 10
-1.310757855931205
 20
-9.807692511353523
 30
0.0
  0
VERTEX
  5
CE
  8
0
 10
-1.356933929640672
 20
-9.67708559248158
 30
0.0
  0
VERTEX
  5
CF
  8
0
 10
-1.385452968615794
 20
-9.540626334718748
 30
0.0
  0
VERTEX
  5
D0
  8
0
 10
-1.395205798198242
 20
-9.399261062802424
 30
0.0
  0
VERTEX
  5
D1
  8
0
 10
-1.383605786755737
 20
-9.245189049149762
 30
0.0
  0
VERTEX
  5
D2
  8
0
 10
-1.349768105700855
 20
-9.097065786027862
 30
0.0
  0
VERTEX
  5
D3
  8
0
 10
-1.295136284942545
 20
-8.956122505392706
 30
0.0
  0
VERTEX
  5
D4
  8
0
 10
-1.221153854389756
 20
-8.823590439200276
 30
0.0
  0
VERTEX
  5
D5
  8
0
 10
-1.129264343951437
 20
-8.700700819406558
 30
0.0
  0
VERTEX
  5
D6
  8
0
 10
-1.020911283536535
 20
-8.588684877967536
 30
0.0
  0
VERTEX
  5
D7
  8
0
 10
-0.8975382030540012
 20
-8.488773846839191
 30
0.0
  0
VERTEX
  5
D8
  8
0
 10
-0.760588632412783
 20
-8.402198957977507
 30
0.0
  0
SEQEND
  5
D9
  8
0
  0
POLYLINE
  5
2F
  8
0
 66
     1
 10
0.0
 20
0.0
 30
0.0
  0
VERTEX
  5
DA
  8
0
 10
-0.7995837083786341
 20
-8.474957396079461
 30
0.0
  0
VERTEX
  5
DB
  8
0
 10
-0.8639846544011409
 20
-8.679061348016662
 30
0.0
  0
VERTEX
  5
DC
  8
0
 10
-0.9310091511174528
 20
-8.826270410264023
 30
0.0
  0
VERTEX
  5
DD
  8
0
 10
-1.004686131215925
 20
-8.933213226711622
 30
0.0
  0
VERTEX
  5
DE
  8
0
 10
-1.089044527384916
 20
-9.016518441249527
 30
0.0
  0
SEQEND
  5
DF
  8
0
  0
POLYLINE
  5
30
  8
0
 66
     1
 10
0.0
 20
0.0
 30
0.0
  0
VERTEX
  5
E0
  8
0
 10
-2.694079670463594
 20
-9.40764548287865
 30
0.0
  0
VERTEX
  5
E1
  8
0
 10
-2.694079670463594
 20
-10.20566993532141
 30
0.0
  0
VERTEX
  5
E2
  8
0
 10
-2.680112711820704
 20
-10.43123309767203
 30
0.0
  0
VERTEX
  5
E3
  8
0
 10
-2.639118356432873
 20
-10.65028029968968
 30
0.0
  0
VERTEX
  5
E4
  8
0
 10
-2.572456385111367
 20
-10.86170264721541
 30
0.0
  0
VERTEX
  5
E5
  8
0
 10
-2.481486578667449
 20
-11.06439124609026
 30
0.0
  0
VERTEX
  5
E6
  8
0
 10
-2.367568717912382
 20
-11.25723720215527
 30
0.0
  0
VERTEX
  5
E7
  8
0
 10
-2.232062583657431
 20
-11.43913162125148
 30
0.0
  0
VERTEX
  5
E8
  8
0
 10
-1.90172461789293
 20
-11.76563027190168
 30
0.0
  0
VERTEX
  5
E9
  8
0
 10
-1.501350927864055
 20
-12.03501604476918
 30
0.0
  0
VERTEX
  5
EA
  8
0
 10
-1.278300138278637
 20
-12.14551936663703
 30
0.0
  0
VERTEX
  5
EB
  8
0
 10
-1.041819760060916
 20
-12.23841778658232
 30
0.0
  0
VERTEX
  5
EC
  8
0
 10
-0.7932695740221568
 20
-12.31260241044611
 30
0.0
  0
VERTEX
  5
ED
  8
0
 10
-0.5340093609736228
 20
-12.36696434406943
 30
0.0
  0
VERTEX
  5
EE
  8
0
 10
-0.2653989017265777
 20
-12.40039469329332
 30
0.0
  0
VERTEX
  5
EF
  8
0
 10
0.0112020229077148
 20
-12.41178456395883
 30
0.0
  0
VERTEX
  5
F0
  8
0
 10
0.2878053551616147
 20
-12.40039469329332
 30
0.0
  0
VERTEX
  5
F1
  8
0
 10
0.5564179214932257
 20
-12.36696434406943
 30
0.0
  0
VERTEX
  5
F2
  8
0
 10
0.8156799611269543
 20
-12.31260241044611
 30
0.0
  0
VERTEX
  5
F3
  8
0
 10
1.064231713287206
 20
-12.23841778658232
 30
0.0
  0
VERTEX
  5
F4
  8
0
 10
1.300713417198385
 20
-12.14551936663703
 30
0.0
  0
VERTEX
  5
F5
  8
0
 10
1.5237653120849
 20
-12.03501604476918
 30
0.0
  0
VERTEX
  5
F6
  8
0
 10
1.924140631681553
 20
-11.76563027190168
 30
0.0
  0
VERTEX
  5
F7
  8
0
 10
2.254479585872412
 20
-11.43913162125148
 30
0.0
  0
VERTEX
  5
F8
  8
0
 10
2.389986024001683
 20
-11.25723720215527
 30
0.0
  0
VERTEX
  5
F9
  8
0
 10
2.503904088452722
 20
-11.06439124609026
 30
0.0
  0
VERTEX
  5
FA
  8
0
 10
2.594874018449934
 20
-10.86170264721541
 30
0.0
  0
VERTEX
  5
FB
  8
0
 10
2.661536053217727
 20
-10.65028029968968
 30
0.0
  0
VERTEX
  5
FC
  8
0
 10
2.702530431980506
 20
-10.43123309767203
 30
0.0
  0
VERTEX
  5
FD
  8
0
 10
2.716497393962674
 20
-10.20566993532141
 30
0.0
  0
VERTEX
  5
FE
  8
0
 10
2.716497393962674
 20
-9.38663656079531
 30
0.0
  0
SEQEND
  5
FF
  8
0
  0
POLYLINE
  5
31
  8
0
 66
     1
 10
0.0
 20
0.0
 30
0.0
  0
VERTEX
  5
100
  8
0
 10
0.6339196040340163
 20
-7.365027045727629
 30
0.0
  0
VERTEX
  5
101
  8
0
 10
1.066192430609527
 20
-7.480341526211441
 30
0.0
  0
VERTEX
  5
102
  8
0
 10
1.463009495462307
 20
-7.650552218157517
 30
0.0
  0
VERTEX
  5
103
  8
0
 10
1.817534307620233
 20
-7.870083515340807
 30
0.0
  0
VERTEX
  5
104
  8
0
 10
2.122930376111179
 20
-8.133359811536261
 30
0.0
  0
VERTEX
  5
105
  8
0
 10
2.372361209963021
 20
-8.434805500518827
 30
0.0
  0
VERTEX
  5
106
  8
0
 10
2.558990318203634
 20
-8.768844976063459
 30
0.0
  0
VERTEX
  5
107
  8
0
 10
2.675981209860894
 20
-9.129902631945102
 30
0.0
  0
VERTEX
  5
108
  8
0
 10
2.716497393962674
 20
-9.51240286193871
 30
0.0
  0
VERTEX
  5
109
  8
0
 10
2.702530431980506
 20
-9.737966024289325
 30
0.0
  0
VERTEX
  5
10A
  8
0
 10
2.661536053217727
 20
-9.957013226306977
 30
0.0
  0
VERTEX
  5
10B
  8
0
 10
2.594874018449934
 20
-10.16843557383271
 30
0.0
  0
VERTEX
  5
10C
  8
0
 10
2.503904088452722
 20
-10.37112417270756
 30
0.0
  0
VERTEX
  5
10D
  8
0
 10
2.389986024001683
 20
-10.56397012877256
 30
0.0
  0
VERTEX
  5
10E
  8
0
 10
2.254479585872412
 20
-10.74586454786878
 30
0.0
  0
VERTEX
  5
10F
  8
0
 10
1.924140631681553
 20
-11.07236319851897
 30
0.0
  0
VERTEX
  5
110
  8
0
 10
1.5237653120849
 20
-11.34174897138647
 30
0.0
  0
VERTEX
  5
111
  8
0
 10
1.300713417198386
 20
-11.45225229325432
 30
0.0
  0
VERTEX
  5
112
  8
0
 10
1.064231713287206
 20
-11.54515071319961
 30
0.0
  0
VERTEX
  5
113
  8
0
 10
0.8156799611269543
 20
-11.6193353370634
 30
0.0
  0
VERTEX
  5
114
  8
0
 10
0.5564179214932259
 20
-11.67369727068672
 30
0.0
  0
VERTEX
  5
115
  8
0
 10
0.2878053551616145
 20
-11.70712761991062
 30
0.0
  0
VERTEX
  5
116
  8
0
 10
0.0112020229077148
 20
-11.71851749057613
 30
0.0
  0
VERTEX
  5
117
  8
0
 10
-0.2653989017265777
 20
-11.70712761991062
 30
0.0
  0
VERTEX
  5
118
  8
0
 10
-0.5340093609736227
 20
-11.67369727068672
 30
0.0
  0
VERTEX
  5
119
  8
0
 10
-0.7932695740221567
 20
-11.6193353370634
 30
0.0
  0
VERTEX
  5
11A
  8
0
 10
-1.041819760060916
 20
-11.54515071319961
 30
0.0
  0
VERTEX
  5
11B
  8
0
 10
-1.278300138278637
 20
-11.45225229325432
 30
0.0
  0
VERTEX
  5
11C
  8
0
 10
-1.501350927864055
 20
-11.34174897138647
 30
0.0
  0
VERTEX
  5
11D
  8
0
 10
-1.90172461789293
 20
-11.07236319851897
 30
0.0
  0
VERTEX
  5
11E
  8
0
 10
-2.232062583657431
 20
-10.74586454786878
 30
0.0
  0
VERTEX
  5
11F
  8
0
 10
-2.367568717912382
 20
-10.56397012877256
 30
0.0
  0
VERTEX
  5
120
  8
0
 10
-2.481486578667449
 20
-10.37112417270756
 30
0.0
  0
VERTEX
  5
121
  8
0
 10
-2.572456385111367
 20
-10.16843557383271
 30
0.0
  0
VERTEX
  5
122
  8
0
 10
-2.639118356432873
 20
-9.957013226306977
 30
0.0
  0
VERTEX
  5
123
  8
0
 10
-2.680112711820704
 20
-9.737966024289325
 30
0.0
  0
VERTEX
  5
124
  8
0
 10
-2.694079670463594
 20
-9.51240286193871
 30
0.0
  0
VERTEX
  5
125
  8
0
 10
-2.654283595042349
 20
-9.133274648500244
 30
0.0
  0
VERTEX
  5
126
  8
0
 10
-2.539330357700146
 20
-8.775154555713588
 30
0.0
  0
VERTEX
  5
127
  8
0
 10
-2.355872441819289
 20
-8.443467761996267
 30
0.0
  0
VERTEX
  5
128
  8
0
 10
-2.110562330782078
 20
-8.1436394457658
 30
0.0
  0
VERTEX
  5
129
  8
0
 10
-1.810052507970818
 20
-7.88109478543971
 30
0.0
  0
VERTEX
  5
12A
  8
0
 10
-1.460995456767807
 20
-7.661258959435513
 30
0.0
  0
VERTEX
  5
12B
  8
0
 10
-1.070043660555348
 20
-7.489557146170734
 30
0.0
  0
VERTEX
  5
12C
  8
0
 10
-0.6438496027157459
 20
-7.371414524062892
 30
0.0
  0
SEQEND
  5
12D
  8
0
  0
LINE
  5
32
  8
0
 10
0.6216643994854056
 20
-1.103390310513461
 30
0.0
 11
0.6216643994854056
 21
-8.088918452798211
 31
0.0
  0
LINE
  5
33
  8
0
 10
-0.6217327879036452
 20
-1.103390310513461
 30
0.0
 11
-0.6217327879036452
 21
-8.103710867663537
 31
0.0
  0
POLYLINE
  5
34
  8
0
 66
     1
 10
0.0
 20
0.0
 30
0.0
  0
VERTEX
  5
35
  8
0
 10
1.919963809037544
 20
-0.2061889739390352
 30
0.0
  0
VERTEX
  5
36
  8
0
 10
1.919963809037544
 20
-0.1007887437475148
 30
0.0
  0
VERTEX
  5
37
  8
0
 10
-1.919963809037543
 20
-0.1007887437475148
 30
0.0
  0
VERTEX
  5
38
  8
0
 10
-1.919963809037543
 20
-0.2061889739390352
 30
0.0
  0
SEQEND
  5
39
  8
0
  0
LINE
  5
3A
  8
0
 10
1.973771816508789
 20
-0.2051631476654308
 30
0.0
 11
-1.97375813882514
 21
-0.2051631476654308
 31
0.0
  0
LINE
  5
3B
  8
0
 10
-1.98965160722412
 20
-0.2947519755598478
 30
0.0
 11
-1.98965160722412
 21
-0.4638081454491783
 31
0.0
  0
LINE
  5
3C
  8
0
 10
-1.97375813882514
 20
-0.2051631476654308
 30
0.0
 11
-1.98965160722412
 21
-0.2947519755598478
 31
0.0
  0
LINE
  5
3D
  8
0
 10
-0.6217327879036452
 20
-0.9015487329198777
 30
0.0
 11
-0.6217327879036452
 21
-1.103390310513461
 31
0.0
  0
ATTDEF
  5
3E
  8
0
  6
CONTINUOUS
 10
-0.0018
 20
-0.0165
 30
0.0
 40
0.003
  1
BRASS
  3

  2
MATERIAL
 70
     2
  0
ATTDEF
  5
3F
  8
0
  6
CONTINUOUS
 10
-0.0018
 20
-0.0132
 30
0.0
 40
0.003
  1
FAUCET
  3

  2
PRODUCT
 70
     2
  0
ATTDEF
  5
40
  8
0
  6
CONTINUOUS
 10
-0.0018
 20
-0.0098
 30
0.0
 40
0.003
  1
PURIST
  3

  2
TRADENAME
 70
     2
  0
ATTDEF
  5
41
  8
0
  6
CONTINUOUS
 10
-0.0018
 20
-0.0065
 30
0.0
 40
0.003
  1
K-14425
  3

  2
MODELNUMBER
 70
     2
  0
LINE
  5
42
  8
0
 10
0.6216643994854056
 20
-1.103390310513461
 30
0.0
 11
0.6216643994854056
 21
-0.9015487329198777
 31
0.0
  0
LINE
  5
43
  8
0
 10
1.989501152703992
 20
-0.2947519755598478
 30
0.0
 11
1.989501152703992
 21
-0.4638081454491783
 31
0.0
  0
LINE
  5
44
  8
0
 10
1.973771816508789
 20
-0.2051631476654308
 30
0.0
 11
1.989501152703992
 21
-0.2947519755598478
 31
0.0
  0
ENDSEC
  0
EOF
