  0
SECTION
  2
HEADER
  9
$ACADVER
  1
AC1009
  9
$INSBASE
 10
0.0
 20
0.0
 30
0.0
  9
$EXTMIN
 10
-3.3117534840170628
 20
-0.005
 30
-36.695328086401048
  9
$EXTMAX
 10
3.3117593867795718
 20
11.78617865698029
 30
0.00159495
  9
$LIMMIN
 10
0.0
 20
0.0
  9
$LIMMAX
 10
420.0
 20
297.0
  9
$ORTHOMODE
 70
     1
  9
$REGENMODE
 70
     1
  9
$FILLMODE
 70
     1
  9
$QTEXTMODE
 70
     0
  9
$MIRRTEXT
 70
     1
  9
$DRAGMODE
 70
     2
  9
$LTSCALE
 40
1.0
  9
$OSMODE
 70
    37
  9
$ATTMODE
 70
     1
  9
$TEXTSIZE
 40
0.001
  9
$TRACEWID
 40
1.0
  9
$TEXTSTYLE
  7
STANDARD
  9
$CLAYER
  8
0
  9
$CELTYPE
  6
BYLAYER
  9
$CECOLOR
 62
   256
  9
$DIMSCALE
 40
1.0
  9
$DIMASZ
 40
2.5
  9
$DIMEXO
 40
0.625
  9
$DIMDLI
 40
3.75
  9
$DIMRND
 40
0.0
  9
$DIMDLE
 40
0.0
  9
$DIMEXE
 40
1.25
  9
$DIMTP
 40
0.0
  9
$DIMTM
 40
0.0
  9
$DIMTXT
 40
2.5
  9
$DIMCEN
 40
2.5
  9
$DIMTSZ
 40
0.0
  9
$DIMTOL
 70
     0
  9
$DIMLIM
 70
     0
  9
$DIMTIH
 70
     0
  9
$DIMTOH
 70
     0
  9
$DIMSE1
 70
     0
  9
$DIMSE2
 70
     0
  9
$DIMTAD
 70
     1
  9
$DIMZIN
 70
     8
  9
$DIMBLK
  1

  9
$DIMASO
 70
     1
  9
$DIMSHO
 70
     1
  9
$DIMPOST
  1

  9
$DIMAPOST
  1

  9
$DIMALT
 70
     0
  9
$DIMALTD
 70
     3
  9
$DIMALTF
 40
0.03937007874016
  9
$DIMLFAC
 40
1.0
  9
$DIMTOFL
 70
     1
  9
$DIMTVP
 40
0.0
  9
$DIMTIX
 70
     0
  9
$DIMSOXD
 70
     0
  9
$DIMSAH
 70
     0
  9
$DIMBLK1
  1

  9
$DIMBLK2
  1

  9
$DIMSTYLE
  2
ISO-25
  9
$DIMCLRD
 70
     0
  9
$DIMCLRE
 70
     0
  9
$DIMCLRT
 70
     0
  9
$DIMTFAC
 40
1.0
  9
$DIMGAP
 40
0.625
  9
$LUNITS
 70
     2
  9
$LUPREC
 70
     4
  9
$SKETCHINC
 40
1.0
  9
$FILLETRAD
 40
0.0
  9
$AUNITS
 70
     0
  9
$AUPREC
 70
     0
  9
$MENU
  1
.
  9
$ELEVATION
 40
0.0
  9
$PELEVATION
 40
0.0
  9
$THICKNESS
 40
0.0
  9
$LIMCHECK
 70
     0
  9
$BLIPMODE
 70
     0
  9
$CHAMFERA
 40
10.0
  9
$CHAMFERB
 40
10.0
  9
$SKPOLY
 70
     0
  9
$TDCREATE
 40
2453378.22126956
  9
$TDUPDATE
 40
2453419.6456667702
  9
$TDINDWG
 40
0.8700948611
  9
$TDUSRTIMER
 40
0.8700815508999999
  9
$USRTIMER
 70
     1
  9
$ANGBASE
 50
0.0
  9
$ANGDIR
 70
     0
  9
$PDMODE
 70
     0
  9
$PDSIZE
 40
0.0
  9
$PLINEWID
 40
0.0
  9
$COORDS
 70
     1
  9
$SPLFRAME
 70
     0
  9
$SPLINETYPE
 70
     6
  9
$SPLINESEGS
 70
     8
  9
$ATTDIA
 70
     0
  9
$ATTREQ
 70
     1
  9
$HANDLING
 70
     1
  9
$HANDSEED
  5
B33FC
  9
$SURFTAB1
 70
     6
  9
$SURFTAB2
 70
     6
  9
$SURFTYPE
 70
     6
  9
$SURFU
 70
     6
  9
$SURFV
 70
     6
  9
$UCSNAME
  2

  9
$UCSORG
 10
0.0
 20
0.0
 30
0.0
  9
$UCSXDIR
 10
1.0
 20
0.0
 30
0.0
  9
$UCSYDIR
 10
0.0
 20
1.0
 30
0.0
  9
$PUCSNAME
  2

  9
$PUCSORG
 10
0.0
 20
0.0
 30
0.0
  9
$PUCSXDIR
 10
1.0
 20
0.0
 30
0.0
  9
$PUCSYDIR
 10
0.0
 20
1.0
 30
0.0
  9
$USERI1
 70
     0
  9
$USERI2
 70
     0
  9
$USERI3
 70
     0
  9
$USERI4
 70
     0
  9
$USERI5
 70
     0
  9
$USERR1
 40
0.0
  9
$USERR2
 40
0.0
  9
$USERR3
 40
0.0
  9
$USERR4
 40
0.0
  9
$USERR5
 40
0.0
  9
$WORLDVIEW
 70
     1
  9
$SHADEDGE
 70
     3
  9
$SHADEDIF
 70
    70
  9
$TILEMODE
 70
     1
  9
$MAXACTVP
 70
    64
  9
$PLIMCHECK
 70
     0
  9
$PEXTMIN
 10
1.0000000000000000E+020
 20
1.0000000000000000E+020
 30
1.0000000000000000E+020
  9
$PEXTMAX
 10
-1.0000000000000000E+020
 20
-1.0000000000000000E+020
 30
-1.0000000000000000E+020
  9
$PLIMMIN
 10
0.0
 20
0.0
  9
$PLIMMAX
 10
420.0
 20
297.0
  9
$UNITMODE
 70
     0
  9
$VISRETAIN
 70
     1
  9
$PLINEGEN
 70
     0
  9
$PSLTSCALE
 70
     1
  0
ENDSEC
  0
SECTION
  2
TABLES
  0
TABLE
  2
VPORT
 70
     2
  0
VPORT
  2
*ACTIVE
 70
     0
 10
0.0
 20
0.0
 11
1.0
 21
1.0
 12
1.5285426448054511
 22
5.9998378588583154
 13
0.0
 23
0.0
 14
10.0
 24
10.0
 15
10.0
 25
10.0
 16
0.0
 26
0.0
 36
1.0
 17
0.0
 27
0.0
 37
0.0
 40
18.435671170142051
 41
1.9608247422680409
 42
50.0
 43
0.0
 44
0.0
 50
0.0
 51
0.0
 71
     0
 72
  1000
 73
     1
 74
     3
 75
     0
 76
     0
 77
     0
 78
     0
  0
ENDTAB
  0
TABLE
  2
LTYPE
 70
     1
  0
LTYPE
  2
CONTINUOUS
 70
     0
  3
Solid line
 72
    65
 73
     0
 40
0.0
  0
ENDTAB
  0
TABLE
  2
LAYER
 70
     3
  0
LAYER
  2
0
 70
     0
 62
     7
  6
CONTINUOUS
  0
LAYER
  2
ASHADE
 70
     0
 62
     7
  6
CONTINUOUS
  0
LAYER
  2
DEFPOINTS
 70
     0
 62
     7
  6
CONTINUOUS
  0
ENDTAB
  0
TABLE
  2
STYLE
 70
     2
  0
STYLE
  2
STANDARD
 70
     0
 40
0.0
 41
1.0
 50
0.0
 71
     0
 42
0.001
  3
txt
  4

  0
STYLE
  2
ASHADE
 70
     0
 40
0.2
 41
1.0
 50
0.0
 71
     0
 42
2.5
  3
simplex.shx
  4

  0
ENDTAB
  0
TABLE
  2
VIEW
 70
     0
  0
ENDTAB
  0
TABLE
  2
UCS
 70
     0
  0
ENDTAB
  0
TABLE
  2
APPID
 70
     6
  0
APPID
  2
ACAD
 70
     0
  0
APPID
  2
AVE_RENDER
 70
     0
  0
APPID
  2
AVE_ENTITY_MATERIAL
 70
     0
  0
APPID
  2
AVE_FINISH
 70
     0
  0
APPID
  2
AVE_MATERIAL
 70
     0
  0
APPID
  2
AVE_GLOBAL
 70
     0
  0
ENDTAB
  0
TABLE
  2
DIMSTYLE
 70
     2
  0
DIMSTYLE
  2
ISO-25
 70
     0
  3

  4

  5

  6

  7

 40
1.0
 41
2.5
 42
0.625
 43
3.75
 44
1.25
 45
0.0
 46
0.0
 47
0.0
 48
0.0
140
2.5
141
2.5
142
0.0
143
0.03937007874016
144
1.0
145
0.0
146
1.0
147
0.625
 71
     0
 72
     0
 73
     0
 74
     0
 75
     0
 76
     0
 77
     1
 78
     8
170
     0
171
     3
172
     1
173
     0
174
     0
175
     0
176
     0
177
     0
178
     0
  0
DIMSTYLE
  2
STANDARD
 70
     0
  3

  4

  5

  6

  7

 40
1.0
 41
0.18
 42
0.0625
 43
0.38
 44
0.18
 45
0.0
 46
0.0
 47
0.0
 48
0.0
140
0.18
141
0.09
142
0.0
143
25.399999999999999
144
1.0
145
0.0
146
1.0
147
0.09
 71
     0
 72
     0
 73
     1
 74
     1
 75
     0
 76
     0
 77
     0
 78
     0
170
     0
171
     2
172
     0
173
     0
174
     0
175
     0
176
     0
177
     0
178
     0
  0
ENDTAB
  0
ENDSEC
  0
SECTION
  2
BLOCKS
  0
BLOCK
  8
0
  2
$MODEL_SPACE
 70
     0
 10
0.0
 20
0.0
 30
0.0
  3
$MODEL_SPACE
  1

  0
ENDBLK
  5
B2E82
  8
0
  0
BLOCK
 67
     1
  8
0
  2
$PAPER_SPACE
 70
     0
 10
0.0
 20
0.0
 30
0.0
  3
$PAPER_SPACE
  1

  0
ENDBLK
  5
B2E7E
 67
     1
  8
0
  0
BLOCK
  8
ASHADE
  2
AVE_RENDER
 70
     0
 10
0.0
 20
0.0
 30
0.0
  3
AVE_RENDER
  1
AVE_RENDER
  0
ENDBLK
  5
31
  8
0
  0
BLOCK
  8
ASHADE
  2
AVE_GLOBAL
 70
     0
 10
0.0
 20
0.0
 30
0.0
  3
AVE_GLOBAL
  1
AVE_GLOBAL
  0
ENDBLK
  5
3F
  8
0
  0
BLOCK
  8
ASHADE
  2
RM_SDB
 70
     2
 10
0.0
 20
0.0
 30
0.0
  3
RM_SDB
  1
RM_SDB
  0
ATTDEF
  5
A3F6D
  8
ASHADE
  6
CONTINUOUS
 62
     1
 10
0.0000000000000001
 20
-0.15
 30
0.0
 40
0.2
  1

 41
100.0
  7
ASHADE
 72
     1
 11
0.0000000000000001
 21
-0.15
 31
0.0
  3
Name
  2
NAME
 70
     0
  0
ENDBLK
  5
620
  8
0
  0
BLOCK
  8
0
  2
*U5
 70
     1
 10
0.0
 20
0.0
 30
0.0
  3
*U5
  1

  0
TEXT
  5
B0C9E
  8
ASHADE
 10
-2099.7987229536889
 20
467.26665724326631
 30
0.0
 40
10.0
  1
Side Elevation
  0
TEXT
  5
B0C9F
  8
ASHADE
 10
-2081.0568339846909
 20
450.59999057659962
 30
0.0
 40
10.0
  1
5815-5u
  0
ENDBLK
  5
B0CA1
  8
0
  0
BLOCK
  8
0
  2
*U6
 70
     1
 10
0.0
 20
0.0
 30
0.0
  3
*U6
  1

  0
TEXT
  5
B0CA3
  8
ASHADE
 10
-881.83239392956341
 20
469.07801054409509
 30
0.0
 40
10.0
  1
Top Elevation
  0
TEXT
  5
B0CA4
  8
ASHADE
 10
-864.56130524895832
 20
452.41134387742858
 30
0.0
 40
10.0
  1
5815-5u
  0
ENDBLK
  5
B0CA6
  8
0
  0
BLOCK
  8
0
  2
*U7
 70
     1
 10
0.0
 20
0.0
 30
0.0
  3
*U7
  1

  0
TEXT
  5
B0CA8
  8
ASHADE
 10
-2054.9162687990952
 20
-534.82124252945584
 30
0.0
 40
10.0
  1
Front Elevation
  0
TEXT
  5
B0CA9
  8
ASHADE
 10
-2033.643738157421
 20
-551.48790919612236
 30
0.0
 40
10.0
  1
5815-5u
  0
ENDBLK
  5
B0CAB
  8
0
  0
BLOCK
  8
0
  2
*U8
 70
     1
 10
0.0
 20
0.0
 30
0.0
  3
*U8
  1

  0
TEXT
  5
B0DF2
  8
ASHADE
 10
-730.77966532351991
 20
-390.04986179703968
 30
0.0
 40
10.0
  1
Side Elevation
  0
TEXT
  5
B0DF3
  8
ASHADE
 10
-708.06517361479587
 20
-406.71652846370631
 30
0.0
 40
10.0
  1
6607-4
  0
ENDBLK
  5
B0DF5
  8
0
  0
BLOCK
  8
0
  2
*U9
 70
     1
 10
0.0
 20
0.0
 30
0.0
  3
*U9
  1

  0
TEXT
  5
B0DF7
  8
ASHADE
 10
787.14493456793423
 20
-420.96787410784128
 30
0.0
 40
10.0
  1
Top Elevation
  0
TEXT
  5
B0DF8
  8
ASHADE
 10
808.38862598826574
 20
-437.63454077450803
 30
0.0
 40
10.0
  1
6607-4
  0
ENDBLK
  5
B0DFA
  8
0
  0
BLOCK
  8
0
  2
*U10
 70
     1
 10
0.0
 20
0.0
 30
0.0
  3
*U10
  1

  0
TEXT
  5
B0DFC
  8
ASHADE
 10
-685.89721116892724
 20
-1608.1044633893339
 30
0.0
 40
10.0
  1
Front Elevation
  0
TEXT
  5
B0DFD
  8
ASHADE
 10
-660.65207778752847
 20
-1624.7711300560011
 30
0.0
 40
10.0
  1
6607-4
  0
ENDBLK
  5
B0DFF
  8
0
  0
BLOCK
  8
0
  2
*U11
 70
     1
 10
0.0
 20
0.0
 30
0.0
  3
*U11
  1

  0
TEXT
  5
B0EAD
  8
ASHADE
 10
-248.57026790404731
 20
467.39282883663321
 30
0.0
 40
10.0
  1
Side Elevation
  0
TEXT
  5
B0EAE
  8
ASHADE
 10
-235.02664858176911
 20
450.4738189832326
 30
0.0
 40
10.0
  1
t13132-3b
  0
ENDBLK
  5
B0EB0
  8
0
  0
BLOCK
  8
0
  2
*U12
 70
     1
 10
0.0
 20
0.0
 30
0.0
  3
*U12
  1

  0
TEXT
  5
B0F4A
  8
ASHADE
 10
331.0716735597648
 20
469.20418213746228
 30
0.0
 40
10.0
  1
Top Elevation
  0
TEXT
  5
B0F4B
  8
ASHADE
 10
343.14449259365091
 20
452.28517228406162
 30
0.0
 40
10.0
  1
t13132-3b
  0
ENDBLK
  5
B0F4D
  8
0
  0
BLOCK
  8
0
  2
*U13
 70
     1
 10
0.0
 20
0.0
 30
0.0
  3
*U13
  1

  0
TEXT
  5
B0FAF
  8
ASHADE
 10
-251.1009095767221
 20
3.238219306461084
 30
0.0
 40
10.0
  1
Front Elevation
  0
TEXT
  5
B0FB0
  8
ASHADE
 10
-235.02664858176911
 20
-13.680790546939541
 30
0.0
 40
10.0
  1
t13132-3b
  0
ENDBLK
  5
B0FB2
  8
0
  0
ENDSEC
  0
SECTION
  2
ENTITIES
  0
ATTDEF
  5
B0C8B
  8
0
 10
0.0
 20
0.0
 30
0.0
 40
0.001
  1
K-14418
  3

  2
MODELNUMBER
 70
     8
  0
ATTDEF
  5
B0C8C
  8
0
 10
0.0
 20
-0.0016666666666667
 30
0.0
 40
0.001
  1
PURIST
  3

  2
TRADENAME
 70
     8
  0
ATTDEF
  5
B0C8D
  8
0
 10
0.0
 20
-0.0033333333333333
 30
0.0
 40
0.001
  1
FAUCETS
  3

  2
PRODUCT
 70
     8
  0
ATTDEF
  5
B0C8E
  8
0
 10
0.0
 20
-0.005
 30
0.0
 40
0.001
  1
BRASS
  3

  2
MATERIAL
 70
     8
  0
POLYLINE
  5
B1DEE
  8
ASHADE
 66
     1
 10
0.0
 20
0.0
 30
0.00108947
  0
VERTEX
  5
B2EB1
  8
ASHADE
 10
-0.308235
 20
2.5030999999999981
 30
0.00108947
  0
VERTEX
  5
B2EB2
  8
ASHADE
 10
-0.320147
 20
2.4952700000000001
 30
0.00108947
  0
VERTEX
  5
B2EB3
  8
ASHADE
 10
-0.331615
 20
2.4871400000000001
 30
0.00108947
  0
VERTEX
  5
B2EB4
  8
ASHADE
 10
-0.342622
 20
2.4787400000000002
 30
0.00108947
  0
VERTEX
  5
B2EB5
  8
ASHADE
 10
-0.353153
 20
2.470059999999997
 30
0.00108947
  0
VERTEX
  5
B2EB6
  8
ASHADE
 10
-0.363195
 20
2.461129999999998
 30
0.00108947
  0
VERTEX
  5
B2EB7
  8
ASHADE
 10
-0.372732
 20
2.451959999999997
 30
0.00108947
  0
VERTEX
  5
B2EB8
  8
ASHADE
 10
-0.381752
 20
2.4425500000000002
 30
0.00108947
  0
VERTEX
  5
B2EB9
  8
ASHADE
 10
-0.390242
 20
2.432929999999998
 30
0.00108947
  0
VERTEX
  5
B2EBA
  8
ASHADE
 10
-0.39819
 20
2.423099999999998
 30
0.00108947
  0
VERTEX
  5
B2EBB
  8
ASHADE
 10
-0.405586
 20
2.413079999999999
 30
0.00108947
  0
VERTEX
  5
B2EBC
  8
ASHADE
 10
-0.412419
 20
2.4028800000000001
 30
0.00108947
  0
VERTEX
  5
B2EBD
  8
ASHADE
 10
-0.4186790000000002
 20
2.3925200000000002
 30
0.00108947
  0
VERTEX
  5
B2EBE
  8
ASHADE
 10
-0.4243590000000001
 20
2.3820099999999971
 30
0.00108947
  0
VERTEX
  5
B2EBF
  8
ASHADE
 10
-0.429449
 20
2.3713700000000002
 30
0.00108947
  0
VERTEX
  5
B2EC0
  8
ASHADE
 10
-0.4339430000000001
 20
2.360599999999998
 30
0.00108947
  0
VERTEX
  5
B2EC1
  8
ASHADE
 10
-0.4378350000000001
 20
2.3497400000000002
 30
0.00108947
  0
VERTEX
  5
B2EC2
  8
ASHADE
 10
-0.441119
 20
2.3387799999999981
 30
0.00108947
  0
VERTEX
  5
B2EC3
  8
ASHADE
 10
-0.443791
 20
2.3277499999999991
 30
0.00108947
  0
VERTEX
  5
B2EC4
  8
ASHADE
 10
-0.4458470000000001
 20
2.3166599999999971
 30
0.00108947
  0
VERTEX
  5
B2EC5
  8
ASHADE
 10
-0.447284
 20
2.30552
 30
0.00108947
  0
VERTEX
  5
B2EC6
  8
ASHADE
 10
-0.4481
 20
2.2943599999999971
 30
0.00108947
  0
VERTEX
  5
B2EC7
  8
ASHADE
 10
-0.448295
 20
2.2831799999999971
 30
0.00108947
  0
VERTEX
  5
B2EC8
  8
ASHADE
 10
-0.4478670000000001
 20
2.2720099999999981
 30
0.00108947
  0
VERTEX
  5
B2EC9
  8
ASHADE
 10
-0.4468170000000001
 20
2.2608599999999992
 30
0.00108947
  0
VERTEX
  5
B2ECA
  8
ASHADE
 10
-0.445148
 20
2.2497400000000001
 30
0.00108947
  0
VERTEX
  5
B2ECB
  8
ASHADE
 10
-0.4428600000000002
 20
2.238669999999999
 30
0.00108947
  0
VERTEX
  5
B2ECC
  8
ASHADE
 10
-0.4399580000000002
 20
2.2276599999999971
 30
0.00108947
  0
VERTEX
  5
B2ECD
  8
ASHADE
 10
-0.436445
 20
2.2167400000000002
 30
0.00108947
  0
VERTEX
  5
B2ECE
  8
ASHADE
 10
-0.4323260000000002
 20
2.205909999999998
 30
0.00108947
  0
VERTEX
  5
B2ECF
  8
ASHADE
 10
-0.4276080000000002
 20
2.1951900000000002
 30
0.00108947
  0
VERTEX
  5
B2ED0
  8
ASHADE
 10
-0.422295
 20
2.18459
 30
0.00108947
  0
VERTEX
  5
B2ED1
  8
ASHADE
 10
-0.416397
 20
2.174129999999999
 30
0.00108947
  0
VERTEX
  5
B2ED2
  8
ASHADE
 10
-0.409921
 20
2.163829999999999
 30
0.00108947
  0
VERTEX
  5
B2ED3
  8
ASHADE
 10
-0.402875
 20
2.1537000000000002
 30
0.00108947
  0
VERTEX
  5
B2ED4
  8
ASHADE
 10
-0.395271
 20
2.143749999999998
 30
0.00108947
  0
VERTEX
  5
B2ED5
  8
ASHADE
 10
-0.387118
 20
2.133999999999999
 30
0.00108947
  0
VERTEX
  5
B2ED6
  8
ASHADE
 10
-0.378427
 20
2.1244499999999991
 30
0.00108947
  0
VERTEX
  5
B2ED7
  8
ASHADE
 10
-0.369212
 20
2.1151299999999971
 30
0.00108947
  0
VERTEX
  5
B2ED8
  8
ASHADE
 10
-0.359484
 20
2.1060500000000002
 30
0.00108947
  0
VERTEX
  5
B2ED9
  8
ASHADE
 10
-0.3492570000000001
 20
2.09721
 30
0.00108947
  0
VERTEX
  5
B2EDA
  8
ASHADE
 10
-0.338545
 20
2.0886399999999981
 30
0.00108947
  0
VERTEX
  5
B2EDB
  8
ASHADE
 10
-0.327363
 20
2.0803400000000001
 30
0.00108947
  0
VERTEX
  5
B2EDC
  8
ASHADE
 10
-0.315727
 20
2.0723199999999991
 30
0.00108947
  0
VERTEX
  5
B2EDD
  8
ASHADE
 10
-0.303653
 20
2.0645999999999991
 30
0.00108947
  0
VERTEX
  5
B2EDE
  8
ASHADE
 10
-0.291157
 20
2.057179999999998
 30
0.00108947
  0
VERTEX
  5
B2EDF
  8
ASHADE
 10
-0.278257
 20
2.050079999999999
 30
0.00108947
  0
VERTEX
  5
B2EE0
  8
ASHADE
 10
-0.264971
 20
2.0433099999999991
 30
0.00108947
  0
VERTEX
  5
B2EE1
  8
ASHADE
 10
-0.251317
 20
2.0368699999999991
 30
0.00108947
  0
VERTEX
  5
B2EE2
  8
ASHADE
 10
-0.237314
 20
2.03078
 30
0.00108947
  0
VERTEX
  5
B2EE3
  8
ASHADE
 10
-0.222982
 20
2.0250400000000002
 30
0.00108947
  0
VERTEX
  5
B2EE4
  8
ASHADE
 10
-0.20834
 20
2.0196700000000001
 30
0.00108947
  0
VERTEX
  5
B2EE5
  8
ASHADE
 10
-0.19341
 20
2.014659999999997
 30
0.00108947
  0
VERTEX
  5
B2EE6
  8
ASHADE
 10
-0.17821
 20
2.0100299999999991
 30
0.00108947
  0
VERTEX
  5
B2EE7
  8
ASHADE
 10
-0.162764
 20
2.0057800000000001
 30
0.00108947
  0
VERTEX
  5
B2EE8
  8
ASHADE
 10
-0.147091
 20
2.0019099999999992
 30
0.00108947
  0
VERTEX
  5
B2EE9
  8
ASHADE
 10
-0.131215
 20
1.99844
 30
0.00108947
  0
VERTEX
  5
B2EEA
  8
ASHADE
 10
-0.115156
 20
1.9953700000000001
 30
0.00108947
  0
VERTEX
  5
B2EEB
  8
ASHADE
 10
-0.0989373
 20
1.992699999999999
 30
0.00108947
  0
VERTEX
  5
B2EEC
  8
ASHADE
 10
-0.0825813
 20
1.99044
 30
0.00108947
  0
VERTEX
  5
B2EED
  8
ASHADE
 10
-0.0661108
 20
1.9885900000000001
 30
0.00108947
  0
VERTEX
  5
B2EEE
  8
ASHADE
 10
-0.0495485
 20
1.987139999999999
 30
0.00108947
  0
VERTEX
  5
B2EEF
  8
ASHADE
 10
-0.0329174
 20
1.9861200000000001
 30
0.00108947
  0
VERTEX
  5
B2EF0
  8
ASHADE
 10
-0.0162406
 20
1.9855
 30
0.00108947
  0
VERTEX
  5
B2EF1
  8
ASHADE
 10
0.000458734
 20
1.985309999999999
 30
0.00108947
  0
VERTEX
  5
B2EF2
  8
ASHADE
 10
0.0171574
 20
1.985529999999998
 30
0.00108947
  0
VERTEX
  5
B2EF3
  8
ASHADE
 10
0.0338323
 20
1.986159999999999
 30
0.00108947
  0
VERTEX
  5
B2EF4
  8
ASHADE
 10
0.0504602
 20
1.987209999999999
 30
0.00108947
  0
VERTEX
  5
B2EF5
  8
ASHADE
 10
0.0670181
 20
1.98868
 30
0.00108947
  0
VERTEX
  5
B2EF6
  8
ASHADE
 10
0.0834829
 20
1.9905499999999969
 30
0.00108947
  0
VERTEX
  5
B2EF7
  8
ASHADE
 10
0.0998319
 20
1.9928399999999991
 30
0.00108947
  0
VERTEX
  5
B2EF8
  8
ASHADE
 10
0.116042
 20
1.99553
 30
0.00108947
  0
VERTEX
  5
B2EF9
  8
ASHADE
 10
0.132092
 20
1.9986200000000001
 30
0.00108947
  0
VERTEX
  5
B2EFA
  8
ASHADE
 10
0.147958
 20
2.0021100000000001
 30
0.00108947
  0
VERTEX
  5
B2EFB
  8
ASHADE
 10
0.163618
 20
2.005999999999998
 30
0.00108947
  0
VERTEX
  5
B2EFC
  8
ASHADE
 10
0.179052
 20
2.010269999999998
 30
0.00108947
  0
VERTEX
  5
B2EFD
  8
ASHADE
 10
0.194237
 20
2.01492
 30
0.00108947
  0
VERTEX
  5
B2EFE
  8
ASHADE
 10
0.209152
 20
2.0199500000000001
 30
0.00108947
  0
VERTEX
  5
B2EFF
  8
ASHADE
 10
0.223777
 20
2.0253499999999991
 30
0.00108947
  0
VERTEX
  5
B2F00
  8
ASHADE
 10
0.238092
 20
2.0311099999999991
 30
0.00108947
  0
VERTEX
  5
B2F01
  8
ASHADE
 10
0.252076
 20
2.03722
 30
0.00108947
  0
VERTEX
  5
B2F02
  8
ASHADE
 10
0.26571
 20
2.0436700000000001
 30
0.00108947
  0
VERTEX
  5
B2F03
  8
ASHADE
 10
0.278976
 20
2.0504599999999971
 30
0.00108947
  0
VERTEX
  5
B2F04
  8
ASHADE
 10
0.291854
 20
2.0575799999999971
 30
0.00108947
  0
VERTEX
  5
B2F05
  8
ASHADE
 10
0.304327
 20
2.06501
 30
0.00108947
  0
VERTEX
  5
B2F06
  8
ASHADE
 10
0.316378
 20
2.0727500000000001
 30
0.00108947
  0
VERTEX
  5
B2F07
  8
ASHADE
 10
0.327989
 20
2.0807799999999981
 30
0.00108947
  0
VERTEX
  5
B2F08
  8
ASHADE
 10
0.339145
 20
2.0891000000000002
 30
0.00108947
  0
VERTEX
  5
B2F09
  8
ASHADE
 10
0.349831
 20
2.0976900000000001
 30
0.00108947
  0
VERTEX
  5
B2F0A
  8
ASHADE
 10
0.360031
 20
2.1065399999999981
 30
0.00108947
  0
VERTEX
  5
B2F0B
  8
ASHADE
 10
0.369731
 20
2.1156399999999991
 30
0.00108947
  0
VERTEX
  5
B2F0C
  8
ASHADE
 10
0.378919
 20
2.124969999999998
 30
0.00108947
  0
VERTEX
  5
B2F0D
  8
ASHADE
 10
0.38758
 20
2.134529999999998
 30
0.00108947
  0
VERTEX
  5
B2F0E
  8
ASHADE
 10
0.3957030000000001
 20
2.144289999999998
 30
0.00108947
  0
VERTEX
  5
B2F0F
  8
ASHADE
 10
0.4032770000000001
 20
2.1542500000000002
 30
0.00108947
  0
VERTEX
  5
B2F10
  8
ASHADE
 10
0.410291
 20
2.16439
 30
0.00108947
  0
VERTEX
  5
B2F11
  8
ASHADE
 10
0.416736
 20
2.1747000000000001
 30
0.00108947
  0
VERTEX
  5
B2F12
  8
ASHADE
 10
0.422602
 20
2.1851699999999981
 30
0.00108947
  0
VERTEX
  5
B2F13
  8
ASHADE
 10
0.427882
 20
2.1957699999999991
 30
0.00108947
  0
VERTEX
  5
B2F14
  8
ASHADE
 10
0.4325680000000001
 20
2.2065000000000001
 30
0.00108947
  0
VERTEX
  5
B2F15
  8
ASHADE
 10
0.436654
 20
2.21733
 30
0.00108947
  0
VERTEX
  5
B2F16
  8
ASHADE
 10
0.440133
 20
2.228259999999997
 30
0.00108947
  0
VERTEX
  5
B2F17
  8
ASHADE
 10
0.4430020000000001
 20
2.2392699999999981
 30
0.00108947
  0
VERTEX
  5
B2F18
  8
ASHADE
 10
0.4452550000000003
 20
2.2503500000000001
 30
0.00108947
  0
VERTEX
  5
B2F19
  8
ASHADE
 10
0.4468910000000001
 20
2.2614700000000001
 30
0.00108947
  0
VERTEX
  5
B2F1A
  8
ASHADE
 10
0.447907
 20
2.2726199999999981
 30
0.00108947
  0
VERTEX
  5
B2F1B
  8
ASHADE
 10
0.4483
 20
2.2837999999999981
 30
0.00108947
  0
VERTEX
  5
B2F1C
  8
ASHADE
 10
0.448072
 20
2.2949700000000002
 30
0.00108947
  0
VERTEX
  5
B2F1D
  8
ASHADE
 10
0.447221
 20
2.30613
 30
0.00108947
  0
VERTEX
  5
B2F1E
  8
ASHADE
 10
0.44575
 20
2.3172700000000002
 30
0.00108947
  0
VERTEX
  5
B2F1F
  8
ASHADE
 10
0.4436600000000002
 20
2.328349999999999
 30
0.00108947
  0
VERTEX
  5
B2F20
  8
ASHADE
 10
0.4409550000000002
 20
2.339379999999998
 30
0.00108947
  0
VERTEX
  5
B2F21
  8
ASHADE
 10
0.437637
 20
2.35033
 30
0.00108947
  0
VERTEX
  5
B2F22
  8
ASHADE
 10
0.433712
 20
2.3612000000000002
 30
0.00108947
  0
VERTEX
  5
B2F23
  8
ASHADE
 10
0.4291850000000001
 20
2.3719600000000001
 30
0.00108947
  0
VERTEX
  5
B2F24
  8
ASHADE
 10
0.424062
 20
2.3825899999999991
 30
0.00108947
  0
VERTEX
  5
B2F25
  8
ASHADE
 10
0.418351
 20
2.3930899999999991
 30
0.00108947
  0
VERTEX
  5
B2F26
  8
ASHADE
 10
0.412058
 20
2.4034499999999981
 30
0.00108947
  0
VERTEX
  5
B2F27
  8
ASHADE
 10
0.405194
 20
2.4136299999999991
 30
0.00108947
  0
VERTEX
  5
B2F28
  8
ASHADE
 10
0.397768
 20
2.4236499999999981
 30
0.00108947
  0
VERTEX
  5
B2F29
  8
ASHADE
 10
0.38979
 20
2.4334599999999971
 30
0.00108947
  0
VERTEX
  5
B2F2A
  8
ASHADE
 10
0.38127
 20
2.4430800000000001
 30
0.00108947
  0
VERTEX
  5
B2F2B
  8
ASHADE
 10
0.372221
 20
2.452469999999999
 30
0.00108947
  0
VERTEX
  5
B2F2C
  8
ASHADE
 10
0.362656
 20
2.4616299999999991
 30
0.00108947
  0
VERTEX
  5
B2F2D
  8
ASHADE
 10
0.352587
 20
2.470549999999998
 30
0.00108947
  0
VERTEX
  5
B2F2E
  8
ASHADE
 10
0.342029
 20
2.479209999999997
 30
0.00108947
  0
VERTEX
  5
B2F2F
  8
ASHADE
 10
0.330996
 20
2.4876
 30
0.00108947
  0
VERTEX
  5
B2F30
  8
ASHADE
 10
0.319504
 20
2.4957099999999981
 30
0.00108947
  0
VERTEX
  5
B2F31
  8
ASHADE
 10
0.307569
 20
2.5035199999999991
 30
0.00108947
  0
SEQEND
  5
B2F32
  8
ASHADE
  0
POLYLINE
  5
B1E6E
  8
ASHADE
 66
     1
 10
0.0
 20
0.0
 30
0.000630511
  0
VERTEX
  5
B2F33
  8
ASHADE
 10
-0.376449
 20
2.1223900000000002
 30
0.000630511
  0
VERTEX
  5
B2F34
  8
ASHADE
 10
-0.384324
 20
2.11355
 30
0.000630511
  0
VERTEX
  5
B2F35
  8
ASHADE
 10
-0.391769
 20
2.1045400000000001
 30
0.000630511
  0
VERTEX
  5
B2F36
  8
ASHADE
 10
-0.398774
 20
2.095359999999999
 30
0.000630511
  0
VERTEX
  5
B2F37
  8
ASHADE
 10
-0.4053340000000001
 20
2.0860300000000001
 30
0.000630511
  0
VERTEX
  5
B2F38
  8
ASHADE
 10
-0.4114390000000001
 20
2.0765500000000001
 30
0.000630511
  0
VERTEX
  5
B2F39
  8
ASHADE
 10
-0.417084
 20
2.066929999999997
 30
0.000630511
  0
VERTEX
  5
B2F3A
  8
ASHADE
 10
-0.422262
 20
2.057179999999998
 30
0.000630511
  0
VERTEX
  5
B2F3B
  8
ASHADE
 10
-0.4269680000000001
 20
2.04732
 30
0.000630511
  0
VERTEX
  5
B2F3C
  8
ASHADE
 10
-0.431195
 20
2.0373600000000001
 30
0.000630511
  0
VERTEX
  5
B2F3D
  8
ASHADE
 10
-0.4349390000000001
 20
2.0272999999999981
 30
0.000630511
  0
VERTEX
  5
B2F3E
  8
ASHADE
 10
-0.438197
 20
2.0171600000000001
 30
0.000630511
  0
VERTEX
  5
B2F3F
  8
ASHADE
 10
-0.4409640000000001
 20
2.0069599999999981
 30
0.000630511
  0
VERTEX
  5
B2F40
  8
ASHADE
 10
-0.443237
 20
1.9966900000000001
 30
0.000630511
  0
VERTEX
  5
B2F41
  8
ASHADE
 10
-0.4450140000000001
 20
1.98638
 30
0.000630511
  0
VERTEX
  5
B2F42
  8
ASHADE
 10
-0.446293
 20
1.9760299999999991
 30
0.000630511
  0
VERTEX
  5
B2F43
  8
ASHADE
 10
-0.447072
 20
1.9656599999999991
 30
0.000630511
  0
VERTEX
  5
B2F44
  8
ASHADE
 10
-0.447351
 20
1.9552700000000001
 30
0.000630511
  0
VERTEX
  5
B2F45
  8
ASHADE
 10
-0.447129
 20
1.94489
 30
0.000630511
  0
VERTEX
  5
B2F46
  8
ASHADE
 10
-0.446406
 20
1.9345099999999991
 30
0.000630511
  0
VERTEX
  5
B2F47
  8
ASHADE
 10
-0.4451840000000001
 20
1.924159999999999
 30
0.000630511
  0
VERTEX
  5
B2F48
  8
ASHADE
 10
-0.4434630000000002
 20
1.91384
 30
0.000630511
  0
VERTEX
  5
B2F49
  8
ASHADE
 10
-0.441245
 20
1.90357
 30
0.000630511
  0
VERTEX
  5
B2F4A
  8
ASHADE
 10
-0.4385340000000002
 20
1.893359999999999
 30
0.000630511
  0
VERTEX
  5
B2F4B
  8
ASHADE
 10
-0.4353310000000001
 20
1.8832099999999981
 30
0.000630511
  0
VERTEX
  5
B2F4C
  8
ASHADE
 10
-0.431642
 20
1.8731500000000001
 30
0.000630511
  0
VERTEX
  5
B2F4D
  8
ASHADE
 10
-0.427469
 20
1.86317
 30
0.000630511
  0
VERTEX
  5
B2F4E
  8
ASHADE
 10
-0.4228170000000003
 20
1.8532999999999991
 30
0.000630511
  0
VERTEX
  5
B2F4F
  8
ASHADE
 10
-0.417692
 20
1.84354
 30
0.000630511
  0
VERTEX
  5
B2F50
  8
ASHADE
 10
-0.412099
 20
1.833909999999999
 30
0.000630511
  0
VERTEX
  5
B2F51
  8
ASHADE
 10
-0.406046
 20
1.824409999999999
 30
0.000630511
  0
VERTEX
  5
B2F52
  8
ASHADE
 10
-0.399537
 20
1.815059999999999
 30
0.000630511
  0
VERTEX
  5
B2F53
  8
ASHADE
 10
-0.392581
 20
1.805859999999998
 30
0.000630511
  0
VERTEX
  5
B2F54
  8
ASHADE
 10
-0.385186
 20
1.796829999999999
 30
0.000630511
  0
VERTEX
  5
B2F55
  8
ASHADE
 10
-0.377359
 20
1.787979999999999
 30
0.000630511
  0
VERTEX
  5
B2F56
  8
ASHADE
 10
-0.36911
 20
1.7793099999999991
 30
0.000630511
  0
VERTEX
  5
B2F57
  8
ASHADE
 10
-0.360448
 20
1.77084
 30
0.000630511
  0
VERTEX
  5
B2F58
  8
ASHADE
 10
-0.351382
 20
1.76257
 30
0.000630511
  0
VERTEX
  5
B2F59
  8
ASHADE
 10
-0.341923
 20
1.7545200000000001
 30
0.000630511
  0
VERTEX
  5
B2F5A
  8
ASHADE
 10
-0.332081
 20
1.746699999999997
 30
0.000630511
  0
VERTEX
  5
B2F5B
  8
ASHADE
 10
-0.321867
 20
1.739109999999999
 30
0.000630511
  0
VERTEX
  5
B2F5C
  8
ASHADE
 10
-0.311292
 20
1.731749999999999
 30
0.000630511
  0
VERTEX
  5
B2F5D
  8
ASHADE
 10
-0.30037
 20
1.72465
 30
0.000630511
  0
VERTEX
  5
B2F5E
  8
ASHADE
 10
-0.289111
 20
1.7178099999999981
 30
0.000630511
  0
VERTEX
  5
B2F5F
  8
ASHADE
 10
-0.277528
 20
1.71123
 30
0.000630511
  0
VERTEX
  5
B2F60
  8
ASHADE
 10
-0.265635
 20
1.7049199999999991
 30
0.000630511
  0
VERTEX
  5
B2F61
  8
ASHADE
 10
-0.253444
 20
1.6989000000000001
 30
0.000630511
  0
VERTEX
  5
B2F62
  8
ASHADE
 10
-0.240969
 20
1.6931599999999991
 30
0.000630511
  0
VERTEX
  5
B2F63
  8
ASHADE
 10
-0.228225
 20
1.6877099999999969
 30
0.000630511
  0
VERTEX
  5
B2F64
  8
ASHADE
 10
-0.215225
 20
1.6825599999999981
 30
0.000630511
  0
VERTEX
  5
B2F65
  8
ASHADE
 10
-0.201985
 20
1.6777200000000001
 30
0.000630511
  0
VERTEX
  5
B2F66
  8
ASHADE
 10
-0.188518
 20
1.673179999999999
 30
0.000630511
  0
VERTEX
  5
B2F67
  8
ASHADE
 10
-0.17484
 20
1.6689599999999991
 30
0.000630511
  0
VERTEX
  5
B2F68
  8
ASHADE
 10
-0.160966
 20
1.6650700000000001
 30
0.000630511
  0
VERTEX
  5
B2F69
  8
ASHADE
 10
-0.146912
 20
1.6614899999999979
 30
0.000630511
  0
VERTEX
  5
B2F6A
  8
ASHADE
 10
-0.132694
 20
1.658239999999999
 30
0.000630511
  0
VERTEX
  5
B2F6B
  8
ASHADE
 10
-0.118327
 20
1.65533
 30
0.000630511
  0
VERTEX
  5
B2F6C
  8
ASHADE
 10
-0.103827
 20
1.6527499999999991
 30
0.000630511
  0
VERTEX
  5
B2F6D
  8
ASHADE
 10
-0.0892118
 20
1.650509999999997
 30
0.000630511
  0
VERTEX
  5
B2F6E
  8
ASHADE
 10
-0.0744963
 20
1.648609999999997
 30
0.000630511
  0
VERTEX
  5
B2F6F
  8
ASHADE
 10
-0.0596974
 20
1.647049999999999
 30
0.000630511
  0
VERTEX
  5
B2F70
  8
ASHADE
 10
-0.0448316
 20
1.64584
 30
0.000630511
  0
VERTEX
  5
B2F71
  8
ASHADE
 10
-0.0299157
 20
1.6449699999999969
 30
0.000630511
  0
VERTEX
  5
B2F72
  8
ASHADE
 10
-0.0149662
 20
1.6444499999999991
 30
0.000630511
  0
VERTEX
  5
B2F73
  8
ASHADE
 10
0.00000000236781
 20
1.6442699999999979
 30
0.000630511
  0
VERTEX
  5
B2F74
  8
ASHADE
 10
0.0149662
 20
1.6444499999999991
 30
0.000630511
  0
VERTEX
  5
B2F75
  8
ASHADE
 10
0.0299157
 20
1.6449699999999969
 30
0.000630511
  0
VERTEX
  5
B2F76
  8
ASHADE
 10
0.0448316
 20
1.64584
 30
0.000630511
  0
VERTEX
  5
B2F77
  8
ASHADE
 10
0.0596974
 20
1.647049999999999
 30
0.000630511
  0
VERTEX
  5
B2F78
  8
ASHADE
 10
0.0744963
 20
1.648609999999997
 30
0.000630511
  0
VERTEX
  5
B2F79
  8
ASHADE
 10
0.0892118
 20
1.650509999999997
 30
0.000630511
  0
VERTEX
  5
B2F7A
  8
ASHADE
 10
0.103828
 20
1.6527499999999991
 30
0.000630511
  0
VERTEX
  5
B2F7B
  8
ASHADE
 10
0.118327
 20
1.65533
 30
0.000630511
  0
VERTEX
  5
B2F7C
  8
ASHADE
 10
0.132694
 20
1.658239999999999
 30
0.000630511
  0
VERTEX
  5
B2F7D
  8
ASHADE
 10
0.146912
 20
1.6614899999999979
 30
0.000630511
  0
VERTEX
  5
B2F7E
  8
ASHADE
 10
0.160966
 20
1.6650700000000001
 30
0.000630511
  0
VERTEX
  5
B2F7F
  8
ASHADE
 10
0.17484
 20
1.6689599999999991
 30
0.000630511
  0
VERTEX
  5
B2F80
  8
ASHADE
 10
0.188518
 20
1.673179999999999
 30
0.000630511
  0
VERTEX
  5
B2F81
  8
ASHADE
 10
0.201985
 20
1.6777200000000001
 30
0.000630511
  0
VERTEX
  5
B2F82
  8
ASHADE
 10
0.215225
 20
1.6825599999999981
 30
0.000630511
  0
VERTEX
  5
B2F83
  8
ASHADE
 10
0.228225
 20
1.6877099999999969
 30
0.000630511
  0
VERTEX
  5
B2F84
  8
ASHADE
 10
0.24097
 20
1.6931599999999991
 30
0.000630511
  0
VERTEX
  5
B2F85
  8
ASHADE
 10
0.253444
 20
1.6989000000000001
 30
0.000630511
  0
VERTEX
  5
B2F86
  8
ASHADE
 10
0.265635
 20
1.7049199999999991
 30
0.000630511
  0
VERTEX
  5
B2F87
  8
ASHADE
 10
0.277528
 20
1.71123
 30
0.000630511
  0
VERTEX
  5
B2F88
  8
ASHADE
 10
0.289111
 20
1.7178099999999981
 30
0.000630511
  0
VERTEX
  5
B2F89
  8
ASHADE
 10
0.30037
 20
1.72465
 30
0.000630511
  0
VERTEX
  5
B2F8A
  8
ASHADE
 10
0.311292
 20
1.731749999999999
 30
0.000630511
  0
VERTEX
  5
B2F8B
  8
ASHADE
 10
0.321867
 20
1.739109999999999
 30
0.000630511
  0
VERTEX
  5
B2F8C
  8
ASHADE
 10
0.332081
 20
1.746699999999997
 30
0.000630511
  0
VERTEX
  5
B2F8D
  8
ASHADE
 10
0.341923
 20
1.7545200000000001
 30
0.000630511
  0
VERTEX
  5
B2F8E
  8
ASHADE
 10
0.351382
 20
1.76257
 30
0.000630511
  0
VERTEX
  5
B2F8F
  8
ASHADE
 10
0.360448
 20
1.77084
 30
0.000630511
  0
VERTEX
  5
B2F90
  8
ASHADE
 10
0.36911
 20
1.7793099999999991
 30
0.000630511
  0
VERTEX
  5
B2F91
  8
ASHADE
 10
0.377359
 20
1.787979999999999
 30
0.000630511
  0
VERTEX
  5
B2F92
  8
ASHADE
 10
0.385186
 20
1.796829999999999
 30
0.000630511
  0
VERTEX
  5
B2F93
  8
ASHADE
 10
0.392581
 20
1.805859999999998
 30
0.000630511
  0
VERTEX
  5
B2F94
  8
ASHADE
 10
0.399537
 20
1.815059999999999
 30
0.000630511
  0
VERTEX
  5
B2F95
  8
ASHADE
 10
0.406046
 20
1.824409999999999
 30
0.000630511
  0
VERTEX
  5
B2F96
  8
ASHADE
 10
0.412099
 20
1.833909999999999
 30
0.000630511
  0
VERTEX
  5
B2F97
  8
ASHADE
 10
0.417692
 20
1.84354
 30
0.000630511
  0
VERTEX
  5
B2F98
  8
ASHADE
 10
0.4228170000000003
 20
1.8532999999999991
 30
0.000630511
  0
VERTEX
  5
B2F99
  8
ASHADE
 10
0.427469
 20
1.86317
 30
0.000630511
  0
VERTEX
  5
B2F9A
  8
ASHADE
 10
0.431642
 20
1.8731500000000001
 30
0.000630511
  0
VERTEX
  5
B2F9B
  8
ASHADE
 10
0.4353310000000001
 20
1.8832099999999981
 30
0.000630511
  0
VERTEX
  5
B2F9C
  8
ASHADE
 10
0.4385340000000002
 20
1.893359999999999
 30
0.000630511
  0
VERTEX
  5
B2F9D
  8
ASHADE
 10
0.441245
 20
1.90357
 30
0.000630511
  0
VERTEX
  5
B2F9E
  8
ASHADE
 10
0.4434630000000002
 20
1.91384
 30
0.000630511
  0
VERTEX
  5
B2F9F
  8
ASHADE
 10
0.4451840000000001
 20
1.924159999999999
 30
0.000630511
  0
VERTEX
  5
B2FA0
  8
ASHADE
 10
0.446406
 20
1.9345099999999991
 30
0.000630511
  0
VERTEX
  5
B2FA1
  8
ASHADE
 10
0.447129
 20
1.94489
 30
0.000630511
  0
VERTEX
  5
B2FA2
  8
ASHADE
 10
0.447351
 20
1.9552700000000001
 30
0.000630511
  0
VERTEX
  5
B2FA3
  8
ASHADE
 10
0.447072
 20
1.9656599999999991
 30
0.000630511
  0
VERTEX
  5
B2FA4
  8
ASHADE
 10
0.446293
 20
1.9760299999999991
 30
0.000630511
  0
VERTEX
  5
B2FA5
  8
ASHADE
 10
0.4450140000000001
 20
1.98638
 30
0.000630511
  0
VERTEX
  5
B2FA6
  8
ASHADE
 10
0.443237
 20
1.9966900000000001
 30
0.000630511
  0
VERTEX
  5
B2FA7
  8
ASHADE
 10
0.4409640000000001
 20
2.0069599999999981
 30
0.000630511
  0
VERTEX
  5
B2FA8
  8
ASHADE
 10
0.438197
 20
2.0171600000000001
 30
0.000630511
  0
VERTEX
  5
B2FA9
  8
ASHADE
 10
0.4349390000000001
 20
2.0272999999999981
 30
0.000630511
  0
VERTEX
  5
B2FAA
  8
ASHADE
 10
0.431195
 20
2.0373600000000001
 30
0.000630511
  0
VERTEX
  5
B2FAB
  8
ASHADE
 10
0.4269680000000001
 20
2.04732
 30
0.000630511
  0
VERTEX
  5
B2FAC
  8
ASHADE
 10
0.422262
 20
2.057179999999998
 30
0.000630511
  0
VERTEX
  5
B2FAD
  8
ASHADE
 10
0.417084
 20
2.066929999999997
 30
0.000630511
  0
VERTEX
  5
B2FAE
  8
ASHADE
 10
0.4114390000000001
 20
2.0765500000000001
 30
0.000630511
  0
VERTEX
  5
B2FAF
  8
ASHADE
 10
0.4053340000000001
 20
2.0860300000000001
 30
0.000630511
  0
VERTEX
  5
B2FB0
  8
ASHADE
 10
0.398774
 20
2.095359999999999
 30
0.000630511
  0
VERTEX
  5
B2FB1
  8
ASHADE
 10
0.391769
 20
2.1045400000000001
 30
0.000630511
  0
VERTEX
  5
B2FB2
  8
ASHADE
 10
0.384324
 20
2.11355
 30
0.000630511
  0
VERTEX
  5
B2FB3
  8
ASHADE
 10
0.376449
 20
2.1223900000000002
 30
0.000630511
  0
SEQEND
  5
B2FB4
  8
ASHADE
  0
POLYLINE
  5
B1EEE
  8
ASHADE
 66
     1
 10
0.0
 20
0.0
 30
0.000719589
  0
VERTEX
  5
B2FB5
  8
ASHADE
 10
-0.4473520000000001
 20
1.95469
 30
0.000719589
  0
VERTEX
  5
B2FB6
  8
ASHADE
 10
-0.4506000000000002
 20
1.9460900000000001
 30
0.000719589
  0
VERTEX
  5
B2FB7
  8
ASHADE
 10
-0.453479
 20
1.937419999999999
 30
0.000719589
  0
VERTEX
  5
B2FB8
  8
ASHADE
 10
-0.455987
 20
1.928709999999997
 30
0.000719589
  0
VERTEX
  5
B2FB9
  8
ASHADE
 10
-0.45812
 20
1.91995
 30
0.000719589
  0
VERTEX
  5
B2FBA
  8
ASHADE
 10
-0.459878
 20
1.9111599999999991
 30
0.000719589
  0
VERTEX
  5
B2FBB
  8
ASHADE
 10
-0.4612580000000003
 20
1.902329999999999
 30
0.000719589
  0
VERTEX
  5
B2FBC
  8
ASHADE
 10
-0.462261
 20
1.8934799999999981
 30
0.000719589
  0
VERTEX
  5
B2FBD
  8
ASHADE
 10
-0.4628850000000001
 20
1.8846199999999991
 30
0.000719589
  0
VERTEX
  5
B2FBE
  8
ASHADE
 10
-0.463129
 20
1.87575
 30
0.000719589
  0
VERTEX
  5
B2FBF
  8
ASHADE
 10
-0.4629930000000001
 20
1.866879999999999
 30
0.000719589
  0
VERTEX
  5
B2FC0
  8
ASHADE
 10
-0.4624780000000002
 20
1.8580099999999991
 30
0.000719589
  0
VERTEX
  5
B2FC1
  8
ASHADE
 10
-0.4615840000000003
 20
1.849159999999999
 30
0.000719589
  0
VERTEX
  5
B2FC2
  8
ASHADE
 10
-0.460311
 20
1.84032
 30
0.000719589
  0
VERTEX
  5
B2FC3
  8
ASHADE
 10
-0.4586610000000002
 20
1.83152
 30
0.000719589
  0
VERTEX
  5
B2FC4
  8
ASHADE
 10
-0.4566340000000002
 20
1.8227500000000001
 30
0.000719589
  0
VERTEX
  5
B2FC5
  8
ASHADE
 10
-0.4542340000000002
 20
1.81402
 30
0.000719589
  0
VERTEX
  5
B2FC6
  8
ASHADE
 10
-0.451461
 20
1.805349999999998
 30
0.000719589
  0
VERTEX
  5
B2FC7
  8
ASHADE
 10
-0.4483170000000002
 20
1.7967299999999991
 30
0.000719589
  0
VERTEX
  5
B2FC8
  8
ASHADE
 10
-0.444807
 20
1.78817
 30
0.000719589
  0
VERTEX
  5
B2FC9
  8
ASHADE
 10
-0.4409310000000001
 20
1.779679999999999
 30
0.000719589
  0
VERTEX
  5
B2FCA
  8
ASHADE
 10
-0.436694
 20
1.771269999999999
 30
0.000719589
  0
VERTEX
  5
B2FCB
  8
ASHADE
 10
-0.432099
 20
1.76295
 30
0.000719589
  0
VERTEX
  5
B2FCC
  8
ASHADE
 10
-0.42715
 20
1.7547200000000001
 30
0.000719589
  0
VERTEX
  5
B2FCD
  8
ASHADE
 10
-0.4218510000000001
 20
1.746579999999998
 30
0.000719589
  0
VERTEX
  5
B2FCE
  8
ASHADE
 10
-0.416205
 20
1.73855
 30
0.000719589
  0
VERTEX
  5
B2FCF
  8
ASHADE
 10
-0.410219
 20
1.73064
 30
0.000719589
  0
VERTEX
  5
B2FD0
  8
ASHADE
 10
-0.403896
 20
1.7228399999999979
 30
0.000719589
  0
VERTEX
  5
B2FD1
  8
ASHADE
 10
-0.3972419999999999
 20
1.715159999999998
 30
0.000719589
  0
VERTEX
  5
B2FD2
  8
ASHADE
 10
-0.390262
 20
1.707619999999999
 30
0.000719589
  0
VERTEX
  5
B2FD3
  8
ASHADE
 10
-0.382963
 20
1.7002099999999991
 30
0.000719589
  0
VERTEX
  5
B2FD4
  8
ASHADE
 10
-0.375349
 20
1.692939999999999
 30
0.000719589
  0
VERTEX
  5
B2FD5
  8
ASHADE
 10
-0.367428
 20
1.6858299999999991
 30
0.000719589
  0
VERTEX
  5
B2FD6
  8
ASHADE
 10
-0.359205
 20
1.6788700000000001
 30
0.000719589
  0
VERTEX
  5
B2FD7
  8
ASHADE
 10
-0.350688
 20
1.672059999999999
 30
0.000719589
  0
VERTEX
  5
B2FD8
  8
ASHADE
 10
-0.341884
 20
1.6654299999999991
 30
0.000719589
  0
VERTEX
  5
B2FD9
  8
ASHADE
 10
-0.332799
 20
1.6589599999999991
 30
0.000719589
  0
VERTEX
  5
B2FDA
  8
ASHADE
 10
-0.323441
 20
1.652679999999999
 30
0.000719589
  0
VERTEX
  5
B2FDB
  8
ASHADE
 10
-0.313818
 20
1.6465700000000001
 30
0.000719589
  0
VERTEX
  5
B2FDC
  8
ASHADE
 10
-0.303938
 20
1.6406499999999991
 30
0.000719589
  0
VERTEX
  5
B2FDD
  8
ASHADE
 10
-0.293808
 20
1.6349299999999991
 30
0.000719589
  0
VERTEX
  5
B2FDE
  8
ASHADE
 10
-0.283438
 20
1.6293999999999991
 30
0.000719589
  0
VERTEX
  5
B2FDF
  8
ASHADE
 10
-0.272835
 20
1.6240699999999979
 30
0.000719589
  0
VERTEX
  5
B2FE0
  8
ASHADE
 10
-0.262009
 20
1.61894
 30
0.000719589
  0
VERTEX
  5
B2FE1
  8
ASHADE
 10
-0.2509679999999999
 20
1.614029999999999
 30
0.000719589
  0
VERTEX
  5
B2FE2
  8
ASHADE
 10
-0.239721
 20
1.609329999999999
 30
0.000719589
  0
VERTEX
  5
B2FE3
  8
ASHADE
 10
-0.228277
 20
1.60484
 30
0.000719589
  0
VERTEX
  5
B2FE4
  8
ASHADE
 10
-0.216647
 20
1.600579999999999
 30
0.000719589
  0
VERTEX
  5
B2FE5
  8
ASHADE
 10
-0.204838
 20
1.5965400000000001
 30
0.000719589
  0
VERTEX
  5
B2FE6
  8
ASHADE
 10
-0.192862
 20
1.5927299999999991
 30
0.000719589
  0
VERTEX
  5
B2FE7
  8
ASHADE
 10
-0.180728
 20
1.5891500000000001
 30
0.000719589
  0
VERTEX
  5
B2FE8
  8
ASHADE
 10
-0.168445
 20
1.5858099999999991
 30
0.000719589
  0
VERTEX
  5
B2FE9
  8
ASHADE
 10
-0.156025
 20
1.5826999999999991
 30
0.000719589
  0
VERTEX
  5
B2FEA
  8
ASHADE
 10
-0.143476
 20
1.579829999999999
 30
0.000719589
  0
VERTEX
  5
B2FEB
  8
ASHADE
 10
-0.13081
 20
1.577199999999999
 30
0.000719589
  0
VERTEX
  5
B2FEC
  8
ASHADE
 10
-0.118037
 20
1.5748200000000001
 30
0.000719589
  0
VERTEX
  5
B2FED
  8
ASHADE
 10
-0.105166
 20
1.572679999999999
 30
0.000719589
  0
VERTEX
  5
B2FEE
  8
ASHADE
 10
-0.09221
 20
1.570789999999997
 30
0.000719589
  0
VERTEX
  5
B2FEF
  8
ASHADE
 10
-0.079178
 20
1.56915
 30
0.000719589
  0
VERTEX
  5
B2FF0
  8
ASHADE
 10
-0.0660811
 20
1.56775
 30
0.000719589
  0
VERTEX
  5
B2FF1
  8
ASHADE
 10
-0.05293
 20
1.5666100000000001
 30
0.000719589
  0
VERTEX
  5
B2FF2
  8
ASHADE
 10
-0.0397355
 20
1.565729999999999
 30
0.000719589
  0
VERTEX
  5
B2FF3
  8
ASHADE
 10
-0.0265085
 20
1.565089999999999
 30
0.000719589
  0
VERTEX
  5
B2FF4
  8
ASHADE
 10
-0.0132597
 20
1.56471
 30
0.000719589
  0
VERTEX
  5
B2FF5
  8
ASHADE
 10
-0.0000000000000005
 20
1.564579999999999
 30
0.000719589
  0
VERTEX
  5
B2FF6
  8
ASHADE
 10
0.0132597
 20
1.56471
 30
0.000719589
  0
VERTEX
  5
B2FF7
  8
ASHADE
 10
0.0265085
 20
1.565089999999999
 30
0.000719589
  0
VERTEX
  5
B2FF8
  8
ASHADE
 10
0.0397355
 20
1.565729999999999
 30
0.000719589
  0
VERTEX
  5
B2FF9
  8
ASHADE
 10
0.05293
 20
1.5666100000000001
 30
0.000719589
  0
VERTEX
  5
B2FFA
  8
ASHADE
 10
0.0660811
 20
1.56775
 30
0.000719589
  0
VERTEX
  5
B2FFB
  8
ASHADE
 10
0.079178
 20
1.56915
 30
0.000719589
  0
VERTEX
  5
B2FFC
  8
ASHADE
 10
0.09221
 20
1.570789999999997
 30
0.000719589
  0
VERTEX
  5
B2FFD
  8
ASHADE
 10
0.105166
 20
1.572679999999999
 30
0.000719589
  0
VERTEX
  5
B2FFE
  8
ASHADE
 10
0.118037
 20
1.5748200000000001
 30
0.000719589
  0
VERTEX
  5
B2FFF
  8
ASHADE
 10
0.13081
 20
1.577199999999999
 30
0.000719589
  0
VERTEX
  5
B3000
  8
ASHADE
 10
0.143476
 20
1.579829999999999
 30
0.000719589
  0
VERTEX
  5
B3001
  8
ASHADE
 10
0.156025
 20
1.5826999999999991
 30
0.000719589
  0
VERTEX
  5
B3002
  8
ASHADE
 10
0.168445
 20
1.5858099999999991
 30
0.000719589
  0
VERTEX
  5
B3003
  8
ASHADE
 10
0.180728
 20
1.5891500000000001
 30
0.000719589
  0
VERTEX
  5
B3004
  8
ASHADE
 10
0.192862
 20
1.5927299999999991
 30
0.000719589
  0
VERTEX
  5
B3005
  8
ASHADE
 10
0.204838
 20
1.5965400000000001
 30
0.000719589
  0
VERTEX
  5
B3006
  8
ASHADE
 10
0.216647
 20
1.600579999999999
 30
0.000719589
  0
VERTEX
  5
B3007
  8
ASHADE
 10
0.228277
 20
1.60484
 30
0.000719589
  0
VERTEX
  5
B3008
  8
ASHADE
 10
0.239721
 20
1.609329999999999
 30
0.000719589
  0
VERTEX
  5
B3009
  8
ASHADE
 10
0.2509679999999999
 20
1.614029999999999
 30
0.000719589
  0
VERTEX
  5
B300A
  8
ASHADE
 10
0.262009
 20
1.61894
 30
0.000719589
  0
VERTEX
  5
B300B
  8
ASHADE
 10
0.272835
 20
1.6240699999999979
 30
0.000719589
  0
VERTEX
  5
B300C
  8
ASHADE
 10
0.283438
 20
1.6293999999999991
 30
0.000719589
  0
VERTEX
  5
B300D
  8
ASHADE
 10
0.293808
 20
1.6349299999999991
 30
0.000719589
  0
VERTEX
  5
B300E
  8
ASHADE
 10
0.303938
 20
1.6406499999999991
 30
0.000719589
  0
VERTEX
  5
B300F
  8
ASHADE
 10
0.313818
 20
1.6465700000000001
 30
0.000719589
  0
VERTEX
  5
B3010
  8
ASHADE
 10
0.323441
 20
1.652679999999999
 30
0.000719589
  0
VERTEX
  5
B3011
  8
ASHADE
 10
0.332799
 20
1.6589599999999991
 30
0.000719589
  0
VERTEX
  5
B3012
  8
ASHADE
 10
0.341884
 20
1.6654299999999991
 30
0.000719589
  0
VERTEX
  5
B3013
  8
ASHADE
 10
0.350688
 20
1.672059999999999
 30
0.000719589
  0
VERTEX
  5
B3014
  8
ASHADE
 10
0.359205
 20
1.6788700000000001
 30
0.000719589
  0
VERTEX
  5
B3015
  8
ASHADE
 10
0.367428
 20
1.6858299999999991
 30
0.000719589
  0
VERTEX
  5
B3016
  8
ASHADE
 10
0.375349
 20
1.692939999999999
 30
0.000719589
  0
VERTEX
  5
B3017
  8
ASHADE
 10
0.382963
 20
1.7002099999999991
 30
0.000719589
  0
VERTEX
  5
B3018
  8
ASHADE
 10
0.390262
 20
1.707619999999999
 30
0.000719589
  0
VERTEX
  5
B3019
  8
ASHADE
 10
0.3972419999999999
 20
1.715159999999998
 30
0.000719589
  0
VERTEX
  5
B301A
  8
ASHADE
 10
0.403896
 20
1.7228399999999979
 30
0.000719589
  0
VERTEX
  5
B301B
  8
ASHADE
 10
0.410219
 20
1.73064
 30
0.000719589
  0
VERTEX
  5
B301C
  8
ASHADE
 10
0.416205
 20
1.73855
 30
0.000719589
  0
VERTEX
  5
B301D
  8
ASHADE
 10
0.4218510000000001
 20
1.746579999999998
 30
0.000719589
  0
VERTEX
  5
B301E
  8
ASHADE
 10
0.42715
 20
1.7547200000000001
 30
0.000719589
  0
VERTEX
  5
B301F
  8
ASHADE
 10
0.432099
 20
1.76295
 30
0.000719589
  0
VERTEX
  5
B3020
  8
ASHADE
 10
0.436694
 20
1.771269999999999
 30
0.000719589
  0
VERTEX
  5
B3021
  8
ASHADE
 10
0.4409310000000001
 20
1.779679999999999
 30
0.000719589
  0
VERTEX
  5
B3022
  8
ASHADE
 10
0.444807
 20
1.78817
 30
0.000719589
  0
VERTEX
  5
B3023
  8
ASHADE
 10
0.4483170000000002
 20
1.7967299999999991
 30
0.000719589
  0
VERTEX
  5
B3024
  8
ASHADE
 10
0.451461
 20
1.805349999999998
 30
0.000719589
  0
VERTEX
  5
B3025
  8
ASHADE
 10
0.4542340000000002
 20
1.81402
 30
0.000719589
  0
VERTEX
  5
B3026
  8
ASHADE
 10
0.4566340000000002
 20
1.8227500000000001
 30
0.000719589
  0
VERTEX
  5
B3027
  8
ASHADE
 10
0.4586610000000002
 20
1.83152
 30
0.000719589
  0
VERTEX
  5
B3028
  8
ASHADE
 10
0.460311
 20
1.84032
 30
0.000719589
  0
VERTEX
  5
B3029
  8
ASHADE
 10
0.4615840000000003
 20
1.849159999999999
 30
0.000719589
  0
VERTEX
  5
B302A
  8
ASHADE
 10
0.4624780000000002
 20
1.8580099999999991
 30
0.000719589
  0
VERTEX
  5
B302B
  8
ASHADE
 10
0.4629930000000001
 20
1.866879999999999
 30
0.000719589
  0
VERTEX
  5
B302C
  8
ASHADE
 10
0.463129
 20
1.87575
 30
0.000719589
  0
VERTEX
  5
B302D
  8
ASHADE
 10
0.4628850000000001
 20
1.8846199999999991
 30
0.000719589
  0
VERTEX
  5
B302E
  8
ASHADE
 10
0.462261
 20
1.8934799999999981
 30
0.000719589
  0
VERTEX
  5
B302F
  8
ASHADE
 10
0.4612580000000003
 20
1.902329999999999
 30
0.000719589
  0
VERTEX
  5
B3030
  8
ASHADE
 10
0.459878
 20
1.9111599999999991
 30
0.000719589
  0
VERTEX
  5
B3031
  8
ASHADE
 10
0.45812
 20
1.91995
 30
0.000719589
  0
VERTEX
  5
B3032
  8
ASHADE
 10
0.455987
 20
1.928709999999997
 30
0.000719589
  0
VERTEX
  5
B3033
  8
ASHADE
 10
0.453479
 20
1.937419999999999
 30
0.000719589
  0
VERTEX
  5
B3034
  8
ASHADE
 10
0.4506000000000002
 20
1.9460900000000001
 30
0.000719589
  0
VERTEX
  5
B3035
  8
ASHADE
 10
0.4473520000000001
 20
1.95469
 30
0.000719589
  0
SEQEND
  5
B3036
  8
ASHADE
  0
POLYLINE
  5
B1F6E
  8
ASHADE
 66
     1
 10
0.0
 20
0.0
 30
0.000519355
  0
VERTEX
  5
B3037
  8
ASHADE
 10
-0.390173
 20
2.1375500000000001
 30
0.000519355
  0
VERTEX
  5
B3038
  8
ASHADE
 10
-0.4198500000000001
 20
2.126339999999999
 30
0.000519355
  0
VERTEX
  5
B3039
  8
ASHADE
 10
-0.448808
 20
2.114309999999997
 30
0.000519355
  0
VERTEX
  5
B303A
  8
ASHADE
 10
-0.476998
 20
2.1014900000000001
 30
0.000519355
  0
VERTEX
  5
B303B
  8
ASHADE
 10
-0.504371
 20
2.0878999999999981
 30
0.000519355
  0
VERTEX
  5
B303C
  8
ASHADE
 10
-0.5308810000000001
 20
2.0735700000000001
 30
0.000519355
  0
VERTEX
  5
B303D
  8
ASHADE
 10
-0.556482
 20
2.0585200000000001
 30
0.000519355
  0
VERTEX
  5
B303E
  8
ASHADE
 10
-0.5811300000000002
 20
2.042759999999999
 30
0.000519355
  0
VERTEX
  5
B303F
  8
ASHADE
 10
-0.604784
 20
2.0263499999999981
 30
0.000519355
  0
VERTEX
  5
B3040
  8
ASHADE
 10
-0.6274020000000001
 20
2.00929
 30
0.000519355
  0
VERTEX
  5
B3041
  8
ASHADE
 10
-0.6489460000000002
 20
1.991609999999999
 30
0.000519355
  0
VERTEX
  5
B3042
  8
ASHADE
 10
-0.66938
 20
1.9733599999999969
 30
0.000519355
  0
VERTEX
  5
B3043
  8
ASHADE
 10
-0.6886670000000003
 20
1.954559999999999
 30
0.000519355
  0
VERTEX
  5
B3044
  8
ASHADE
 10
-0.7067760000000001
 20
1.9352400000000001
 30
0.000519355
  0
VERTEX
  5
B3045
  8
ASHADE
 10
-0.723674
 20
1.9154299999999991
 30
0.000519355
  0
VERTEX
  5
B3046
  8
ASHADE
 10
-0.7393340000000001
 20
1.895179999999999
 30
0.000519355
  0
VERTEX
  5
B3047
  8
ASHADE
 10
-0.753728
 20
1.8745000000000001
 30
0.000519355
  0
VERTEX
  5
B3048
  8
ASHADE
 10
-0.766832
 20
1.85345
 30
0.000519355
  0
VERTEX
  5
B3049
  8
ASHADE
 10
-0.778623
 20
1.8320499999999991
 30
0.000519355
  0
VERTEX
  5
B304A
  8
ASHADE
 10
-0.789082
 20
1.810349999999997
 30
0.000519355
  0
VERTEX
  5
B304B
  8
ASHADE
 10
-0.798189
 20
1.78837
 30
0.000519355
  0
VERTEX
  5
B304C
  8
ASHADE
 10
-0.80593
 20
1.7661599999999991
 30
0.000519355
  0
VERTEX
  5
B304D
  8
ASHADE
 10
-0.812292
 20
1.7437599999999991
 30
0.000519355
  0
VERTEX
  5
B304E
  8
ASHADE
 10
-0.8172629999999999
 20
1.72119
 30
0.000519355
  0
VERTEX
  5
B304F
  8
ASHADE
 10
-0.8208349999999999
 20
1.6985099999999991
 30
0.000519355
  0
VERTEX
  5
B3050
  8
ASHADE
 10
-0.8230019999999999
 20
1.6757500000000001
 30
0.000519355
  0
VERTEX
  5
B3051
  8
ASHADE
 10
-0.823759
 20
1.652949999999997
 30
0.000519355
  0
VERTEX
  5
B3052
  8
ASHADE
 10
-0.8231069999999998
 20
1.6301499999999991
 30
0.000519355
  0
VERTEX
  5
B3053
  8
ASHADE
 10
-0.8210459999999999
 20
1.607389999999999
 30
0.000519355
  0
VERTEX
  5
B3054
  8
ASHADE
 10
-0.8175789999999999
 20
1.5846999999999991
 30
0.000519355
  0
VERTEX
  5
B3055
  8
ASHADE
 10
-0.8127130000000001
 20
1.562129999999998
 30
0.000519355
  0
VERTEX
  5
B3056
  8
ASHADE
 10
-0.806455
 20
1.539709999999999
 30
0.000519355
  0
VERTEX
  5
B3057
  8
ASHADE
 10
-0.7988170000000001
 20
1.5174799999999991
 30
0.000519355
  0
VERTEX
  5
B3058
  8
ASHADE
 10
-0.7898109999999999
 20
1.49549
 30
0.000519355
  0
VERTEX
  5
B3059
  8
ASHADE
 10
-0.779454
 20
1.4737599999999991
 30
0.000519355
  0
VERTEX
  5
B305A
  8
ASHADE
 10
-0.7677619999999999
 20
1.4523399999999991
 30
0.000519355
  0
VERTEX
  5
B305B
  8
ASHADE
 10
-0.7547550000000001
 20
1.4312599999999991
 30
0.000519355
  0
VERTEX
  5
B305C
  8
ASHADE
 10
-0.740457
 20
1.41056
 30
0.000519355
  0
VERTEX
  5
B305D
  8
ASHADE
 10
-0.724891
 20
1.390269999999999
 30
0.000519355
  0
VERTEX
  5
B305E
  8
ASHADE
 10
-0.7080840000000001
 20
1.37043
 30
0.000519355
  0
VERTEX
  5
B305F
  8
ASHADE
 10
-0.690066
 20
1.3510699999999991
 30
0.000519355
  0
VERTEX
  5
B3060
  8
ASHADE
 10
-0.670865
 20
1.33223
 30
0.000519355
  0
VERTEX
  5
B3061
  8
ASHADE
 10
-0.650517
 20
1.313929999999998
 30
0.000519355
  0
VERTEX
  5
B3062
  8
ASHADE
 10
-0.629054
 20
1.296219999999999
 30
0.000519355
  0
VERTEX
  5
B3063
  8
ASHADE
 10
-0.606515
 20
1.2791099999999991
 30
0.000519355
  0
VERTEX
  5
B3064
  8
ASHADE
 10
-0.582938
 20
1.2626399999999991
 30
0.000519355
  0
VERTEX
  5
B3065
  8
ASHADE
 10
-0.5583630000000001
 20
1.2468399999999991
 30
0.000519355
  0
VERTEX
  5
B3066
  8
ASHADE
 10
-0.532832
 20
1.2317299999999991
 30
0.000519355
  0
VERTEX
  5
B3067
  8
ASHADE
 10
-0.5063880000000001
 20
1.2173399999999981
 30
0.000519355
  0
VERTEX
  5
B3068
  8
ASHADE
 10
-0.479078
 20
1.2036999999999991
 30
0.000519355
  0
VERTEX
  5
B3069
  8
ASHADE
 10
-0.450948
 20
1.1908199999999991
 30
0.000519355
  0
VERTEX
  5
B306A
  8
ASHADE
 10
-0.422046
 20
1.1787299999999981
 30
0.000519355
  0
VERTEX
  5
B306B
  8
ASHADE
 10
-0.392421
 20
1.1674599999999991
 30
0.000519355
  0
VERTEX
  5
B306C
  8
ASHADE
 10
-0.362125
 20
1.1570100000000001
 30
0.000519355
  0
VERTEX
  5
B306D
  8
ASHADE
 10
-0.331209
 20
1.14741
 30
0.000519355
  0
VERTEX
  5
B306E
  8
ASHADE
 10
-0.299725
 20
1.138679999999999
 30
0.000519355
  0
VERTEX
  5
B306F
  8
ASHADE
 10
-0.267729
 20
1.130819999999999
 30
0.000519355
  0
VERTEX
  5
B3070
  8
ASHADE
 10
-0.235274
 20
1.12385
 30
0.000519355
  0
VERTEX
  5
B3071
  8
ASHADE
 10
-0.202417
 20
1.1177900000000001
 30
0.000519355
  0
VERTEX
  5
B3072
  8
ASHADE
 10
-0.169213
 20
1.112649999999999
 30
0.000519355
  0
VERTEX
  5
B3073
  8
ASHADE
 10
-0.135719
 20
1.10843
 30
0.000519355
  0
VERTEX
  5
B3074
  8
ASHADE
 10
-0.101993
 20
1.10514
 30
0.000519355
  0
VERTEX
  5
B3075
  8
ASHADE
 10
-0.0680925
 20
1.1027799999999981
 30
0.000519355
  0
VERTEX
  5
B3076
  8
ASHADE
 10
-0.0340754
 20
1.10137
 30
0.000519355
  0
VERTEX
  5
B3077
  8
ASHADE
 10
0.000000110612
 20
1.100889999999999
 30
0.000519355
  0
VERTEX
  5
B3078
  8
ASHADE
 10
0.0340756
 20
1.10137
 30
0.000519355
  0
VERTEX
  5
B3079
  8
ASHADE
 10
0.0680927
 20
1.1027799999999981
 30
0.000519355
  0
VERTEX
  5
B307A
  8
ASHADE
 10
0.101993
 20
1.10514
 30
0.000519355
  0
VERTEX
  5
B307B
  8
ASHADE
 10
0.135719
 20
1.10843
 30
0.000519355
  0
VERTEX
  5
B307C
  8
ASHADE
 10
0.169213
 20
1.112649999999999
 30
0.000519355
  0
VERTEX
  5
B307D
  8
ASHADE
 10
0.202417
 20
1.1177900000000001
 30
0.000519355
  0
VERTEX
  5
B307E
  8
ASHADE
 10
0.235274
 20
1.12385
 30
0.000519355
  0
VERTEX
  5
B307F
  8
ASHADE
 10
0.267729
 20
1.130819999999999
 30
0.000519355
  0
VERTEX
  5
B3080
  8
ASHADE
 10
0.299725
 20
1.138679999999999
 30
0.000519355
  0
VERTEX
  5
B3081
  8
ASHADE
 10
0.331209
 20
1.14741
 30
0.000519355
  0
VERTEX
  5
B3082
  8
ASHADE
 10
0.362125
 20
1.1570100000000001
 30
0.000519355
  0
VERTEX
  5
B3083
  8
ASHADE
 10
0.392421
 20
1.1674599999999991
 30
0.000519355
  0
VERTEX
  5
B3084
  8
ASHADE
 10
0.422046
 20
1.1787299999999981
 30
0.000519355
  0
VERTEX
  5
B3085
  8
ASHADE
 10
0.450948
 20
1.1908199999999991
 30
0.000519355
  0
VERTEX
  5
B3086
  8
ASHADE
 10
0.479078
 20
1.2036999999999991
 30
0.000519355
  0
VERTEX
  5
B3087
  8
ASHADE
 10
0.506389
 20
1.2173399999999981
 30
0.000519355
  0
VERTEX
  5
B3088
  8
ASHADE
 10
0.532832
 20
1.2317299999999991
 30
0.000519355
  0
VERTEX
  5
B3089
  8
ASHADE
 10
0.5583630000000001
 20
1.2468399999999991
 30
0.000519355
  0
VERTEX
  5
B308A
  8
ASHADE
 10
0.582938
 20
1.2626399999999991
 30
0.000519355
  0
VERTEX
  5
B308B
  8
ASHADE
 10
0.6065160000000001
 20
1.2791099999999991
 30
0.000519355
  0
VERTEX
  5
B308C
  8
ASHADE
 10
0.6290550000000003
 20
1.296219999999999
 30
0.000519355
  0
VERTEX
  5
B308D
  8
ASHADE
 10
0.650517
 20
1.313929999999998
 30
0.000519355
  0
VERTEX
  5
B308E
  8
ASHADE
 10
0.670865
 20
1.33223
 30
0.000519355
  0
VERTEX
  5
B308F
  8
ASHADE
 10
0.690066
 20
1.3510699999999991
 30
0.000519355
  0
VERTEX
  5
B3090
  8
ASHADE
 10
0.7080850000000001
 20
1.37043
 30
0.000519355
  0
VERTEX
  5
B3091
  8
ASHADE
 10
0.724891
 20
1.390269999999999
 30
0.000519355
  0
VERTEX
  5
B3092
  8
ASHADE
 10
0.740457
 20
1.41056
 30
0.000519355
  0
VERTEX
  5
B3093
  8
ASHADE
 10
0.7547560000000001
 20
1.4312599999999991
 30
0.000519355
  0
VERTEX
  5
B3094
  8
ASHADE
 10
0.7677619999999999
 20
1.4523399999999991
 30
0.000519355
  0
VERTEX
  5
B3095
  8
ASHADE
 10
0.779454
 20
1.4737599999999991
 30
0.000519355
  0
VERTEX
  5
B3096
  8
ASHADE
 10
0.7898109999999999
 20
1.49549
 30
0.000519355
  0
VERTEX
  5
B3097
  8
ASHADE
 10
0.7988170000000001
 20
1.5174799999999991
 30
0.000519355
  0
VERTEX
  5
B3098
  8
ASHADE
 10
0.806455
 20
1.539709999999999
 30
0.000519355
  0
VERTEX
  5
B3099
  8
ASHADE
 10
0.8127130000000001
 20
1.562129999999998
 30
0.000519355
  0
VERTEX
  5
B309A
  8
ASHADE
 10
0.8175789999999999
 20
1.5846999999999991
 30
0.000519355
  0
VERTEX
  5
B309B
  8
ASHADE
 10
0.8210459999999999
 20
1.607389999999999
 30
0.000519355
  0
VERTEX
  5
B309C
  8
ASHADE
 10
0.8231069999999998
 20
1.6301499999999991
 30
0.000519355
  0
VERTEX
  5
B309D
  8
ASHADE
 10
0.8237600000000001
 20
1.652949999999997
 30
0.000519355
  0
VERTEX
  5
B309E
  8
ASHADE
 10
0.8230019999999999
 20
1.6757500000000001
 30
0.000519355
  0
VERTEX
  5
B309F
  8
ASHADE
 10
0.8208349999999999
 20
1.6985099999999991
 30
0.000519355
  0
VERTEX
  5
B30A0
  8
ASHADE
 10
0.8172629999999999
 20
1.72119
 30
0.000519355
  0
VERTEX
  5
B30A1
  8
ASHADE
 10
0.812292
 20
1.7437599999999991
 30
0.000519355
  0
VERTEX
  5
B30A2
  8
ASHADE
 10
0.805931
 20
1.7661599999999991
 30
0.000519355
  0
VERTEX
  5
B30A3
  8
ASHADE
 10
0.798189
 20
1.78837
 30
0.000519355
  0
VERTEX
  5
B30A4
  8
ASHADE
 10
0.789082
 20
1.810349999999997
 30
0.000519355
  0
VERTEX
  5
B30A5
  8
ASHADE
 10
0.778624
 20
1.8320499999999991
 30
0.000519355
  0
VERTEX
  5
B30A6
  8
ASHADE
 10
0.766832
 20
1.85345
 30
0.000519355
  0
VERTEX
  5
B30A7
  8
ASHADE
 10
0.753728
 20
1.8745000000000001
 30
0.000519355
  0
VERTEX
  5
B30A8
  8
ASHADE
 10
0.7393340000000001
 20
1.895179999999999
 30
0.000519355
  0
VERTEX
  5
B30A9
  8
ASHADE
 10
0.723674
 20
1.9154299999999991
 30
0.000519355
  0
VERTEX
  5
B30AA
  8
ASHADE
 10
0.7067760000000001
 20
1.9352400000000001
 30
0.000519355
  0
VERTEX
  5
B30AB
  8
ASHADE
 10
0.6886670000000003
 20
1.954559999999999
 30
0.000519355
  0
VERTEX
  5
B30AC
  8
ASHADE
 10
0.66938
 20
1.9733599999999969
 30
0.000519355
  0
VERTEX
  5
B30AD
  8
ASHADE
 10
0.6489460000000002
 20
1.991609999999999
 30
0.000519355
  0
VERTEX
  5
B30AE
  8
ASHADE
 10
0.6274020000000001
 20
2.00929
 30
0.000519355
  0
VERTEX
  5
B30AF
  8
ASHADE
 10
0.604784
 20
2.0263499999999981
 30
0.000519355
  0
VERTEX
  5
B30B0
  8
ASHADE
 10
0.5811300000000002
 20
2.042759999999999
 30
0.000519355
  0
VERTEX
  5
B30B1
  8
ASHADE
 10
0.556482
 20
2.0585200000000001
 30
0.000519355
  0
VERTEX
  5
B30B2
  8
ASHADE
 10
0.5308810000000001
 20
2.0735700000000001
 30
0.000519355
  0
VERTEX
  5
B30B3
  8
ASHADE
 10
0.504371
 20
2.0878999999999981
 30
0.000519355
  0
VERTEX
  5
B30B4
  8
ASHADE
 10
0.476998
 20
2.1014900000000001
 30
0.000519355
  0
VERTEX
  5
B30B5
  8
ASHADE
 10
0.448808
 20
2.114309999999997
 30
0.000519355
  0
VERTEX
  5
B30B6
  8
ASHADE
 10
0.4198500000000001
 20
2.126339999999999
 30
0.000519355
  0
VERTEX
  5
B30B7
  8
ASHADE
 10
0.390173
 20
2.1375500000000001
 30
0.000519355
  0
SEQEND
  5
B30B8
  8
ASHADE
  0
POLYLINE
  5
B1FEE
  8
ASHADE
 66
     1
 10
0.0
 20
0.0
 30
0.000512599
  0
VERTEX
  5
B30B9
  8
ASHADE
 10
-0.4143670000000001
 20
2.6835299999999971
 30
0.000512599
  0
VERTEX
  5
B30BA
  8
ASHADE
 10
-0.483769
 20
2.6700099999999991
 30
0.000512599
  0
VERTEX
  5
B30BB
  8
ASHADE
 10
-0.552192
 20
2.65442
 30
0.000512599
  0
VERTEX
  5
B30BC
  8
ASHADE
 10
-0.6194970000000001
 20
2.636779999999999
 30
0.000512599
  0
VERTEX
  5
B30BD
  8
ASHADE
 10
-0.6855500000000001
 20
2.6171299999999991
 30
0.000512599
  0
VERTEX
  5
B30BE
  8
ASHADE
 10
-0.750215
 20
2.59552
 30
0.000512599
  0
VERTEX
  5
B30BF
  8
ASHADE
 10
-0.813363
 20
2.5719899999999991
 30
0.000512599
  0
VERTEX
  5
B30C0
  8
ASHADE
 10
-0.8748639999999998
 20
2.54657
 30
0.000512599
  0
VERTEX
  5
B30C1
  8
ASHADE
 10
-0.9345959999999998
 20
2.5193400000000001
 30
0.000512599
  0
VERTEX
  5
B30C2
  8
ASHADE
 10
-0.9924369999999999
 20
2.490329999999997
 30
0.000512599
  0
VERTEX
  5
B30C3
  8
ASHADE
 10
-1.04827
 20
2.4596100000000001
 30
0.000512599
  0
VERTEX
  5
B30C4
  8
ASHADE
 10
-1.1019799999999991
 20
2.427249999999999
 30
0.000512599
  0
VERTEX
  5
B30C5
  8
ASHADE
 10
-1.1534699999999991
 20
2.3932999999999991
 30
0.000512599
  0
VERTEX
  5
B30C6
  8
ASHADE
 10
-1.2026099999999991
 20
2.3578299999999981
 30
0.000512599
  0
VERTEX
  5
B30C7
  8
ASHADE
 10
-1.2493299999999981
 20
2.3209200000000001
 30
0.000512599
  0
VERTEX
  5
B30C8
  8
ASHADE
 10
-1.29352
 20
2.2826499999999981
 30
0.000512599
  0
VERTEX
  5
B30C9
  8
ASHADE
 10
-1.335089999999997
 20
2.2430799999999991
 30
0.000512599
  0
VERTEX
  5
B30CA
  8
ASHADE
 10
-1.3739600000000001
 20
2.2023000000000001
 30
0.000512599
  0
VERTEX
  5
B30CB
  8
ASHADE
 10
-1.41005
 20
2.1604000000000001
 30
0.000512599
  0
VERTEX
  5
B30CC
  8
ASHADE
 10
-1.44329
 20
2.1174499999999981
 30
0.000512599
  0
VERTEX
  5
B30CD
  8
ASHADE
 10
-1.4736100000000001
 20
2.0735399999999991
 30
0.000512599
  0
VERTEX
  5
B30CE
  8
ASHADE
 10
-1.5009399999999991
 20
2.0287700000000002
 30
0.000512599
  0
VERTEX
  5
B30CF
  8
ASHADE
 10
-1.525239999999999
 20
1.983209999999997
 30
0.000512599
  0
VERTEX
  5
B30D0
  8
ASHADE
 10
-1.5464599999999991
 20
1.936979999999999
 30
0.000512599
  0
VERTEX
  5
B30D1
  8
ASHADE
 10
-1.56454
 20
1.89015
 30
0.000512599
  0
VERTEX
  5
B30D2
  8
ASHADE
 10
-1.5794600000000001
 20
1.8428199999999979
 30
0.000512599
  0
VERTEX
  5
B30D3
  8
ASHADE
 10
-1.591189999999999
 20
1.795099999999997
 30
0.000512599
  0
VERTEX
  5
B30D4
  8
ASHADE
 10
-1.5996900000000001
 20
1.747069999999999
 30
0.000512599
  0
VERTEX
  5
B30D5
  8
ASHADE
 10
-1.6049599999999991
 20
1.698829999999999
 30
0.000512599
  0
VERTEX
  5
B30D6
  8
ASHADE
 10
-1.606979999999999
 20
1.6504799999999991
 30
0.000512599
  0
VERTEX
  5
B30D7
  8
ASHADE
 10
-1.60575
 20
1.60212
 30
0.000512599
  0
VERTEX
  5
B30D8
  8
ASHADE
 10
-1.6012699999999991
 20
1.5538499999999991
 30
0.000512599
  0
VERTEX
  5
B30D9
  8
ASHADE
 10
-1.59355
 20
1.5057599999999991
 30
0.000512599
  0
VERTEX
  5
B30DA
  8
ASHADE
 10
-1.5826100000000001
 20
1.4579500000000001
 30
0.000512599
  0
VERTEX
  5
B30DB
  8
ASHADE
 10
-1.56847
 20
1.4105199999999991
 30
0.000512599
  0
VERTEX
  5
B30DC
  8
ASHADE
 10
-1.5511499999999969
 20
1.3635600000000001
 30
0.000512599
  0
VERTEX
  5
B30DD
  8
ASHADE
 10
-1.5306899999999981
 20
1.31717
 30
0.000512599
  0
VERTEX
  5
B30DE
  8
ASHADE
 10
-1.507139999999997
 20
1.271439999999999
 30
0.000512599
  0
VERTEX
  5
B30DF
  8
ASHADE
 10
-1.4805399999999991
 20
1.2264699999999991
 30
0.000512599
  0
VERTEX
  5
B30E0
  8
ASHADE
 10
-1.450939999999999
 20
1.1823399999999991
 30
0.000512599
  0
VERTEX
  5
B30E1
  8
ASHADE
 10
-1.4184099999999991
 20
1.1391500000000001
 30
0.000512599
  0
VERTEX
  5
B30E2
  8
ASHADE
 10
-1.3830100000000001
 20
1.096989999999999
 30
0.000512599
  0
VERTEX
  5
B30E3
  8
ASHADE
 10
-1.3447999999999991
 20
1.05593
 30
0.000512599
  0
VERTEX
  5
B30E4
  8
ASHADE
 10
-1.303879999999999
 20
1.0160599999999991
 30
0.000512599
  0
VERTEX
  5
B30E5
  8
ASHADE
 10
-1.2603200000000001
 20
0.9774580000000001
 30
0.000512599
  0
VERTEX
  5
B30E6
  8
ASHADE
 10
-1.21421
 20
0.94021
 30
0.000512599
  0
VERTEX
  5
B30E7
  8
ASHADE
 10
-1.1656500000000001
 20
0.9043870000000001
 30
0.000512599
  0
VERTEX
  5
B30E8
  8
ASHADE
 10
-1.114719999999999
 20
0.870062
 30
0.000512599
  0
VERTEX
  5
B30E9
  8
ASHADE
 10
-1.0615499999999991
 20
0.8373029999999999
 30
0.000512599
  0
VERTEX
  5
B30EA
  8
ASHADE
 10
-1.006219999999999
 20
0.8061779999999998
 30
0.000512599
  0
VERTEX
  5
B30EB
  8
ASHADE
 10
-0.9488549999999998
 20
0.7767500000000001
 30
0.000512599
  0
VERTEX
  5
B30EC
  8
ASHADE
 10
-0.889573
 20
0.749077
 30
0.000512599
  0
VERTEX
  5
B30ED
  8
ASHADE
 10
-0.82849
 20
0.723216
 30
0.000512599
  0
VERTEX
  5
B30EE
  8
ASHADE
 10
-0.765732
 20
0.6992189999999999
 30
0.000512599
  0
VERTEX
  5
B30EF
  8
ASHADE
 10
-0.7014240000000001
 20
0.6771340000000004
 30
0.000512599
  0
VERTEX
  5
B30F0
  8
ASHADE
 10
-0.6356970000000001
 20
0.6570070000000002
 30
0.000512599
  0
VERTEX
  5
B30F1
  8
ASHADE
 10
-0.5686840000000001
 20
0.638878
 30
0.000512599
  0
VERTEX
  5
B30F2
  8
ASHADE
 10
-0.500521
 20
0.6227840000000003
 30
0.000512599
  0
VERTEX
  5
B30F3
  8
ASHADE
 10
-0.431344
 20
0.608757
 30
0.000512599
  0
VERTEX
  5
B30F4
  8
ASHADE
 10
-0.361296
 20
0.596826
 30
0.000512599
  0
VERTEX
  5
B30F5
  8
ASHADE
 10
-0.290516
 20
0.587015
 30
0.000512599
  0
VERTEX
  5
B30F6
  8
ASHADE
 10
-0.219148
 20
0.5793430000000001
 30
0.000512599
  0
VERTEX
  5
B30F7
  8
ASHADE
 10
-0.147337
 20
0.5738260000000001
 30
0.000512599
  0
VERTEX
  5
B30F8
  8
ASHADE
 10
-0.075228
 20
0.5704760000000002
 30
0.000512599
  0
VERTEX
  5
B30F9
  8
ASHADE
 10
-0.00296674
 20
0.569299
 30
0.000512599
  0
VERTEX
  5
B30FA
  8
ASHADE
 10
0.0693005
 20
0.5702980000000001
 30
0.000512599
  0
VERTEX
  5
B30FB
  8
ASHADE
 10
0.141428
 20
0.5734700000000002
 30
0.000512599
  0
VERTEX
  5
B30FC
  8
ASHADE
 10
0.213269
 20
0.5788090000000004
 30
0.000512599
  0
VERTEX
  5
B30FD
  8
ASHADE
 10
0.284678
 20
0.5863040000000001
 30
0.000512599
  0
VERTEX
  5
B30FE
  8
ASHADE
 10
0.355512
 20
0.5959410000000001
 30
0.000512599
  0
VERTEX
  5
B30FF
  8
ASHADE
 10
0.4256260000000001
 20
0.6076990000000003
 30
0.000512599
  0
VERTEX
  5
B3100
  8
ASHADE
 10
0.494879
 20
0.6215540000000001
 30
0.000512599
  0
VERTEX
  5
B3101
  8
ASHADE
 10
0.5631310000000001
 20
0.6374800000000001
 30
0.000512599
  0
VERTEX
  5
B3102
  8
ASHADE
 10
0.6302430000000001
 20
0.655443
 30
0.000512599
  0
VERTEX
  5
B3103
  8
ASHADE
 10
0.6960810000000001
 20
0.675408
 30
0.000512599
  0
VERTEX
  5
B3104
  8
ASHADE
 10
0.7605100000000001
 20
0.697333
 30
0.000512599
  0
VERTEX
  5
B3105
  8
ASHADE
 10
0.8234010000000001
 20
0.7211750000000002
 30
0.000512599
  0
VERTEX
  5
B3106
  8
ASHADE
 10
0.8846249999999999
 20
0.746885
 30
0.000512599
  0
VERTEX
  5
B3107
  8
ASHADE
 10
0.9440599999999999
 20
0.774411
 30
0.000512599
  0
VERTEX
  5
B3108
  8
ASHADE
 10
1.001579999999999
 20
0.8036979999999999
 30
0.000512599
  0
VERTEX
  5
B3109
  8
ASHADE
 10
1.05708
 20
0.8346859999999999
 30
0.000512599
  0
VERTEX
  5
B310A
  8
ASHADE
 10
1.1104399999999981
 20
0.8673129999999995
 30
0.000512599
  0
VERTEX
  5
B310B
  8
ASHADE
 10
1.161559999999999
 20
0.9015119999999999
 30
0.000512599
  0
VERTEX
  5
B310C
  8
ASHADE
 10
1.2103200000000001
 20
0.9372149999999999
 30
0.000512599
  0
VERTEX
  5
B310D
  8
ASHADE
 10
1.256629999999999
 20
0.9743489999999999
 30
0.000512599
  0
VERTEX
  5
B310E
  8
ASHADE
 10
1.3004100000000001
 20
1.0128399999999991
 30
0.000512599
  0
VERTEX
  5
B310F
  8
ASHADE
 10
1.34155
 20
1.05261
 30
0.000512599
  0
VERTEX
  5
B3110
  8
ASHADE
 10
1.379969999999999
 20
1.093569999999999
 30
0.000512599
  0
VERTEX
  5
B3111
  8
ASHADE
 10
1.41561
 20
1.13565
 30
0.000512599
  0
VERTEX
  5
B3112
  8
ASHADE
 10
1.44838
 20
1.17876
 30
0.000512599
  0
VERTEX
  5
B3113
  8
ASHADE
 10
1.4782200000000001
 20
1.22282
 30
0.000512599
  0
VERTEX
  5
B3114
  8
ASHADE
 10
1.505069999999999
 20
1.26772
 30
0.000512599
  0
VERTEX
  5
B3115
  8
ASHADE
 10
1.52888
 20
1.3133900000000001
 30
0.000512599
  0
VERTEX
  5
B3116
  8
ASHADE
 10
1.54959
 20
1.3597299999999981
 30
0.000512599
  0
VERTEX
  5
B3117
  8
ASHADE
 10
1.5671600000000001
 20
1.406639999999999
 30
0.000512599
  0
VERTEX
  5
B3118
  8
ASHADE
 10
1.581569999999999
 20
1.4540399999999991
 30
0.000512599
  0
VERTEX
  5
B3119
  8
ASHADE
 10
1.592779999999999
 20
1.501819999999999
 30
0.000512599
  0
VERTEX
  5
B311A
  8
ASHADE
 10
1.60076
 20
1.5498899999999991
 30
0.000512599
  0
VERTEX
  5
B311B
  8
ASHADE
 10
1.605499999999999
 20
1.5981499999999991
 30
0.000512599
  0
VERTEX
  5
B311C
  8
ASHADE
 10
1.607
 20
1.646509999999999
 30
0.000512599
  0
VERTEX
  5
B311D
  8
ASHADE
 10
1.6052500000000001
 20
1.6948599999999969
 30
0.000512599
  0
VERTEX
  5
B311E
  8
ASHADE
 10
1.6002399999999981
 20
1.743109999999999
 30
0.000512599
  0
VERTEX
  5
B311F
  8
ASHADE
 10
1.5920000000000001
 20
1.791169999999999
 30
0.000512599
  0
VERTEX
  5
B3120
  8
ASHADE
 10
1.5805400000000001
 20
1.8389200000000001
 30
0.000512599
  0
VERTEX
  5
B3121
  8
ASHADE
 10
1.56589
 20
1.88628
 30
0.000512599
  0
VERTEX
  5
B3122
  8
ASHADE
 10
1.5480599999999991
 20
1.933149999999999
 30
0.000512599
  0
VERTEX
  5
B3123
  8
ASHADE
 10
1.527099999999999
 20
1.9794400000000001
 30
0.000512599
  0
VERTEX
  5
B3124
  8
ASHADE
 10
1.5030499999999991
 20
2.025049999999998
 30
0.000512599
  0
VERTEX
  5
B3125
  8
ASHADE
 10
1.4759599999999991
 20
2.0699000000000001
 30
0.000512599
  0
VERTEX
  5
B3126
  8
ASHADE
 10
1.445889999999999
 20
2.1138799999999991
 30
0.000512599
  0
VERTEX
  5
B3127
  8
ASHADE
 10
1.4128899999999991
 20
2.1569099999999981
 30
0.000512599
  0
VERTEX
  5
B3128
  8
ASHADE
 10
1.3770299999999991
 20
2.1989000000000001
 30
0.000512599
  0
VERTEX
  5
B3129
  8
ASHADE
 10
1.338379999999999
 20
2.2397800000000001
 30
0.000512599
  0
VERTEX
  5
B312A
  8
ASHADE
 10
1.297029999999999
 20
2.2794500000000002
 30
0.000512599
  0
VERTEX
  5
B312B
  8
ASHADE
 10
1.2530499999999991
 20
2.3178299999999981
 30
0.000512599
  0
VERTEX
  5
B312C
  8
ASHADE
 10
1.2065399999999991
 20
2.3548599999999991
 30
0.000512599
  0
VERTEX
  5
B312D
  8
ASHADE
 10
1.157589999999999
 20
2.390439999999999
 30
0.000512599
  0
VERTEX
  5
B312E
  8
ASHADE
 10
1.1062899999999991
 20
2.424519999999998
 30
0.000512599
  0
VERTEX
  5
B312F
  8
ASHADE
 10
1.052759999999999
 20
2.4570199999999991
 30
0.000512599
  0
VERTEX
  5
B3130
  8
ASHADE
 10
0.9970969999999999
 20
2.48787
 30
0.000512599
  0
VERTEX
  5
B3131
  8
ASHADE
 10
0.939417
 20
2.51702
 30
0.000512599
  0
VERTEX
  5
B3132
  8
ASHADE
 10
0.879836
 20
2.5444100000000001
 30
0.000512599
  0
VERTEX
  5
B3133
  8
ASHADE
 10
0.8184739999999999
 20
2.5699700000000001
 30
0.000512599
  0
VERTEX
  5
B3134
  8
ASHADE
 10
0.7554570000000001
 20
2.5936599999999981
 30
0.000512599
  0
VERTEX
  5
B3135
  8
ASHADE
 10
0.690912
 20
2.615429999999999
 30
0.000512599
  0
VERTEX
  5
B3136
  8
ASHADE
 10
0.6249680000000001
 20
2.63524
 30
0.000512599
  0
VERTEX
  5
B3137
  8
ASHADE
 10
0.5577600000000001
 20
2.6530399999999981
 30
0.000512599
  0
VERTEX
  5
B3138
  8
ASHADE
 10
0.489424
 20
2.668809999999997
 30
0.000512599
  0
VERTEX
  5
B3139
  8
ASHADE
 10
0.420097
 20
2.6825000000000001
 30
0.000512599
  0
SEQEND
  5
B313A
  8
ASHADE
  0
POLYLINE
  5
B206E
  8
ASHADE
 66
     1
 10
0.0
 20
0.0
 30
0.0
  0
VERTEX
  5
B313B
  8
ASHADE
 10
-1.607
 20
1.075299999999999
 30
0.0
  0
VERTEX
  5
B313C
  8
ASHADE
 10
-1.6065199999999991
 20
1.04891
 30
0.0
  0
VERTEX
  5
B313D
  8
ASHADE
 10
-1.6050699999999991
 20
1.0225299999999991
 30
0.0
  0
VERTEX
  5
B313E
  8
ASHADE
 10
-1.602649999999997
 20
0.996193
 30
0.0
  0
VERTEX
  5
B313F
  8
ASHADE
 10
-1.5992699999999991
 20
0.969899
 30
0.0
  0
VERTEX
  5
B3140
  8
ASHADE
 10
-1.594919999999999
 20
0.943669
 30
0.0
  0
VERTEX
  5
B3141
  8
ASHADE
 10
-1.5896099999999991
 20
0.9175179999999999
 30
0.0
  0
VERTEX
  5
B3142
  8
ASHADE
 10
-1.5833399999999991
 20
0.8914620000000001
 30
0.0
  0
VERTEX
  5
B3143
  8
ASHADE
 10
-1.57613
 20
0.8655159999999998
 30
0.0
  0
VERTEX
  5
B3144
  8
ASHADE
 10
-1.56796
 20
0.8396979999999999
 30
0.0
  0
VERTEX
  5
B3145
  8
ASHADE
 10
-1.55884
 20
0.8140209999999999
 30
0.0
  0
VERTEX
  5
B3146
  8
ASHADE
 10
-1.548789999999999
 20
0.7885010000000002
 30
0.0
  0
VERTEX
  5
B3147
  8
ASHADE
 10
-1.537809999999999
 20
0.7631540000000001
 30
0.0
  0
VERTEX
  5
B3148
  8
ASHADE
 10
-1.5259
 20
0.737996
 30
0.0
  0
VERTEX
  5
B3149
  8
ASHADE
 10
-1.5130600000000001
 20
0.71304
 30
0.0
  0
VERTEX
  5
B314A
  8
ASHADE
 10
-1.4993199999999991
 20
0.688303
 30
0.0
  0
VERTEX
  5
B314B
  8
ASHADE
 10
-1.484679999999998
 20
0.663798
 30
0.0
  0
VERTEX
  5
B314C
  8
ASHADE
 10
-1.469139999999999
 20
0.6395420000000001
 30
0.0
  0
VERTEX
  5
B314D
  8
ASHADE
 10
-1.4527099999999991
 20
0.615548
 30
0.0
  0
VERTEX
  5
B314E
  8
ASHADE
 10
-1.4354100000000001
 20
0.591831
 30
0.0
  0
VERTEX
  5
B314F
  8
ASHADE
 10
-1.417249999999999
 20
0.5684050000000001
 30
0.0
  0
VERTEX
  5
B3150
  8
ASHADE
 10
-1.398229999999999
 20
0.545285
 30
0.0
  0
VERTEX
  5
B3151
  8
ASHADE
 10
-1.3783700000000001
 20
0.5224840000000001
 30
0.0
  0
VERTEX
  5
B3152
  8
ASHADE
 10
-1.3576799999999991
 20
0.500015
 30
0.0
  0
VERTEX
  5
B3153
  8
ASHADE
 10
-1.3361700000000001
 20
0.477894
 30
0.0
  0
VERTEX
  5
B3154
  8
ASHADE
 10
-1.31386
 20
0.4561320000000002
 30
0.0
  0
VERTEX
  5
B3155
  8
ASHADE
 10
-1.290759999999999
 20
0.4347430000000001
 30
0.0
  0
VERTEX
  5
B3156
  8
ASHADE
 10
-1.26688
 20
0.41374
 30
0.0
  0
VERTEX
  5
B3157
  8
ASHADE
 10
-1.2422299999999991
 20
0.393136
 30
0.0
  0
VERTEX
  5
B3158
  8
ASHADE
 10
-1.216839999999999
 20
0.372942
 30
0.0
  0
VERTEX
  5
B3159
  8
ASHADE
 10
-1.190709999999999
 20
0.353171
 30
0.0
  0
VERTEX
  5
B315A
  8
ASHADE
 10
-1.16387
 20
0.333836
 30
0.0
  0
VERTEX
  5
B315B
  8
ASHADE
 10
-1.1363199999999991
 20
0.314947
 30
0.0
  0
VERTEX
  5
B315C
  8
ASHADE
 10
-1.10809
 20
0.296516
 30
0.0
  0
VERTEX
  5
B315D
  8
ASHADE
 10
-1.079199999999999
 20
0.278554
 30
0.0
  0
VERTEX
  5
B315E
  8
ASHADE
 10
-1.0496499999999991
 20
0.261072
 30
0.0
  0
VERTEX
  5
B315F
  8
ASHADE
 10
-1.0194700000000001
 20
0.244081
 30
0.0
  0
VERTEX
  5
B3160
  8
ASHADE
 10
-0.9886789999999999
 20
0.22759
 30
0.0
  0
VERTEX
  5
B3161
  8
ASHADE
 10
-0.957291
 20
0.21161
 30
0.0
  0
VERTEX
  5
B3162
  8
ASHADE
 10
-0.9253259999999999
 20
0.19615
 30
0.0
  0
VERTEX
  5
B3163
  8
ASHADE
 10
-0.8928029999999999
 20
0.18122
 30
0.0
  0
VERTEX
  5
B3164
  8
ASHADE
 10
-0.8597430000000002
 20
0.166828
 30
0.0
  0
VERTEX
  5
B3165
  8
ASHADE
 10
-0.8261649999999999
 20
0.152984
 30
0.0
  0
VERTEX
  5
B3166
  8
ASHADE
 10
-0.792089
 20
0.139695
 30
0.0
  0
VERTEX
  5
B3167
  8
ASHADE
 10
-0.757536
 20
0.12697
 30
0.0
  0
VERTEX
  5
B3168
  8
ASHADE
 10
-0.722527
 20
0.114816
 30
0.0
  0
VERTEX
  5
B3169
  8
ASHADE
 10
-0.687083
 20
0.10324
 30
0.0
  0
VERTEX
  5
B316A
  8
ASHADE
 10
-0.6512240000000003
 20
0.0922499
 30
0.0
  0
VERTEX
  5
B316B
  8
ASHADE
 10
-0.6149740000000004
 20
0.0818521
 30
0.0
  0
VERTEX
  5
B316C
  8
ASHADE
 10
-0.578353
 20
0.0720526
 30
0.0
  0
VERTEX
  5
B316D
  8
ASHADE
 10
-0.541383
 20
0.0628575
 30
0.0
  0
VERTEX
  5
B316E
  8
ASHADE
 10
-0.504088
 20
0.0542722
 30
0.0
  0
VERTEX
  5
B316F
  8
ASHADE
 10
-0.4664890000000001
 20
0.0463019
 30
0.0
  0
VERTEX
  5
B3170
  8
ASHADE
 10
-0.4286080000000001
 20
0.0389515
 30
0.0
  0
VERTEX
  5
B3171
  8
ASHADE
 10
-0.39047
 20
0.0322253
 30
0.0
  0
VERTEX
  5
B3172
  8
ASHADE
 10
-0.352096
 20
0.0261274
 30
0.0
  0
VERTEX
  5
B3173
  8
ASHADE
 10
-0.313511
 20
0.0206615
 30
0.0
  0
VERTEX
  5
B3174
  8
ASHADE
 10
-0.274736
 20
0.0158309
 30
0.0
  0
VERTEX
  5
B3175
  8
ASHADE
 10
-0.235796
 20
0.0116385
 30
0.0
  0
VERTEX
  5
B3176
  8
ASHADE
 10
-0.196714
 20
0.00808673
 30
0.0
  0
VERTEX
  5
B3177
  8
ASHADE
 10
-0.157514
 20
0.00517785
 30
0.0
  0
VERTEX
  5
B3178
  8
ASHADE
 10
-0.118219
 20
0.00291356
 30
0.0
  0
VERTEX
  5
B3179
  8
ASHADE
 10
-0.0788519
 20
0.00129524
 30
0.0
  0
VERTEX
  5
B317A
  8
ASHADE
 10
-0.0394378
 20
0.000323859
 30
0.0
  0
VERTEX
  5
B317B
  8
ASHADE
 10
-0.0000000000000001
 20
0.000000000000002
 30
0.0
  0
VERTEX
  5
B317C
  8
ASHADE
 10
0.0394378
 20
0.000323859
 30
0.0
  0
VERTEX
  5
B317D
  8
ASHADE
 10
0.0788519
 20
0.00129524
 30
0.0
  0
VERTEX
  5
B317E
  8
ASHADE
 10
0.118219
 20
0.00291356
 30
0.0
  0
VERTEX
  5
B317F
  8
ASHADE
 10
0.157514
 20
0.00517785
 30
0.0
  0
VERTEX
  5
B3180
  8
ASHADE
 10
0.196714
 20
0.00808673
 30
0.0
  0
VERTEX
  5
B3181
  8
ASHADE
 10
0.235796
 20
0.0116385
 30
0.0
  0
VERTEX
  5
B3182
  8
ASHADE
 10
0.274736
 20
0.0158309
 30
0.0
  0
VERTEX
  5
B3183
  8
ASHADE
 10
0.313511
 20
0.0206615
 30
0.0
  0
VERTEX
  5
B3184
  8
ASHADE
 10
0.352096
 20
0.0261274
 30
0.0
  0
VERTEX
  5
B3185
  8
ASHADE
 10
0.39047
 20
0.0322253
 30
0.0
  0
VERTEX
  5
B3186
  8
ASHADE
 10
0.4286080000000001
 20
0.0389515
 30
0.0
  0
VERTEX
  5
B3187
  8
ASHADE
 10
0.4664890000000001
 20
0.0463019
 30
0.0
  0
VERTEX
  5
B3188
  8
ASHADE
 10
0.504088
 20
0.0542722
 30
0.0
  0
VERTEX
  5
B3189
  8
ASHADE
 10
0.541383
 20
0.0628575
 30
0.0
  0
VERTEX
  5
B318A
  8
ASHADE
 10
0.578353
 20
0.0720526
 30
0.0
  0
VERTEX
  5
B318B
  8
ASHADE
 10
0.6149740000000004
 20
0.0818521
 30
0.0
  0
VERTEX
  5
B318C
  8
ASHADE
 10
0.6512240000000003
 20
0.0922499
 30
0.0
  0
VERTEX
  5
B318D
  8
ASHADE
 10
0.687083
 20
0.10324
 30
0.0
  0
VERTEX
  5
B318E
  8
ASHADE
 10
0.722527
 20
0.114816
 30
0.0
  0
VERTEX
  5
B318F
  8
ASHADE
 10
0.757536
 20
0.12697
 30
0.0
  0
VERTEX
  5
B3190
  8
ASHADE
 10
0.792089
 20
0.139695
 30
0.0
  0
VERTEX
  5
B3191
  8
ASHADE
 10
0.8261649999999999
 20
0.152984
 30
0.0
  0
VERTEX
  5
B3192
  8
ASHADE
 10
0.8597430000000002
 20
0.166828
 30
0.0
  0
VERTEX
  5
B3193
  8
ASHADE
 10
0.8928029999999999
 20
0.18122
 30
0.0
  0
VERTEX
  5
B3194
  8
ASHADE
 10
0.9253259999999999
 20
0.19615
 30
0.0
  0
VERTEX
  5
B3195
  8
ASHADE
 10
0.957291
 20
0.21161
 30
0.0
  0
VERTEX
  5
B3196
  8
ASHADE
 10
0.9886789999999999
 20
0.22759
 30
0.0
  0
VERTEX
  5
B3197
  8
ASHADE
 10
1.0194700000000001
 20
0.244081
 30
0.0
  0
VERTEX
  5
B3198
  8
ASHADE
 10
1.0496499999999991
 20
0.261072
 30
0.0
  0
VERTEX
  5
B3199
  8
ASHADE
 10
1.079199999999999
 20
0.278554
 30
0.0
  0
VERTEX
  5
B319A
  8
ASHADE
 10
1.10809
 20
0.296516
 30
0.0
  0
VERTEX
  5
B319B
  8
ASHADE
 10
1.1363199999999991
 20
0.314947
 30
0.0
  0
VERTEX
  5
B319C
  8
ASHADE
 10
1.16387
 20
0.333836
 30
0.0
  0
VERTEX
  5
B319D
  8
ASHADE
 10
1.190709999999999
 20
0.353171
 30
0.0
  0
VERTEX
  5
B319E
  8
ASHADE
 10
1.216839999999999
 20
0.372942
 30
0.0
  0
VERTEX
  5
B319F
  8
ASHADE
 10
1.2422299999999991
 20
0.393136
 30
0.0
  0
VERTEX
  5
B31A0
  8
ASHADE
 10
1.26688
 20
0.41374
 30
0.0
  0
VERTEX
  5
B31A1
  8
ASHADE
 10
1.290759999999999
 20
0.4347430000000001
 30
0.0
  0
VERTEX
  5
B31A2
  8
ASHADE
 10
1.31386
 20
0.4561320000000002
 30
0.0
  0
VERTEX
  5
B31A3
  8
ASHADE
 10
1.3361700000000001
 20
0.477894
 30
0.0
  0
VERTEX
  5
B31A4
  8
ASHADE
 10
1.3576799999999991
 20
0.500015
 30
0.0
  0
VERTEX
  5
B31A5
  8
ASHADE
 10
1.3783700000000001
 20
0.5224840000000001
 30
0.0
  0
VERTEX
  5
B31A6
  8
ASHADE
 10
1.398229999999999
 20
0.545285
 30
0.0
  0
VERTEX
  5
B31A7
  8
ASHADE
 10
1.417249999999999
 20
0.5684050000000001
 30
0.0
  0
VERTEX
  5
B31A8
  8
ASHADE
 10
1.4354100000000001
 20
0.591831
 30
0.0
  0
VERTEX
  5
B31A9
  8
ASHADE
 10
1.4527099999999991
 20
0.615548
 30
0.0
  0
VERTEX
  5
B31AA
  8
ASHADE
 10
1.469139999999999
 20
0.6395420000000001
 30
0.0
  0
VERTEX
  5
B31AB
  8
ASHADE
 10
1.484679999999998
 20
0.663798
 30
0.0
  0
VERTEX
  5
B31AC
  8
ASHADE
 10
1.4993199999999991
 20
0.688303
 30
0.0
  0
VERTEX
  5
B31AD
  8
ASHADE
 10
1.5130600000000001
 20
0.71304
 30
0.0
  0
VERTEX
  5
B31AE
  8
ASHADE
 10
1.5259
 20
0.737996
 30
0.0
  0
VERTEX
  5
B31AF
  8
ASHADE
 10
1.537809999999999
 20
0.7631540000000001
 30
0.0
  0
VERTEX
  5
B31B0
  8
ASHADE
 10
1.548789999999999
 20
0.7885010000000002
 30
0.0
  0
VERTEX
  5
B31B1
  8
ASHADE
 10
1.55884
 20
0.8140209999999999
 30
0.0
  0
VERTEX
  5
B31B2
  8
ASHADE
 10
1.56796
 20
0.8396979999999999
 30
0.0
  0
VERTEX
  5
B31B3
  8
ASHADE
 10
1.57613
 20
0.8655159999999998
 30
0.0
  0
VERTEX
  5
B31B4
  8
ASHADE
 10
1.5833399999999991
 20
0.8914620000000001
 30
0.0
  0
VERTEX
  5
B31B5
  8
ASHADE
 10
1.5896099999999991
 20
0.9175179999999999
 30
0.0
  0
VERTEX
  5
B31B6
  8
ASHADE
 10
1.594919999999999
 20
0.943669
 30
0.0
  0
VERTEX
  5
B31B7
  8
ASHADE
 10
1.5992699999999991
 20
0.969899
 30
0.0
  0
VERTEX
  5
B31B8
  8
ASHADE
 10
1.602649999999997
 20
0.996193
 30
0.0
  0
VERTEX
  5
B31B9
  8
ASHADE
 10
1.6050699999999991
 20
1.0225299999999991
 30
0.0
  0
VERTEX
  5
B31BA
  8
ASHADE
 10
1.6065199999999991
 20
1.04891
 30
0.0
  0
VERTEX
  5
B31BB
  8
ASHADE
 10
1.607
 20
1.075299999999999
 30
0.0
  0
SEQEND
  5
B31BC
  8
ASHADE
  0
POLYLINE
  5
B20EE
  8
ASHADE
 66
     1
 10
0.0
 20
0.0
 30
0.00159495
  0
VERTEX
  5
B31BD
  8
ASHADE
 10
-0.417198
 20
3.038679999999998
 30
0.00159495
  0
VERTEX
  5
B31BE
  8
ASHADE
 10
-0.417073
 20
3.032229999999998
 30
0.00159495
  0
VERTEX
  5
B31BF
  8
ASHADE
 10
-0.4166960000000002
 20
3.0257900000000002
 30
0.00159495
  0
VERTEX
  5
B31C0
  8
ASHADE
 10
-0.4160680000000001
 20
3.019359999999998
 30
0.00159495
  0
VERTEX
  5
B31C1
  8
ASHADE
 10
-0.415189
 20
3.0129399999999991
 30
0.00159495
  0
VERTEX
  5
B31C2
  8
ASHADE
 10
-0.414061
 20
3.0065400000000002
 30
0.00159495
  0
VERTEX
  5
B31C3
  8
ASHADE
 10
-0.4126820000000003
 20
3.0001500000000001
 30
0.00159495
  0
VERTEX
  5
B31C4
  8
ASHADE
 10
-0.4110560000000003
 20
2.9937900000000002
 30
0.00159495
  0
VERTEX
  5
B31C5
  8
ASHADE
 10
-0.4091810000000001
 20
2.9874499999999991
 30
0.00159495
  0
VERTEX
  5
B31C6
  8
ASHADE
 10
-0.40706
 20
2.9811499999999991
 30
0.00159495
  0
VERTEX
  5
B31C7
  8
ASHADE
 10
-0.4046940000000001
 20
2.974879999999998
 30
0.00159495
  0
VERTEX
  5
B31C8
  8
ASHADE
 10
-0.402085
 20
2.968649999999998
 30
0.00159495
  0
VERTEX
  5
B31C9
  8
ASHADE
 10
-0.399232
 20
2.9624599999999992
 30
0.00159495
  0
VERTEX
  5
B31CA
  8
ASHADE
 10
-0.39614
 20
2.956309999999998
 30
0.00159495
  0
VERTEX
  5
B31CB
  8
ASHADE
 10
-0.392809
 20
2.9502199999999981
 30
0.00159495
  0
VERTEX
  5
B31CC
  8
ASHADE
 10
-0.389241
 20
2.9441799999999971
 30
0.00159495
  0
VERTEX
  5
B31CD
  8
ASHADE
 10
-0.385438
 20
2.9382000000000001
 30
0.00159495
  0
VERTEX
  5
B31CE
  8
ASHADE
 10
-0.381404
 20
2.9322699999999982
 30
0.00159495
  0
VERTEX
  5
B31CF
  8
ASHADE
 10
-0.37714
 20
2.926409999999998
 30
0.00159495
  0
VERTEX
  5
B31D0
  8
ASHADE
 10
-0.372648
 20
2.9206199999999991
 30
0.00159495
  0
VERTEX
  5
B31D1
  8
ASHADE
 10
-0.3679320000000001
 20
2.9148999999999989
 30
0.00159495
  0
VERTEX
  5
B31D2
  8
ASHADE
 10
-0.362995
 20
2.909259999999998
 30
0.00159495
  0
VERTEX
  5
B31D3
  8
ASHADE
 10
-0.357838
 20
2.9036900000000001
 30
0.00159495
  0
VERTEX
  5
B31D4
  8
ASHADE
 10
-0.352466
 20
2.8982000000000001
 30
0.00159495
  0
VERTEX
  5
B31D5
  8
ASHADE
 10
-0.346882
 20
2.8927999999999989
 30
0.00159495
  0
VERTEX
  5
B31D6
  8
ASHADE
 10
-0.341089
 20
2.8874900000000001
 30
0.00159495
  0
VERTEX
  5
B31D7
  8
ASHADE
 10
-0.33509
 20
2.88226
 30
0.00159495
  0
VERTEX
  5
B31D8
  8
ASHADE
 10
-0.32889
 20
2.877139999999998
 30
0.00159495
  0
VERTEX
  5
B31D9
  8
ASHADE
 10
-0.3224909999999999
 20
2.8721000000000001
 30
0.00159495
  0
VERTEX
  5
B31DA
  8
ASHADE
 10
-0.315898
 20
2.8671700000000002
 30
0.00159495
  0
VERTEX
  5
B31DB
  8
ASHADE
 10
-0.309115
 20
2.8623500000000002
 30
0.00159495
  0
VERTEX
  5
B31DC
  8
ASHADE
 10
-0.302146
 20
2.8576199999999981
 30
0.00159495
  0
VERTEX
  5
B31DD
  8
ASHADE
 10
-0.294994
 20
2.8530099999999989
 30
0.00159495
  0
VERTEX
  5
B31DE
  8
ASHADE
 10
-0.287665
 20
2.8485099999999992
 30
0.00159495
  0
VERTEX
  5
B31DF
  8
ASHADE
 10
-0.280162
 20
2.8441200000000002
 30
0.00159495
  0
VERTEX
  5
B31E0
  8
ASHADE
 10
-0.272491
 20
2.8398599999999981
 30
0.00159495
  0
VERTEX
  5
B31E1
  8
ASHADE
 10
-0.264656
 20
2.835709999999998
 30
0.00159495
  0
VERTEX
  5
B31E2
  8
ASHADE
 10
-0.256661
 20
2.83168
 30
0.00159495
  0
VERTEX
  5
B31E3
  8
ASHADE
 10
-0.248511
 20
2.827779999999998
 30
0.00159495
  0
VERTEX
  5
B31E4
  8
ASHADE
 10
-0.240212
 20
2.8239999999999981
 30
0.00159495
  0
VERTEX
  5
B31E5
  8
ASHADE
 10
-0.231768
 20
2.8203599999999991
 30
0.00159495
  0
VERTEX
  5
B31E6
  8
ASHADE
 10
-0.223185
 20
2.81684
 30
0.00159495
  0
VERTEX
  5
B31E7
  8
ASHADE
 10
-0.214467
 20
2.8134600000000001
 30
0.00159495
  0
VERTEX
  5
B31E8
  8
ASHADE
 10
-0.20562
 20
2.8102200000000002
 30
0.00159495
  0
VERTEX
  5
B31E9
  8
ASHADE
 10
-0.196648
 20
2.8071099999999971
 30
0.00159495
  0
VERTEX
  5
B31EA
  8
ASHADE
 10
-0.187559
 20
2.8041399999999981
 30
0.00159495
  0
VERTEX
  5
B31EB
  8
ASHADE
 10
-0.178356
 20
2.80132
 30
0.00159495
  0
VERTEX
  5
B31EC
  8
ASHADE
 10
-0.169046
 20
2.798629999999998
 30
0.00159495
  0
VERTEX
  5
B31ED
  8
ASHADE
 10
-0.159635
 20
2.7960899999999991
 30
0.00159495
  0
VERTEX
  5
B31EE
  8
ASHADE
 10
-0.150126
 20
2.7936999999999981
 30
0.00159495
  0
VERTEX
  5
B31EF
  8
ASHADE
 10
-0.140528
 20
2.7914500000000002
 30
0.00159495
  0
VERTEX
  5
B31F0
  8
ASHADE
 10
-0.130845
 20
2.7893599999999981
 30
0.00159495
  0
VERTEX
  5
B31F1
  8
ASHADE
 10
-0.121083
 20
2.7874099999999991
 30
0.00159495
  0
VERTEX
  5
B31F2
  8
ASHADE
 10
-0.111248
 20
2.7856200000000002
 30
0.00159495
  0
VERTEX
  5
B31F3
  8
ASHADE
 10
-0.101346
 20
2.7839800000000001
 30
0.00159495
  0
VERTEX
  5
B31F4
  8
ASHADE
 10
-0.0913829
 20
2.7824900000000001
 30
0.00159495
  0
VERTEX
  5
B31F5
  8
ASHADE
 10
-0.0813648
 20
2.781149999999998
 30
0.00159495
  0
VERTEX
  5
B31F6
  8
ASHADE
 10
-0.0712977
 20
2.7799700000000001
 30
0.00159495
  0
VERTEX
  5
B31F7
  8
ASHADE
 10
-0.0611876
 20
2.77895
 30
0.00159495
  0
VERTEX
  5
B31F8
  8
ASHADE
 10
-0.0510406
 20
2.7780800000000001
 30
0.00159495
  0
VERTEX
  5
B31F9
  8
ASHADE
 10
-0.0408628
 20
2.777369999999999
 30
0.00159495
  0
VERTEX
  5
B31FA
  8
ASHADE
 10
-0.0306605
 20
2.7768199999999981
 30
0.00159495
  0
VERTEX
  5
B31FB
  8
ASHADE
 10
-0.0204396
 20
2.7764199999999981
 30
0.00159495
  0
VERTEX
  5
B31FC
  8
ASHADE
 10
-0.0102064
 20
2.7761900000000002
 30
0.00159495
  0
VERTEX
  5
B31FD
  8
ASHADE
 10
0.0000329828
 20
2.7761099999999992
 30
0.00159495
  0
VERTEX
  5
B31FE
  8
ASHADE
 10
0.0102724
 20
2.7761900000000002
 30
0.00159495
  0
VERTEX
  5
B31FF
  8
ASHADE
 10
0.0205056
 20
2.7764199999999981
 30
0.00159495
  0
VERTEX
  5
B3200
  8
ASHADE
 10
0.0307264
 20
2.7768199999999981
 30
0.00159495
  0
VERTEX
  5
B3201
  8
ASHADE
 10
0.0409288
 20
2.777369999999999
 30
0.00159495
  0
VERTEX
  5
B3202
  8
ASHADE
 10
0.0511065
 20
2.7780800000000001
 30
0.00159495
  0
VERTEX
  5
B3203
  8
ASHADE
 10
0.0612535
 20
2.77895
 30
0.00159495
  0
VERTEX
  5
B3204
  8
ASHADE
 10
0.0713636
 20
2.7799700000000001
 30
0.00159495
  0
VERTEX
  5
B3205
  8
ASHADE
 10
0.0814308
 20
2.781149999999998
 30
0.00159495
  0
VERTEX
  5
B3206
  8
ASHADE
 10
0.0914489
 20
2.7824900000000001
 30
0.00159495
  0
VERTEX
  5
B3207
  8
ASHADE
 10
0.101412
 20
2.7839800000000001
 30
0.00159495
  0
VERTEX
  5
B3208
  8
ASHADE
 10
0.111314
 20
2.7856200000000002
 30
0.00159495
  0
VERTEX
  5
B3209
  8
ASHADE
 10
0.121149
 20
2.7874099999999991
 30
0.00159495
  0
VERTEX
  5
B320A
  8
ASHADE
 10
0.130911
 20
2.7893599999999981
 30
0.00159495
  0
VERTEX
  5
B320B
  8
ASHADE
 10
0.140594
 20
2.7914500000000002
 30
0.00159495
  0
VERTEX
  5
B320C
  8
ASHADE
 10
0.150192
 20
2.7936999999999981
 30
0.00159495
  0
VERTEX
  5
B320D
  8
ASHADE
 10
0.1597
 20
2.7960899999999991
 30
0.00159495
  0
VERTEX
  5
B320E
  8
ASHADE
 10
0.169112
 20
2.798629999999998
 30
0.00159495
  0
VERTEX
  5
B320F
  8
ASHADE
 10
0.178422
 20
2.80132
 30
0.00159495
  0
VERTEX
  5
B3210
  8
ASHADE
 10
0.187625
 20
2.8041399999999981
 30
0.00159495
  0
VERTEX
  5
B3211
  8
ASHADE
 10
0.196714
 20
2.8071099999999971
 30
0.00159495
  0
VERTEX
  5
B3212
  8
ASHADE
 10
0.205686
 20
2.8102200000000002
 30
0.00159495
  0
VERTEX
  5
B3213
  8
ASHADE
 10
0.214533
 20
2.8134600000000001
 30
0.00159495
  0
VERTEX
  5
B3214
  8
ASHADE
 10
0.223251
 20
2.81684
 30
0.00159495
  0
VERTEX
  5
B3215
  8
ASHADE
 10
0.231834
 20
2.8203599999999991
 30
0.00159495
  0
VERTEX
  5
B3216
  8
ASHADE
 10
0.240278
 20
2.8239999999999981
 30
0.00159495
  0
VERTEX
  5
B3217
  8
ASHADE
 10
0.248577
 20
2.827779999999998
 30
0.00159495
  0
VERTEX
  5
B3218
  8
ASHADE
 10
0.256727
 20
2.83168
 30
0.00159495
  0
VERTEX
  5
B3219
  8
ASHADE
 10
0.2647219999999999
 20
2.835709999999998
 30
0.00159495
  0
VERTEX
  5
B321A
  8
ASHADE
 10
0.272557
 20
2.8398599999999981
 30
0.00159495
  0
VERTEX
  5
B321B
  8
ASHADE
 10
0.2802280000000001
 20
2.8441200000000002
 30
0.00159495
  0
VERTEX
  5
B321C
  8
ASHADE
 10
0.287731
 20
2.8485099999999992
 30
0.00159495
  0
VERTEX
  5
B321D
  8
ASHADE
 10
0.29506
 20
2.8530099999999989
 30
0.00159495
  0
VERTEX
  5
B321E
  8
ASHADE
 10
0.302212
 20
2.8576199999999981
 30
0.00159495
  0
VERTEX
  5
B321F
  8
ASHADE
 10
0.309181
 20
2.8623500000000002
 30
0.00159495
  0
VERTEX
  5
B3220
  8
ASHADE
 10
0.315964
 20
2.8671700000000002
 30
0.00159495
  0
VERTEX
  5
B3221
  8
ASHADE
 10
0.322557
 20
2.8721000000000001
 30
0.00159495
  0
VERTEX
  5
B3222
  8
ASHADE
 10
0.328956
 20
2.877139999999998
 30
0.00159495
  0
VERTEX
  5
B3223
  8
ASHADE
 10
0.335156
 20
2.88226
 30
0.00159495
  0
VERTEX
  5
B3224
  8
ASHADE
 10
0.341155
 20
2.8874900000000001
 30
0.00159495
  0
VERTEX
  5
B3225
  8
ASHADE
 10
0.346948
 20
2.8927999999999989
 30
0.00159495
  0
VERTEX
  5
B3226
  8
ASHADE
 10
0.352532
 20
2.8982000000000001
 30
0.00159495
  0
VERTEX
  5
B3227
  8
ASHADE
 10
0.357904
 20
2.9036900000000001
 30
0.00159495
  0
VERTEX
  5
B3228
  8
ASHADE
 10
0.36306
 20
2.909259999999998
 30
0.00159495
  0
VERTEX
  5
B3229
  8
ASHADE
 10
0.367998
 20
2.9148999999999989
 30
0.00159495
  0
VERTEX
  5
B322A
  8
ASHADE
 10
0.372714
 20
2.9206199999999991
 30
0.00159495
  0
VERTEX
  5
B322B
  8
ASHADE
 10
0.377206
 20
2.926409999999998
 30
0.00159495
  0
VERTEX
  5
B322C
  8
ASHADE
 10
0.38147
 20
2.9322699999999982
 30
0.00159495
  0
VERTEX
  5
B322D
  8
ASHADE
 10
0.385504
 20
2.9382000000000001
 30
0.00159495
  0
VERTEX
  5
B322E
  8
ASHADE
 10
0.389307
 20
2.9441799999999971
 30
0.00159495
  0
VERTEX
  5
B322F
  8
ASHADE
 10
0.392875
 20
2.9502199999999981
 30
0.00159495
  0
VERTEX
  5
B3230
  8
ASHADE
 10
0.396206
 20
2.956309999999998
 30
0.00159495
  0
VERTEX
  5
B3231
  8
ASHADE
 10
0.399298
 20
2.9624599999999992
 30
0.00159495
  0
VERTEX
  5
B3232
  8
ASHADE
 10
0.40215
 20
2.968649999999998
 30
0.00159495
  0
VERTEX
  5
B3233
  8
ASHADE
 10
0.40476
 20
2.974879999999998
 30
0.00159495
  0
VERTEX
  5
B3234
  8
ASHADE
 10
0.4071260000000001
 20
2.9811499999999991
 30
0.00159495
  0
VERTEX
  5
B3235
  8
ASHADE
 10
0.409247
 20
2.9874499999999991
 30
0.00159495
  0
VERTEX
  5
B3236
  8
ASHADE
 10
0.4111220000000002
 20
2.9937900000000002
 30
0.00159495
  0
VERTEX
  5
B3237
  8
ASHADE
 10
0.412748
 20
3.0001500000000001
 30
0.00159495
  0
VERTEX
  5
B3238
  8
ASHADE
 10
0.414126
 20
3.0065400000000002
 30
0.00159495
  0
VERTEX
  5
B3239
  8
ASHADE
 10
0.4152550000000001
 20
3.0129399999999991
 30
0.00159495
  0
VERTEX
  5
B323A
  8
ASHADE
 10
0.416134
 20
3.019359999999998
 30
0.00159495
  0
VERTEX
  5
B323B
  8
ASHADE
 10
0.416762
 20
3.0257900000000002
 30
0.00159495
  0
VERTEX
  5
B323C
  8
ASHADE
 10
0.4171390000000001
 20
3.032229999999998
 30
0.00159495
  0
VERTEX
  5
B323D
  8
ASHADE
 10
0.4172640000000003
 20
3.038679999999998
 30
0.00159495
  0
SEQEND
  5
B323E
  8
ASHADE
  0
POLYLINE
  5
B216E
  8
ASHADE
 66
     1
 10
0.0
 20
0.0
 30
0.00133099
  0
VERTEX
  5
B323F
  8
ASHADE
 10
-0.148857
 20
2.4347799999999991
 30
0.00133099
  0
VERTEX
  5
B3240
  8
ASHADE
 10
-0.148945
 20
2.4322900000000001
 30
0.00133099
  0
VERTEX
  5
B3241
  8
ASHADE
 10
-0.148939
 20
2.4297900000000001
 30
0.00133099
  0
VERTEX
  5
B3242
  8
ASHADE
 10
-0.148838
 20
2.427299999999998
 30
0.00133099
  0
VERTEX
  5
B3243
  8
ASHADE
 10
-0.148644
 20
2.424809999999999
 30
0.00133099
  0
VERTEX
  5
B3244
  8
ASHADE
 10
-0.148356
 20
2.4223300000000001
 30
0.00133099
  0
VERTEX
  5
B3245
  8
ASHADE
 10
-0.147975
 20
2.4198499999999981
 30
0.00133099
  0
VERTEX
  5
B3246
  8
ASHADE
 10
-0.147499
 20
2.4173800000000001
 30
0.00133099
  0
VERTEX
  5
B3247
  8
ASHADE
 10
-0.146931
 20
2.4149199999999991
 30
0.00133099
  0
VERTEX
  5
B3248
  8
ASHADE
 10
-0.14627
 20
2.4124599999999981
 30
0.00133099
  0
VERTEX
  5
B3249
  8
ASHADE
 10
-0.145517
 20
2.4100199999999981
 30
0.00133099
  0
VERTEX
  5
B324A
  8
ASHADE
 10
-0.144671
 20
2.407589999999999
 30
0.00133099
  0
VERTEX
  5
B324B
  8
ASHADE
 10
-0.143734
 20
2.4051800000000001
 30
0.00133099
  0
VERTEX
  5
B324C
  8
ASHADE
 10
-0.142707
 20
2.4027899999999991
 30
0.00133099
  0
VERTEX
  5
B324D
  8
ASHADE
 10
-0.141589
 20
2.400409999999999
 30
0.00133099
  0
VERTEX
  5
B324E
  8
ASHADE
 10
-0.140382
 20
2.39805
 30
0.00133099
  0
VERTEX
  5
B324F
  8
ASHADE
 10
-0.139086
 20
2.395709999999998
 30
0.00133099
  0
VERTEX
  5
B3250
  8
ASHADE
 10
-0.137703
 20
2.3934000000000002
 30
0.00133099
  0
VERTEX
  5
B3251
  8
ASHADE
 10
-0.136232
 20
2.391099999999998
 30
0.00133099
  0
VERTEX
  5
B3252
  8
ASHADE
 10
-0.134676
 20
2.3888400000000001
 30
0.00133099
  0
VERTEX
  5
B3253
  8
ASHADE
 10
-0.133034
 20
2.3866000000000001
 30
0.00133099
  0
VERTEX
  5
B3254
  8
ASHADE
 10
-0.131308
 20
2.384389999999998
 30
0.00133099
  0
VERTEX
  5
B3255
  8
ASHADE
 10
-0.1295
 20
2.3822000000000001
 30
0.00133099
  0
VERTEX
  5
B3256
  8
ASHADE
 10
-0.127609
 20
2.3800500000000002
 30
0.00133099
  0
VERTEX
  5
B3257
  8
ASHADE
 10
-0.125639
 20
2.3779400000000002
 30
0.00133099
  0
VERTEX
  5
B3258
  8
ASHADE
 10
-0.123588
 20
2.375849999999998
 30
0.00133099
  0
VERTEX
  5
B3259
  8
ASHADE
 10
-0.12146
 20
2.3738000000000001
 30
0.00133099
  0
VERTEX
  5
B325A
  8
ASHADE
 10
-0.119255
 20
2.3717899999999981
 30
0.00133099
  0
VERTEX
  5
B325B
  8
ASHADE
 10
-0.116974
 20
2.3698099999999971
 30
0.00133099
  0
VERTEX
  5
B325C
  8
ASHADE
 10
-0.11462
 20
2.367869999999999
 30
0.00133099
  0
VERTEX
  5
B325D
  8
ASHADE
 10
-0.112194
 20
2.3659799999999991
 30
0.00133099
  0
VERTEX
  5
B325E
  8
ASHADE
 10
-0.109696
 20
2.3641200000000002
 30
0.00133099
  0
VERTEX
  5
B325F
  8
ASHADE
 10
-0.107129
 20
2.362309999999999
 30
0.00133099
  0
VERTEX
  5
B3260
  8
ASHADE
 10
-0.104495
 20
2.3605399999999981
 30
0.00133099
  0
VERTEX
  5
B3261
  8
ASHADE
 10
-0.101794
 20
2.3588100000000001
 30
0.00133099
  0
VERTEX
  5
B3262
  8
ASHADE
 10
-0.0990297
 20
2.3571299999999971
 30
0.00133099
  0
VERTEX
  5
B3263
  8
ASHADE
 10
-0.0962025
 20
2.3555000000000001
 30
0.00133099
  0
VERTEX
  5
B3264
  8
ASHADE
 10
-0.0933145
 20
2.3539099999999991
 30
0.00133099
  0
VERTEX
  5
B3265
  8
ASHADE
 10
-0.0903675
 20
2.3523700000000001
 30
0.00133099
  0
VERTEX
  5
B3266
  8
ASHADE
 10
-0.0873635
 20
2.3508900000000001
 30
0.00133099
  0
VERTEX
  5
B3267
  8
ASHADE
 10
-0.0843043
 20
2.34945
 30
0.00133099
  0
VERTEX
  5
B3268
  8
ASHADE
 10
-0.0811919
 20
2.3480699999999981
 30
0.00133099
  0
VERTEX
  5
B3269
  8
ASHADE
 10
-0.0780282
 20
2.34674
 30
0.00133099
  0
VERTEX
  5
B326A
  8
ASHADE
 10
-0.0748152
 20
2.3454599999999992
 30
0.00133099
  0
VERTEX
  5
B326B
  8
ASHADE
 10
-0.0715549
 20
2.34423
 30
0.00133099
  0
VERTEX
  5
B326C
  8
ASHADE
 10
-0.0682495
 20
2.343059999999999
 30
0.00133099
  0
VERTEX
  5
B326D
  8
ASHADE
 10
-0.064901
 20
2.3419500000000002
 30
0.00133099
  0
VERTEX
  5
B326E
  8
ASHADE
 10
-0.0615115
 20
2.340889999999999
 30
0.00133099
  0
VERTEX
  5
B326F
  8
ASHADE
 10
-0.0580831
 20
2.33989
 30
0.00133099
  0
VERTEX
  5
B3270
  8
ASHADE
 10
-0.054618
 20
2.3389500000000001
 30
0.00133099
  0
VERTEX
  5
B3271
  8
ASHADE
 10
-0.0511185
 20
2.33806
 30
0.00133099
  0
VERTEX
  5
B3272
  8
ASHADE
 10
-0.0475867
 20
2.3372399999999991
 30
0.00133099
  0
VERTEX
  5
B3273
  8
ASHADE
 10
-0.0440248
 20
2.336469999999998
 30
0.00133099
  0
VERTEX
  5
B3274
  8
ASHADE
 10
-0.0404351
 20
2.3357600000000001
 30
0.00133099
  0
VERTEX
  5
B3275
  8
ASHADE
 10
-0.0368199
 20
2.3351199999999981
 30
0.00133099
  0
VERTEX
  5
B3276
  8
ASHADE
 10
-0.0331814
 20
2.3345299999999991
 30
0.00133099
  0
VERTEX
  5
B3277
  8
ASHADE
 10
-0.029522
 20
2.334009999999997
 30
0.00133099
  0
VERTEX
  5
B3278
  8
ASHADE
 10
-0.0258439
 20
2.333549999999998
 30
0.00133099
  0
VERTEX
  5
B3279
  8
ASHADE
 10
-0.0221495
 20
2.3331400000000002
 30
0.00133099
  0
VERTEX
  5
B327A
  8
ASHADE
 10
-0.0184411
 20
2.3328000000000002
 30
0.00133099
  0
VERTEX
  5
B327B
  8
ASHADE
 10
-0.0147211
 20
2.3325299999999971
 30
0.00133099
  0
VERTEX
  5
B327C
  8
ASHADE
 10
-0.0109918
 20
2.3323099999999992
 30
0.00133099
  0
VERTEX
  5
B327D
  8
ASHADE
 10
-0.00725551
 20
2.33216
 30
0.00133099
  0
VERTEX
  5
B327E
  8
ASHADE
 10
-0.00351466
 20
2.3320699999999981
 30
0.00133099
  0
VERTEX
  5
B327F
  8
ASHADE
 10
0.000228416
 20
2.3320400000000001
 30
0.00133099
  0
VERTEX
  5
B3280
  8
ASHADE
 10
0.00397134
 20
2.332079999999999
 30
0.00133099
  0
VERTEX
  5
B3281
  8
ASHADE
 10
0.00771176
 20
2.3321700000000001
 30
0.00133099
  0
VERTEX
  5
B3282
  8
ASHADE
 10
0.0114473
 20
2.332329999999998
 30
0.00133099
  0
VERTEX
  5
B3283
  8
ASHADE
 10
0.0151756
 20
2.3325599999999991
 30
0.00133099
  0
VERTEX
  5
B3284
  8
ASHADE
 10
0.0188944
 20
2.33284
 30
0.00133099
  0
VERTEX
  5
B3285
  8
ASHADE
 10
0.0226012
 20
2.3331900000000001
 30
0.00133099
  0
VERTEX
  5
B3286
  8
ASHADE
 10
0.0262937
 20
2.3336000000000001
 30
0.00133099
  0
VERTEX
  5
B3287
  8
ASHADE
 10
0.0299696
 20
2.3340700000000001
 30
0.00133099
  0
VERTEX
  5
B3288
  8
ASHADE
 10
0.0336266
 20
2.3346
 30
0.00133099
  0
VERTEX
  5
B3289
  8
ASHADE
 10
0.0372624
 20
2.3351899999999981
 30
0.00133099
  0
VERTEX
  5
B328A
  8
ASHADE
 10
0.0408746
 20
2.3358500000000002
 30
0.00133099
  0
VERTEX
  5
B328B
  8
ASHADE
 10
0.044461
 20
2.3365599999999991
 30
0.00133099
  0
VERTEX
  5
B328C
  8
ASHADE
 10
0.0480193
 20
2.3373400000000002
 30
0.00133099
  0
VERTEX
  5
B328D
  8
ASHADE
 10
0.0515474
 20
2.3381699999999981
 30
0.00133099
  0
VERTEX
  5
B328E
  8
ASHADE
 10
0.0550428
 20
2.339059999999999
 30
0.00133099
  0
VERTEX
  5
B328F
  8
ASHADE
 10
0.0585035
 20
2.340009999999999
 30
0.00133099
  0
VERTEX
  5
B3290
  8
ASHADE
 10
0.0619272
 20
2.3410199999999981
 30
0.00133099
  0
VERTEX
  5
B3291
  8
ASHADE
 10
0.0653119
 20
2.3420799999999971
 30
0.00133099
  0
VERTEX
  5
B3292
  8
ASHADE
 10
0.0686552
 20
2.3431999999999991
 30
0.00133099
  0
VERTEX
  5
B3293
  8
ASHADE
 10
0.0719553
 20
2.3443800000000001
 30
0.00133099
  0
VERTEX
  5
B3294
  8
ASHADE
 10
0.0752098
 20
2.3456099999999971
 30
0.00133099
  0
VERTEX
  5
B3295
  8
ASHADE
 10
0.0784169
 20
2.3468900000000001
 30
0.00133099
  0
VERTEX
  5
B3296
  8
ASHADE
 10
0.0815745
 20
2.34823
 30
0.00133099
  0
VERTEX
  5
B3297
  8
ASHADE
 10
0.0846805
 20
2.349619999999998
 30
0.00133099
  0
VERTEX
  5
B3298
  8
ASHADE
 10
0.0877331
 20
2.3510699999999991
 30
0.00133099
  0
VERTEX
  5
B3299
  8
ASHADE
 10
0.0907302
 20
2.3525599999999991
 30
0.00133099
  0
VERTEX
  5
B329A
  8
ASHADE
 10
0.0936701
 20
2.3540999999999981
 30
0.00133099
  0
VERTEX
  5
B329B
  8
ASHADE
 10
0.0965508
 20
2.3556900000000001
 30
0.00133099
  0
VERTEX
  5
B329C
  8
ASHADE
 10
0.0993705
 20
2.3573300000000001
 30
0.00133099
  0
VERTEX
  5
B329D
  8
ASHADE
 10
0.102127
 20
2.3590200000000001
 30
0.00133099
  0
VERTEX
  5
B329E
  8
ASHADE
 10
0.10482
 20
2.360749999999999
 30
0.00133099
  0
VERTEX
  5
B329F
  8
ASHADE
 10
0.107446
 20
2.3625199999999991
 30
0.00133099
  0
VERTEX
  5
B32A0
  8
ASHADE
 10
0.110005
 20
2.3643399999999981
 30
0.00133099
  0
VERTEX
  5
B32A1
  8
ASHADE
 10
0.112494
 20
2.366209999999997
 30
0.00133099
  0
VERTEX
  5
B32A2
  8
ASHADE
 10
0.114911
 20
2.3681099999999971
 30
0.00133099
  0
VERTEX
  5
B32A3
  8
ASHADE
 10
0.117257
 20
2.3700499999999991
 30
0.00133099
  0
VERTEX
  5
B32A4
  8
ASHADE
 10
0.119528
 20
2.3720300000000001
 30
0.00133099
  0
VERTEX
  5
B32A5
  8
ASHADE
 10
0.121724
 20
2.3740499999999991
 30
0.00133099
  0
VERTEX
  5
B32A6
  8
ASHADE
 10
0.123843
 20
2.3761000000000001
 30
0.00133099
  0
VERTEX
  5
B32A7
  8
ASHADE
 10
0.125883
 20
2.37819
 30
0.00133099
  0
VERTEX
  5
B32A8
  8
ASHADE
 10
0.127845
 20
2.380309999999997
 30
0.00133099
  0
VERTEX
  5
B32A9
  8
ASHADE
 10
0.129725
 20
2.3824700000000001
 30
0.00133099
  0
VERTEX
  5
B32AA
  8
ASHADE
 10
0.131523
 20
2.3846500000000002
 30
0.00133099
  0
VERTEX
  5
B32AB
  8
ASHADE
 10
0.133239
 20
2.38687
 30
0.00133099
  0
VERTEX
  5
B32AC
  8
ASHADE
 10
0.13487
 20
2.3891100000000001
 30
0.00133099
  0
VERTEX
  5
B32AD
  8
ASHADE
 10
0.136416
 20
2.3913799999999981
 30
0.00133099
  0
VERTEX
  5
B32AE
  8
ASHADE
 10
0.137876
 20
2.393679999999998
 30
0.00133099
  0
VERTEX
  5
B32AF
  8
ASHADE
 10
0.139249
 20
2.3959899999999981
 30
0.00133099
  0
VERTEX
  5
B32B0
  8
ASHADE
 10
0.140534
 20
2.3983400000000001
 30
0.00133099
  0
VERTEX
  5
B32B1
  8
ASHADE
 10
0.14173
 20
2.4007000000000001
 30
0.00133099
  0
VERTEX
  5
B32B2
  8
ASHADE
 10
0.142837
 20
2.4030800000000001
 30
0.00133099
  0
VERTEX
  5
B32B3
  8
ASHADE
 10
0.143854
 20
2.4054799999999981
 30
0.00133099
  0
VERTEX
  5
B32B4
  8
ASHADE
 10
0.144779
 20
2.4078900000000001
 30
0.00133099
  0
VERTEX
  5
B32B5
  8
ASHADE
 10
0.145613
 20
2.41032
 30
0.00133099
  0
VERTEX
  5
B32B6
  8
ASHADE
 10
0.146356
 20
2.41276
 30
0.00133099
  0
VERTEX
  5
B32B7
  8
ASHADE
 10
0.147005
 20
2.4152200000000001
 30
0.00133099
  0
VERTEX
  5
B32B8
  8
ASHADE
 10
0.147562
 20
2.4176799999999981
 30
0.00133099
  0
VERTEX
  5
B32B9
  8
ASHADE
 10
0.148026
 20
2.42015
 30
0.00133099
  0
VERTEX
  5
B32BA
  8
ASHADE
 10
0.148396
 20
2.4226299999999981
 30
0.00133099
  0
VERTEX
  5
B32BB
  8
ASHADE
 10
0.148673
 20
2.4251200000000002
 30
0.00133099
  0
VERTEX
  5
B32BC
  8
ASHADE
 10
0.148856
 20
2.42761
 30
0.00133099
  0
VERTEX
  5
B32BD
  8
ASHADE
 10
0.148944
 20
2.430099999999999
 30
0.00133099
  0
VERTEX
  5
B32BE
  8
ASHADE
 10
0.148939
 20
2.432589999999998
 30
0.00133099
  0
VERTEX
  5
B32BF
  8
ASHADE
 10
0.148839
 20
2.4350800000000001
 30
0.00133099
  0
SEQEND
  5
B32C0
  8
ASHADE
  0
POLYLINE
  5
B21EE
  8
ASHADE
 66
     1
 10
0.0
 20
0.0
 30
0.00109623
  0
VERTEX
  5
B32C1
  8
ASHADE
 10
-0.172508
 20
2.3921299999999981
 30
0.00109623
  0
VERTEX
  5
B32C2
  8
ASHADE
 10
-0.177688
 20
2.38795
 30
0.00109623
  0
VERTEX
  5
B32C3
  8
ASHADE
 10
-0.182643
 20
2.383659999999999
 30
0.00109623
  0
VERTEX
  5
B32C4
  8
ASHADE
 10
-0.187366
 20
2.379239999999998
 30
0.00109623
  0
VERTEX
  5
B32C5
  8
ASHADE
 10
-0.191851
 20
2.3747199999999991
 30
0.00109623
  0
VERTEX
  5
B32C6
  8
ASHADE
 10
-0.196092
 20
2.3700999999999981
 30
0.00109623
  0
VERTEX
  5
B32C7
  8
ASHADE
 10
-0.200085
 20
2.3653699999999991
 30
0.00109623
  0
VERTEX
  5
B32C8
  8
ASHADE
 10
-0.203823
 20
2.3605599999999991
 30
0.00109623
  0
VERTEX
  5
B32C9
  8
ASHADE
 10
-0.207302
 20
2.355649999999998
 30
0.00109623
  0
VERTEX
  5
B32CA
  8
ASHADE
 10
-0.210518
 20
2.35067
 30
0.00109623
  0
VERTEX
  5
B32CB
  8
ASHADE
 10
-0.213467
 20
2.345619999999998
 30
0.00109623
  0
VERTEX
  5
B32CC
  8
ASHADE
 10
-0.216145
 20
2.3404899999999991
 30
0.00109623
  0
VERTEX
  5
B32CD
  8
ASHADE
 10
-0.218548
 20
2.3353099999999971
 30
0.00109623
  0
VERTEX
  5
B32CE
  8
ASHADE
 10
-0.220674
 20
2.3300700000000001
 30
0.00109623
  0
VERTEX
  5
B32CF
  8
ASHADE
 10
-0.222519
 20
2.3247900000000001
 30
0.00109623
  0
VERTEX
  5
B32D0
  8
ASHADE
 10
-0.224082
 20
2.3194599999999981
 30
0.00109623
  0
VERTEX
  5
B32D1
  8
ASHADE
 10
-0.22536
 20
2.314099999999998
 30
0.00109623
  0
VERTEX
  5
B32D2
  8
ASHADE
 10
-0.226352
 20
2.3087200000000001
 30
0.00109623
  0
VERTEX
  5
B32D3
  8
ASHADE
 10
-0.227057
 20
2.3033099999999971
 30
0.00109623
  0
VERTEX
  5
B32D4
  8
ASHADE
 10
-0.227473
 20
2.2978900000000002
 30
0.00109623
  0
VERTEX
  5
B32D5
  8
ASHADE
 10
-0.227601
 20
2.2924599999999971
 30
0.00109623
  0
VERTEX
  5
B32D6
  8
ASHADE
 10
-0.227439
 20
2.2870400000000002
 30
0.00109623
  0
VERTEX
  5
B32D7
  8
ASHADE
 10
-0.226989
 20
2.2816200000000002
 30
0.00109623
  0
VERTEX
  5
B32D8
  8
ASHADE
 10
-0.22625
 20
2.2762099999999981
 30
0.00109623
  0
VERTEX
  5
B32D9
  8
ASHADE
 10
-0.225224
 20
2.2708300000000001
 30
0.00109623
  0
VERTEX
  5
B32DA
  8
ASHADE
 10
-0.223912
 20
2.2654700000000001
 30
0.00109623
  0
VERTEX
  5
B32DB
  8
ASHADE
 10
-0.222316
 20
2.2601499999999981
 30
0.00109623
  0
VERTEX
  5
B32DC
  8
ASHADE
 10
-0.220437
 20
2.254869999999999
 30
0.00109623
  0
VERTEX
  5
B32DD
  8
ASHADE
 10
-0.218278
 20
2.2496399999999981
 30
0.00109623
  0
VERTEX
  5
B32DE
  8
ASHADE
 10
-0.215843
 20
2.244459999999997
 30
0.00109623
  0
VERTEX
  5
B32DF
  8
ASHADE
 10
-0.213133
 20
2.2393499999999991
 30
0.00109623
  0
VERTEX
  5
B32E0
  8
ASHADE
 10
-0.210152
 20
2.2343000000000002
 30
0.00109623
  0
VERTEX
  5
B32E1
  8
ASHADE
 10
-0.206905
 20
2.22933
 30
0.00109623
  0
VERTEX
  5
B32E2
  8
ASHADE
 10
-0.203394
 20
2.2244399999999991
 30
0.00109623
  0
VERTEX
  5
B32E3
  8
ASHADE
 10
-0.199626
 20
2.2196299999999991
 30
0.00109623
  0
VERTEX
  5
B32E4
  8
ASHADE
 10
-0.195604
 20
2.2149200000000002
 30
0.00109623
  0
VERTEX
  5
B32E5
  8
ASHADE
 10
-0.191333
 20
2.2103000000000002
 30
0.00109623
  0
VERTEX
  5
B32E6
  8
ASHADE
 10
-0.18682
 20
2.205789999999999
 30
0.00109623
  0
VERTEX
  5
B32E7
  8
ASHADE
 10
-0.182069
 20
2.2014
 30
0.00109623
  0
VERTEX
  5
B32E8
  8
ASHADE
 10
-0.177087
 20
2.197109999999999
 30
0.00109623
  0
VERTEX
  5
B32E9
  8
ASHADE
 10
-0.171881
 20
2.1929500000000002
 30
0.00109623
  0
VERTEX
  5
B32EA
  8
ASHADE
 10
-0.166456
 20
2.1889199999999991
 30
0.00109623
  0
VERTEX
  5
B32EB
  8
ASHADE
 10
-0.160819
 20
2.185009999999997
 30
0.00109623
  0
VERTEX
  5
B32EC
  8
ASHADE
 10
-0.154979
 20
2.181249999999999
 30
0.00109623
  0
VERTEX
  5
B32ED
  8
ASHADE
 10
-0.148941
 20
2.1776200000000001
 30
0.00109623
  0
VERTEX
  5
B32EE
  8
ASHADE
 10
-0.142714
 20
2.17415
 30
0.00109623
  0
VERTEX
  5
B32EF
  8
ASHADE
 10
-0.136307
 20
2.1708199999999991
 30
0.00109623
  0
VERTEX
  5
B32F0
  8
ASHADE
 10
-0.129726
 20
2.1676500000000001
 30
0.00109623
  0
VERTEX
  5
B32F1
  8
ASHADE
 10
-0.12298
 20
2.1646299999999981
 30
0.00109623
  0
VERTEX
  5
B32F2
  8
ASHADE
 10
-0.116078
 20
2.161779999999998
 30
0.00109623
  0
VERTEX
  5
B32F3
  8
ASHADE
 10
-0.109029
 20
2.1591
 30
0.00109623
  0
VERTEX
  5
B32F4
  8
ASHADE
 10
-0.101841
 20
2.1565799999999991
 30
0.00109623
  0
VERTEX
  5
B32F5
  8
ASHADE
 10
-0.0945242
 20
2.1542400000000002
 30
0.00109623
  0
VERTEX
  5
B32F6
  8
ASHADE
 10
-0.0870871
 20
2.1520799999999971
 30
0.00109623
  0
VERTEX
  5
B32F7
  8
ASHADE
 10
-0.0795394
 20
2.1500900000000001
 30
0.00109623
  0
VERTEX
  5
B32F8
  8
ASHADE
 10
-0.0718907
 20
2.148289999999998
 30
0.00109623
  0
VERTEX
  5
B32F9
  8
ASHADE
 10
-0.0641508
 20
2.146659999999998
 30
0.00109623
  0
VERTEX
  5
B32FA
  8
ASHADE
 10
-0.0563293
 20
2.1452299999999971
 30
0.00109623
  0
VERTEX
  5
B32FB
  8
ASHADE
 10
-0.0484363
 20
2.1439799999999991
 30
0.00109623
  0
VERTEX
  5
B32FC
  8
ASHADE
 10
-0.0404818
 20
2.1429200000000002
 30
0.00109623
  0
VERTEX
  5
B32FD
  8
ASHADE
 10
-0.0324759
 20
2.142049999999998
 30
0.00109623
  0
VERTEX
  5
B32FE
  8
ASHADE
 10
-0.0244288
 20
2.1413700000000002
 30
0.00109623
  0
VERTEX
  5
B32FF
  8
ASHADE
 10
-0.0163506
 20
2.1408800000000001
 30
0.00109623
  0
VERTEX
  5
B3300
  8
ASHADE
 10
-0.00825171
 20
2.1405899999999991
 30
0.00109623
  0
VERTEX
  5
B3301
  8
ASHADE
 10
-0.000142305
 20
2.140489999999998
 30
0.00109623
  0
VERTEX
  5
B3302
  8
ASHADE
 10
0.00796728
 20
2.140579999999999
 30
0.00109623
  0
VERTEX
  5
B3303
  8
ASHADE
 10
0.0160668
 20
2.1408700000000001
 30
0.00109623
  0
VERTEX
  5
B3304
  8
ASHADE
 10
0.0241458
 20
2.1413500000000001
 30
0.00109623
  0
VERTEX
  5
B3305
  8
ASHADE
 10
0.0321942
 20
2.14202
 30
0.00109623
  0
VERTEX
  5
B3306
  8
ASHADE
 10
0.0402017
 20
2.142879999999999
 30
0.00109623
  0
VERTEX
  5
B3307
  8
ASHADE
 10
0.0481582
 20
2.1439400000000002
 30
0.00109623
  0
VERTEX
  5
B3308
  8
ASHADE
 10
0.0560535
 20
2.1451799999999981
 30
0.00109623
  0
VERTEX
  5
B3309
  8
ASHADE
 10
0.0638776
 20
2.146609999999999
 30
0.00109623
  0
VERTEX
  5
B330A
  8
ASHADE
 10
0.0716207
 20
2.1482299999999981
 30
0.00109623
  0
VERTEX
  5
B330B
  8
ASHADE
 10
0.0792727
 20
2.15002
 30
0.00109623
  0
VERTEX
  5
B330C
  8
ASHADE
 10
0.0868241
 20
2.1520000000000001
 30
0.00109623
  0
VERTEX
  5
B330D
  8
ASHADE
 10
0.0942652
 20
2.1541600000000001
 30
0.00109623
  0
VERTEX
  5
B330E
  8
ASHADE
 10
0.101587
 20
2.1564999999999981
 30
0.00109623
  0
VERTEX
  5
B330F
  8
ASHADE
 10
0.108779
 20
2.1590099999999981
 30
0.00109623
  0
VERTEX
  5
B3310
  8
ASHADE
 10
0.115833
 20
2.1616900000000001
 30
0.00109623
  0
VERTEX
  5
B3311
  8
ASHADE
 10
0.12274
 20
2.1645300000000001
 30
0.00109623
  0
VERTEX
  5
B3312
  8
ASHADE
 10
0.129492
 20
2.167539999999998
 30
0.00109623
  0
VERTEX
  5
B3313
  8
ASHADE
 10
0.136079
 20
2.170709999999997
 30
0.00109623
  0
VERTEX
  5
B3314
  8
ASHADE
 10
0.142493
 20
2.1740300000000001
 30
0.00109623
  0
VERTEX
  5
B3315
  8
ASHADE
 10
0.148726
 20
2.1775000000000002
 30
0.00109623
  0
VERTEX
  5
B3316
  8
ASHADE
 10
0.15477
 20
2.1811199999999991
 30
0.00109623
  0
VERTEX
  5
B3317
  8
ASHADE
 10
0.160618
 20
2.184879999999997
 30
0.00109623
  0
VERTEX
  5
B3318
  8
ASHADE
 10
0.166261
 20
2.1887799999999991
 30
0.00109623
  0
VERTEX
  5
B3319
  8
ASHADE
 10
0.171694
 20
2.192809999999997
 30
0.00109623
  0
VERTEX
  5
B331A
  8
ASHADE
 10
0.176908
 20
2.196959999999998
 30
0.00109623
  0
VERTEX
  5
B331B
  8
ASHADE
 10
0.181898
 20
2.2012399999999981
 30
0.00109623
  0
VERTEX
  5
B331C
  8
ASHADE
 10
0.186657
 20
2.205639999999998
 30
0.00109623
  0
VERTEX
  5
B331D
  8
ASHADE
 10
0.191179
 20
2.2101399999999991
 30
0.00109623
  0
VERTEX
  5
B331E
  8
ASHADE
 10
0.195458
 20
2.2147499999999991
 30
0.00109623
  0
VERTEX
  5
B331F
  8
ASHADE
 10
0.199489
 20
2.2194599999999971
 30
0.00109623
  0
VERTEX
  5
B3320
  8
ASHADE
 10
0.203266
 20
2.2242700000000002
 30
0.00109623
  0
VERTEX
  5
B3321
  8
ASHADE
 10
0.206786
 20
2.229159999999998
 30
0.00109623
  0
VERTEX
  5
B3322
  8
ASHADE
 10
0.210043
 20
2.2341299999999991
 30
0.00109623
  0
VERTEX
  5
B3323
  8
ASHADE
 10
0.213033
 20
2.2391700000000001
 30
0.00109623
  0
VERTEX
  5
B3324
  8
ASHADE
 10
0.215752
 20
2.2442799999999981
 30
0.00109623
  0
VERTEX
  5
B3325
  8
ASHADE
 10
0.218198
 20
2.24946
 30
0.00109623
  0
VERTEX
  5
B3326
  8
ASHADE
 10
0.220366
 20
2.2546900000000001
 30
0.00109623
  0
VERTEX
  5
B3327
  8
ASHADE
 10
0.222255
 20
2.25997
 30
0.00109623
  0
VERTEX
  5
B3328
  8
ASHADE
 10
0.223861
 20
2.265289999999998
 30
0.00109623
  0
VERTEX
  5
B3329
  8
ASHADE
 10
0.225183
 20
2.2706400000000002
 30
0.00109623
  0
VERTEX
  5
B332A
  8
ASHADE
 10
0.226219
 20
2.276019999999999
 30
0.00109623
  0
VERTEX
  5
B332B
  8
ASHADE
 10
0.226968
 20
2.2814299999999981
 30
0.00109623
  0
VERTEX
  5
B332C
  8
ASHADE
 10
0.227428
 20
2.2868499999999981
 30
0.00109623
  0
VERTEX
  5
B332D
  8
ASHADE
 10
0.2276
 20
2.292269999999998
 30
0.00109623
  0
VERTEX
  5
B332E
  8
ASHADE
 10
0.227483
 20
2.2976999999999981
 30
0.00109623
  0
VERTEX
  5
B332F
  8
ASHADE
 10
0.227077
 20
2.3031199999999981
 30
0.00109623
  0
VERTEX
  5
B3330
  8
ASHADE
 10
0.226382
 20
2.3085299999999971
 30
0.00109623
  0
VERTEX
  5
B3331
  8
ASHADE
 10
0.2254
 20
2.313909999999999
 30
0.00109623
  0
VERTEX
  5
B3332
  8
ASHADE
 10
0.224132
 20
2.3192699999999991
 30
0.00109623
  0
VERTEX
  5
B3333
  8
ASHADE
 10
0.222579
 20
2.3246000000000002
 30
0.00109623
  0
VERTEX
  5
B3334
  8
ASHADE
 10
0.220743
 20
2.329889999999998
 30
0.00109623
  0
VERTEX
  5
B3335
  8
ASHADE
 10
0.218627
 20
2.335129999999999
 30
0.00109623
  0
VERTEX
  5
B3336
  8
ASHADE
 10
0.216234
 20
2.340309999999997
 30
0.00109623
  0
VERTEX
  5
B3337
  8
ASHADE
 10
0.213566
 20
2.3454399999999991
 30
0.00109623
  0
VERTEX
  5
B3338
  8
ASHADE
 10
0.210626
 20
2.3504900000000002
 30
0.00109623
  0
VERTEX
  5
B3339
  8
ASHADE
 10
0.20742
 20
2.35548
 30
0.00109623
  0
VERTEX
  5
B333A
  8
ASHADE
 10
0.203949
 20
2.3603900000000002
 30
0.00109623
  0
VERTEX
  5
B333B
  8
ASHADE
 10
0.20022
 20
2.3652000000000002
 30
0.00109623
  0
VERTEX
  5
B333C
  8
ASHADE
 10
0.196237
 20
2.3699300000000001
 30
0.00109623
  0
VERTEX
  5
B333D
  8
ASHADE
 10
0.192004
 20
2.374559999999998
 30
0.00109623
  0
VERTEX
  5
B333E
  8
ASHADE
 10
0.187528
 20
2.3790900000000001
 30
0.00109623
  0
VERTEX
  5
B333F
  8
ASHADE
 10
0.182813
 20
2.3835000000000002
 30
0.00109623
  0
VERTEX
  5
B3340
  8
ASHADE
 10
0.177866
 20
2.387799999999999
 30
0.00109623
  0
VERTEX
  5
B3341
  8
ASHADE
 10
0.172693
 20
2.3919799999999971
 30
0.00109623
  0
SEQEND
  5
B3342
  8
ASHADE
  0
POLYLINE
  5
B226E
  8
ASHADE
 66
     1
 10
0.0
 20
0.0
 30
0.00130237
  0
VERTEX
  5
B3343
  8
ASHADE
 10
-0.417198
 20
2.6801699999999991
 30
0.00130237
  0
VERTEX
  5
B3344
  8
ASHADE
 10
-0.417073
 20
2.6737199999999981
 30
0.00130237
  0
VERTEX
  5
B3345
  8
ASHADE
 10
-0.416697
 20
2.6672799999999981
 30
0.00130237
  0
VERTEX
  5
B3346
  8
ASHADE
 10
-0.4160700000000002
 20
2.660849999999999
 30
0.00130237
  0
VERTEX
  5
B3347
  8
ASHADE
 10
-0.4151930000000001
 20
2.6544300000000001
 30
0.00130237
  0
VERTEX
  5
B3348
  8
ASHADE
 10
-0.414066
 20
2.648019999999998
 30
0.00130237
  0
VERTEX
  5
B3349
  8
ASHADE
 10
-0.41269
 20
2.6416400000000002
 30
0.00130237
  0
VERTEX
  5
B334A
  8
ASHADE
 10
-0.4110660000000001
 20
2.6352799999999981
 30
0.00130237
  0
VERTEX
  5
B334B
  8
ASHADE
 10
-0.4091940000000001
 20
2.6289400000000001
 30
0.00130237
  0
VERTEX
  5
B334C
  8
ASHADE
 10
-0.4070770000000001
 20
2.6226400000000001
 30
0.00130237
  0
VERTEX
  5
B334D
  8
ASHADE
 10
-0.4047150000000002
 20
2.6163699999999981
 30
0.00130237
  0
VERTEX
  5
B334E
  8
ASHADE
 10
-0.402109
 20
2.6101299999999981
 30
0.00130237
  0
VERTEX
  5
B334F
  8
ASHADE
 10
-0.399262
 20
2.6039400000000001
 30
0.00130237
  0
VERTEX
  5
B3350
  8
ASHADE
 10
-0.396174
 20
2.5977999999999981
 30
0.00130237
  0
VERTEX
  5
B3351
  8
ASHADE
 10
-0.392848
 20
2.5917099999999991
 30
0.00130237
  0
VERTEX
  5
B3352
  8
ASHADE
 10
-0.389286
 20
2.585669999999999
 30
0.00130237
  0
VERTEX
  5
B3353
  8
ASHADE
 10
-0.38549
 20
2.5796799999999971
 30
0.00130237
  0
VERTEX
  5
B3354
  8
ASHADE
 10
-0.381462
 20
2.57376
 30
0.00130237
  0
VERTEX
  5
B3355
  8
ASHADE
 10
-0.377204
 20
2.5678999999999981
 30
0.00130237
  0
VERTEX
  5
B3356
  8
ASHADE
 10
-0.37272
 20
2.5621099999999992
 30
0.00130237
  0
VERTEX
  5
B3357
  8
ASHADE
 10
-0.368012
 20
2.5563899999999991
 30
0.00130237
  0
VERTEX
  5
B3358
  8
ASHADE
 10
-0.363082
 20
2.550739999999998
 30
0.00130237
  0
VERTEX
  5
B3359
  8
ASHADE
 10
-0.357934
 20
2.5451799999999971
 30
0.00130237
  0
VERTEX
  5
B335A
  8
ASHADE
 10
-0.352571
 20
2.539689999999998
 30
0.00130237
  0
VERTEX
  5
B335B
  8
ASHADE
 10
-0.346996
 20
2.534289999999999
 30
0.00130237
  0
VERTEX
  5
B335C
  8
ASHADE
 10
-0.341212
 20
2.5289700000000002
 30
0.00130237
  0
VERTEX
  5
B335D
  8
ASHADE
 10
-0.335223
 20
2.5237500000000002
 30
0.00130237
  0
VERTEX
  5
B335E
  8
ASHADE
 10
-0.329032
 20
2.5186199999999981
 30
0.00130237
  0
VERTEX
  5
B335F
  8
ASHADE
 10
-0.322644
 20
2.5135900000000002
 30
0.00130237
  0
VERTEX
  5
B3360
  8
ASHADE
 10
-0.316062
 20
2.508659999999999
 30
0.00130237
  0
VERTEX
  5
B3361
  8
ASHADE
 10
-0.309289
 20
2.503829999999998
 30
0.00130237
  0
VERTEX
  5
B3362
  8
ASHADE
 10
-0.302331
 20
2.4991099999999991
 30
0.00130237
  0
VERTEX
  5
B3363
  8
ASHADE
 10
-0.295191
 20
2.4944999999999991
 30
0.00130237
  0
VERTEX
  5
B3364
  8
ASHADE
 10
-0.287874
 20
2.4900000000000002
 30
0.00130237
  0
VERTEX
  5
B3365
  8
ASHADE
 10
-0.280383
 20
2.4856099999999981
 30
0.00130237
  0
VERTEX
  5
B3366
  8
ASHADE
 10
-0.272724
 20
2.4813399999999981
 30
0.00130237
  0
VERTEX
  5
B3367
  8
ASHADE
 10
-0.264902
 20
2.477189999999998
 30
0.00130237
  0
VERTEX
  5
B3368
  8
ASHADE
 10
-0.25692
 20
2.4731700000000001
 30
0.00130237
  0
VERTEX
  5
B3369
  8
ASHADE
 10
-0.248783
 20
2.4692699999999981
 30
0.00130237
  0
VERTEX
  5
B336A
  8
ASHADE
 10
-0.240497
 20
2.4654899999999991
 30
0.00130237
  0
VERTEX
  5
B336B
  8
ASHADE
 10
-0.232067
 20
2.46184
 30
0.00130237
  0
VERTEX
  5
B336C
  8
ASHADE
 10
-0.223497
 20
2.4583300000000001
 30
0.00130237
  0
VERTEX
  5
B336D
  8
ASHADE
 10
-0.214793
 20
2.4549500000000002
 30
0.00130237
  0
VERTEX
  5
B336E
  8
ASHADE
 10
-0.20596
 20
2.4517099999999981
 30
0.00130237
  0
VERTEX
  5
B336F
  8
ASHADE
 10
-0.197004
 20
2.4485999999999981
 30
0.00130237
  0
VERTEX
  5
B3370
  8
ASHADE
 10
-0.187929
 20
2.4456299999999991
 30
0.00130237
  0
VERTEX
  5
B3371
  8
ASHADE
 10
-0.178741
 20
2.4428000000000001
 30
0.00130237
  0
VERTEX
  5
B3372
  8
ASHADE
 10
-0.169446
 20
2.4401199999999981
 30
0.00130237
  0
VERTEX
  5
B3373
  8
ASHADE
 10
-0.160049
 20
2.4375800000000001
 30
0.00130237
  0
VERTEX
  5
B3374
  8
ASHADE
 10
-0.150557
 20
2.4351899999999991
 30
0.00130237
  0
VERTEX
  5
B3375
  8
ASHADE
 10
-0.140973
 20
2.4329399999999981
 30
0.00130237
  0
VERTEX
  5
B3376
  8
ASHADE
 10
-0.131306
 20
2.4308499999999991
 30
0.00130237
  0
VERTEX
  5
B3377
  8
ASHADE
 10
-0.12156
 20
2.4289000000000001
 30
0.00130237
  0
VERTEX
  5
B3378
  8
ASHADE
 10
-0.11174
 20
2.427099999999998
 30
0.00130237
  0
VERTEX
  5
B3379
  8
ASHADE
 10
-0.101854
 20
2.4254599999999971
 30
0.00130237
  0
VERTEX
  5
B337A
  8
ASHADE
 10
-0.0919074
 20
2.4239700000000002
 30
0.00130237
  0
VERTEX
  5
B337B
  8
ASHADE
 10
-0.0819054
 20
2.422639999999999
 30
0.00130237
  0
VERTEX
  5
B337C
  8
ASHADE
 10
-0.0718544
 20
2.4214599999999971
 30
0.00130237
  0
VERTEX
  5
B337D
  8
ASHADE
 10
-0.0617606
 20
2.4204400000000001
 30
0.00130237
  0
VERTEX
  5
B337E
  8
ASHADE
 10
-0.0516299
 20
2.4195700000000002
 30
0.00130237
  0
VERTEX
  5
B337F
  8
ASHADE
 10
-0.0414685
 20
2.41886
 30
0.00130237
  0
VERTEX
  5
B3380
  8
ASHADE
 10
-0.0312825
 20
2.418299999999999
 30
0.00130237
  0
VERTEX
  5
B3381
  8
ASHADE
 10
-0.0210781
 20
2.41791
 30
0.00130237
  0
VERTEX
  5
B3382
  8
ASHADE
 10
-0.0108614
 20
2.4176700000000002
 30
0.00130237
  0
VERTEX
  5
B3383
  8
ASHADE
 10
-0.000638444
 20
2.4175900000000001
 30
0.00130237
  0
VERTEX
  5
B3384
  8
ASHADE
 10
0.00958447
 20
2.4176700000000002
 30
0.00130237
  0
VERTEX
  5
B3385
  8
ASHADE
 10
0.0198012
 20
2.41791
 30
0.00130237
  0
VERTEX
  5
B3386
  8
ASHADE
 10
0.0300057
 20
2.418299999999999
 30
0.00130237
  0
VERTEX
  5
B3387
  8
ASHADE
 10
0.0401916
 20
2.41886
 30
0.00130237
  0
VERTEX
  5
B3388
  8
ASHADE
 10
0.050353
 20
2.4195700000000002
 30
0.00130237
  0
VERTEX
  5
B3389
  8
ASHADE
 10
0.0604837
 20
2.4204400000000001
 30
0.00130237
  0
VERTEX
  5
B338A
  8
ASHADE
 10
0.0705776
 20
2.4214599999999971
 30
0.00130237
  0
VERTEX
  5
B338B
  8
ASHADE
 10
0.0806285
 20
2.422639999999999
 30
0.00130237
  0
VERTEX
  5
B338C
  8
ASHADE
 10
0.0906305
 20
2.4239700000000002
 30
0.00130237
  0
VERTEX
  5
B338D
  8
ASHADE
 10
0.100578
 20
2.4254599999999971
 30
0.00130237
  0
VERTEX
  5
B338E
  8
ASHADE
 10
0.110464
 20
2.427099999999998
 30
0.00130237
  0
VERTEX
  5
B338F
  8
ASHADE
 10
0.120283
 20
2.4289000000000001
 30
0.00130237
  0
VERTEX
  5
B3390
  8
ASHADE
 10
0.130029
 20
2.4308499999999991
 30
0.00130237
  0
VERTEX
  5
B3391
  8
ASHADE
 10
0.139697
 20
2.4329399999999981
 30
0.00130237
  0
VERTEX
  5
B3392
  8
ASHADE
 10
0.14928
 20
2.4351899999999991
 30
0.00130237
  0
VERTEX
  5
B3393
  8
ASHADE
 10
0.158772
 20
2.4375800000000001
 30
0.00130237
  0
VERTEX
  5
B3394
  8
ASHADE
 10
0.168169
 20
2.4401199999999981
 30
0.00130237
  0
VERTEX
  5
B3395
  8
ASHADE
 10
0.177464
 20
2.4428000000000001
 30
0.00130237
  0
VERTEX
  5
B3396
  8
ASHADE
 10
0.186652
 20
2.4456299999999991
 30
0.00130237
  0
VERTEX
  5
B3397
  8
ASHADE
 10
0.195727
 20
2.4485999999999981
 30
0.00130237
  0
VERTEX
  5
B3398
  8
ASHADE
 10
0.204684
 20
2.4517099999999981
 30
0.00130237
  0
VERTEX
  5
B3399
  8
ASHADE
 10
0.213517
 20
2.4549500000000002
 30
0.00130237
  0
VERTEX
  5
B339A
  8
ASHADE
 10
0.222221
 20
2.4583300000000001
 30
0.00130237
  0
VERTEX
  5
B339B
  8
ASHADE
 10
0.23079
 20
2.46184
 30
0.00130237
  0
VERTEX
  5
B339C
  8
ASHADE
 10
0.239221
 20
2.4654899999999991
 30
0.00130237
  0
VERTEX
  5
B339D
  8
ASHADE
 10
0.247507
 20
2.4692699999999981
 30
0.00130237
  0
VERTEX
  5
B339E
  8
ASHADE
 10
0.255643
 20
2.4731700000000001
 30
0.00130237
  0
VERTEX
  5
B339F
  8
ASHADE
 10
0.263625
 20
2.477189999999998
 30
0.00130237
  0
VERTEX
  5
B33A0
  8
ASHADE
 10
0.271448
 20
2.4813399999999981
 30
0.00130237
  0
VERTEX
  5
B33A1
  8
ASHADE
 10
0.279107
 20
2.4856099999999981
 30
0.00130237
  0
VERTEX
  5
B33A2
  8
ASHADE
 10
0.286597
 20
2.4900000000000002
 30
0.00130237
  0
VERTEX
  5
B33A3
  8
ASHADE
 10
0.293915
 20
2.4944999999999991
 30
0.00130237
  0
VERTEX
  5
B33A4
  8
ASHADE
 10
0.301055
 20
2.4991099999999991
 30
0.00130237
  0
VERTEX
  5
B33A5
  8
ASHADE
 10
0.308013
 20
2.503829999999998
 30
0.00130237
  0
VERTEX
  5
B33A6
  8
ASHADE
 10
0.314785
 20
2.508659999999999
 30
0.00130237
  0
VERTEX
  5
B33A7
  8
ASHADE
 10
0.321368
 20
2.5135900000000002
 30
0.00130237
  0
VERTEX
  5
B33A8
  8
ASHADE
 10
0.327756
 20
2.5186199999999981
 30
0.00130237
  0
VERTEX
  5
B33A9
  8
ASHADE
 10
0.333947
 20
2.5237500000000002
 30
0.00130237
  0
VERTEX
  5
B33AA
  8
ASHADE
 10
0.339936
 20
2.5289700000000002
 30
0.00130237
  0
VERTEX
  5
B33AB
  8
ASHADE
 10
0.345719
 20
2.534289999999999
 30
0.00130237
  0
VERTEX
  5
B33AC
  8
ASHADE
 10
0.351295
 20
2.539689999999998
 30
0.00130237
  0
VERTEX
  5
B33AD
  8
ASHADE
 10
0.356658
 20
2.5451799999999971
 30
0.00130237
  0
VERTEX
  5
B33AE
  8
ASHADE
 10
0.361806
 20
2.550739999999998
 30
0.00130237
  0
VERTEX
  5
B33AF
  8
ASHADE
 10
0.366736
 20
2.5563899999999991
 30
0.00130237
  0
VERTEX
  5
B33B0
  8
ASHADE
 10
0.371444
 20
2.5621099999999992
 30
0.00130237
  0
VERTEX
  5
B33B1
  8
ASHADE
 10
0.375928
 20
2.5678999999999981
 30
0.00130237
  0
VERTEX
  5
B33B2
  8
ASHADE
 10
0.380186
 20
2.57376
 30
0.00130237
  0
VERTEX
  5
B33B3
  8
ASHADE
 10
0.384214
 20
2.5796799999999971
 30
0.00130237
  0
VERTEX
  5
B33B4
  8
ASHADE
 10
0.38801
 20
2.585669999999999
 30
0.00130237
  0
VERTEX
  5
B33B5
  8
ASHADE
 10
0.391572
 20
2.5917099999999991
 30
0.00130237
  0
VERTEX
  5
B33B6
  8
ASHADE
 10
0.394898
 20
2.5977999999999981
 30
0.00130237
  0
VERTEX
  5
B33B7
  8
ASHADE
 10
0.397986
 20
2.6039400000000001
 30
0.00130237
  0
VERTEX
  5
B33B8
  8
ASHADE
 10
0.400833
 20
2.6101299999999981
 30
0.00130237
  0
VERTEX
  5
B33B9
  8
ASHADE
 10
0.4034390000000001
 20
2.6163699999999981
 30
0.00130237
  0
VERTEX
  5
B33BA
  8
ASHADE
 10
0.4058010000000003
 20
2.6226400000000001
 30
0.00130237
  0
VERTEX
  5
B33BB
  8
ASHADE
 10
0.4079190000000001
 20
2.6289400000000001
 30
0.00130237
  0
VERTEX
  5
B33BC
  8
ASHADE
 10
0.40979
 20
2.6352799999999981
 30
0.00130237
  0
VERTEX
  5
B33BD
  8
ASHADE
 10
0.4114140000000001
 20
2.6416400000000002
 30
0.00130237
  0
VERTEX
  5
B33BE
  8
ASHADE
 10
0.4127900000000003
 20
2.648019999999998
 30
0.00130237
  0
VERTEX
  5
B33BF
  8
ASHADE
 10
0.413917
 20
2.6544300000000001
 30
0.00130237
  0
VERTEX
  5
B33C0
  8
ASHADE
 10
0.414794
 20
2.660849999999999
 30
0.00130237
  0
VERTEX
  5
B33C1
  8
ASHADE
 10
0.415421
 20
2.6672799999999981
 30
0.00130237
  0
VERTEX
  5
B33C2
  8
ASHADE
 10
0.415798
 20
2.6737199999999981
 30
0.00130237
  0
VERTEX
  5
B33C3
  8
ASHADE
 10
0.4159229999999999
 20
2.6801699999999991
 30
0.00130237
  0
SEQEND
  5
B33C4
  8
ASHADE
  0
POLYLINE
  5
B22EE
  8
0
 66
     1
 10
0.0
 20
0.0
 30
-0.4058937549503728
210
-0.9999930025787095
220
0.0037409615898871
230
0.0
  0
VERTEX
  5
B33C5
  8
0
 10
-2.681702460746179
 20
0.0013023661080008
 30
-0.4058937549503728
  0
VERTEX
  5
B33C6
  8
0
 10
-3.0402173580617871
 20
0.0015949474762385
 30
-0.4058937549503728
  0
SEQEND
  5
B33C7
  8
0
  0
POLYLINE
  5
B22EF
  8
0
 66
     1
 10
0.0
 20
0.0
 30
0.4171985341172963
210
-0.9999999999999968
220
0.0000000818172489
230
0.0
  0
VERTEX
  5
B33C8
  8
0
 10
-2.680165228663415
 20
0.0013023661080008
 30
0.4171985341172963
  0
VERTEX
  5
B33C9
  8
0
 10
-3.0386776172992471
 20
0.0015949474762385
 30
0.4171985341172963
  0
SEQEND
  5
B33CA
  8
0
  0
POLYLINE
  5
B22F2
  8
ASHADE
 66
     1
 10
0.0
 20
0.0
 30
0.4171871930581438
210
-0.9999999999933372
220
-0.0000036504168593
230
0.0
  0
VERTEX
  5
B33CB
  8
ASHADE
 10
-3.0386791743606798
 20
0.0015949474762385
 30
0.4171871930581438
  0
VERTEX
  5
B33CC
  8
ASHADE
 10
-11.3137387277144
 20
-0.4483740500428498
 30
0.4171871930581438
  0
SEQEND
  5
B33CD
  8
ASHADE
  0
POLYLINE
  5
B22F3
  8
ASHADE
 66
     1
 10
0.0
 20
0.0
 30
-1.6070035977065731
 70
     1
210
-1.0
220
0.0
230
0.0
  0
VERTEX
  5
B33CE
  8
ASHADE
 10
-1.6445937141232621
 20
0.0005125994698612
 30
-1.6070035977065731
  0
VERTEX
  5
B33CF
  8
ASHADE
 10
-1.0752963413052421
 20
0.0
 30
-1.6070035977065731
  0
SEQEND
  5
B33D0
  8
ASHADE
  0
POLYLINE
  5
B22F4
  8
ASHADE
 66
     1
 10
0.0
 20
0.0
 30
-1.30945512939255
210
-0.8749195279178597
220
-0.4842683343643165
230
0.0
  0
VERTEX
  5
B33D1
  8
ASHADE
 10
-1.8957805448687359
 20
0.0010962304770945
 30
-1.30945512939255
  0
VERTEX
  5
B33D2
  8
ASHADE
 10
-2.058421533593024
 20
0.0013309892956169
 30
-1.30945512939255
  0
SEQEND
  5
B33D3
  8
ASHADE
  0
POLYLINE
  5
B22F5
  8
ASHADE
 66
     1
 10
0.0
 20
0.0
 30
-1.3109964921703521
210
0.874525387424184
220
-0.4849797384948995
230
0.0
  0
VERTEX
  5
B33D4
  8
ASHADE
 10
2.0570819088506642
 20
0.0013309892956169
 30
-1.3109964921703521
  0
VERTEX
  5
B33D5
  8
ASHADE
 10
1.894714963882399
 20
0.0010962304770945
 30
-1.3109964921703521
  0
SEQEND
  5
B33D6
  8
ASHADE
  0
POLYLINE
  5
B2309
  8
ASHADE
 66
     1
 10
0.0
 20
0.0
 30
-0.4461385461706809
  0
VERTEX
  5
B33D7
  8
ASHADE
 10
0.6458377293396791
 20
11.57972276624529
 30
-0.4461385461706809
  0
VERTEX
  5
B33D8
  8
ASHADE
 10
1.864428318863
 20
11.579716752993439
 30
-0.4461385461706809
 42
0.215596272206891
  0
VERTEX
  5
B33D9
  8
ASHADE
 10
1.9773183516312489
 20
11.644445258452141
 30
-0.4461385461706809
  0
VERTEX
  5
B33DA
  8
ASHADE
 10
1.9773183516312489
 20
11.78617724877018
 30
-0.4461385461706809
  0
VERTEX
  5
B33DB
  8
ASHADE
 10
-0.0305525494765441
 20
11.78617716100057
 30
-0.4461385461706809
  0
SEQEND
  5
B33DC
  8
ASHADE
  0
POLYLINE
  5
B230D
  8
ASHADE
 66
     1
 10
0.0
 20
0.0
 30
-0.4483740500428498
  0
VERTEX
  5
B33DD
  8
ASHADE
 10
-0.0305525494765441
 20
11.786177248999371
 30
-0.4483740500428498
  0
VERTEX
  5
B33DE
  8
ASHADE
 10
-2.0384234505843142
 20
11.78617724899901
 30
-0.4483740500428498
  0
SEQEND
  5
B33DF
  8
ASHADE
  0
POLYLINE
  5
B230E
  8
ASHADE
 66
     1
 10
0.0
 20
0.0
 30
-0.4483740500428498
  0
VERTEX
  5
B33E0
  8
ASHADE
 10
2.0078726791716002
 20
11.78617724877018
 30
-0.4483740500428498
  0
VERTEX
  5
B33E1
  8
ASHADE
 10
0.0000029513812639
 20
11.786177248999371
 30
-0.4483740500428498
  0
VERTEX
  5
B33E2
  8
ASHADE
 10
-2.007867011072558
 20
11.786177248999209
 30
-0.4483740500428498
  0
VERTEX
  5
B33E3
  8
ASHADE
 10
-2.0078771186882438
 20
11.64444517094126
 30
-0.4483740500428498
 42
0.2163466508698421
  0
VERTEX
  5
B33E4
  8
ASHADE
 10
-1.894979794266147
 20
11.57971668014809
 30
-0.4483740500428498
  0
VERTEX
  5
B33E5
  8
ASHADE
 10
-0.6763892047428153
 20
11.57972276673226
 30
-0.4483740500428498
  0
VERTEX
  5
B33E6
  8
ASHADE
 10
0.6763946381784145
 20
11.57972276673226
 30
-0.4483740500428498
 42
0.1577647640484099
  0
VERTEX
  5
B33E7
  8
ASHADE
 10
0.4011865811622807
 20
11.33342221529171
 30
-0.4483740500428498
  0
VERTEX
  5
B33E8
  8
ASHADE
 10
0.417233926353512
 20
11.31373720473186
 30
-0.4483740500428498
  0
VERTEX
  5
B33E9
  8
ASHADE
 10
-0.4172284929179571
 20
11.31373720473186
 30
-0.4483740500428498
  0
VERTEX
  5
B33EA
  8
ASHADE
 10
-0.4011812650584243
 20
11.33342221529171
 30
-0.4483740500428498
  0
VERTEX
  5
B33EB
  8
ASHADE
 10
-0.4172284929179407
 20
11.353107225851531
 30
-0.4483740500428498
 42
0.1584873324530081
  0
VERTEX
  5
B33EC
  8
ASHADE
 10
-0.676389204742833
 20
11.57972276673225
 30
-0.4483740500428498
  0
SEQEND
  5
B33ED
  8
ASHADE
  0
POLYLINE
  5
B231A
  8
ASHADE
 66
     1
 10
0.0
 20
0.0
 30
-0.4172753866248148
210
-0.9999999999932853
220
-0.0000036645958231
230
0.0
  0
VERTEX
  5
B33EE
  8
ASHADE
 10
-3.0386761223080381
 20
0.0015949474762385
 30
-0.4172753866248148
  0
VERTEX
  5
B33EF
  8
ASHADE
 10
-11.313735675662191
 20
-0.4483740500428498
 30
-0.4172753866248148
  0
SEQEND
  5
B33F0
  8
ASHADE
  0
POLYLINE
  5
B231B
  8
ASHADE
 66
     1
 10
0.0
 20
0.0
 30
11.57972276624529
210
0.0
220
1.0
230
0.0
  0
VERTEX
  5
B33F1
  8
ASHADE
 10
0.7069428282927315
 20
-0.4483740500428498
 30
11.57972276624529
  0
VERTEX
  5
B33F2
  8
ASHADE
 10
-0.6458377293396791
 20
-0.4461385461706809
 30
11.57972276624529
  0
SEQEND
  5
B33F3
  8
ASHADE
  0
LINE
  5
B231E
  8
0
 10
-1.607
 20
1.075299999999999
 30
0.0
 11
-1.60575
 21
1.60212
 31
0.000512599
  0
ENDSEC
  0
EOF
