  0
SECTION
  2
HEADER
  9
$ACADVER
  1
AC1009
  9
$INSBASE
 10
0.0
 20
0.0
 30
0.0
  9
$EXTMIN
 10
-3.2812314790487251
 20
-0.005
 30
-0.0034073138237
  9
$EXTMAX
 10
3.281231479048726
 20
41.980507174872187
 30
2.372713972373266
  9
$LIMMIN
 10
0.0
 20
0.0
  9
$LIMMAX
 10
420.0
 20
297.0
  9
$ORTHOMODE
 70
     1
  9
$REGENMODE
 70
     1
  9
$FILLMODE
 70
     1
  9
$QTEXTMODE
 70
     0
  9
$MIRRTEXT
 70
     1
  9
$DRAGMODE
 70
     2
  9
$LTSCALE
 40
1.0
  9
$OSMODE
 70
    37
  9
$ATTMODE
 70
     1
  9
$TEXTSIZE
 40
0.001
  9
$TRACEWID
 40
1.0
  9
$TEXTSTYLE
  7
STANDARD
  9
$CLAYER
  8
0
  9
$CELTYPE
  6
BYLAYER
  9
$CECOLOR
 62
   256
  9
$DIMSCALE
 40
1.0
  9
$DIMASZ
 40
2.5
  9
$DIMEXO
 40
0.625
  9
$DIMDLI
 40
3.75
  9
$DIMRND
 40
0.0
  9
$DIMDLE
 40
0.0
  9
$DIMEXE
 40
1.25
  9
$DIMTP
 40
0.0
  9
$DIMTM
 40
0.0
  9
$DIMTXT
 40
2.5
  9
$DIMCEN
 40
2.5
  9
$DIMTSZ
 40
0.0
  9
$DIMTOL
 70
     0
  9
$DIMLIM
 70
     0
  9
$DIMTIH
 70
     0
  9
$DIMTOH
 70
     0
  9
$DIMSE1
 70
     0
  9
$DIMSE2
 70
     0
  9
$DIMTAD
 70
     1
  9
$DIMZIN
 70
     8
  9
$DIMBLK
  1

  9
$DIMASO
 70
     1
  9
$DIMSHO
 70
     1
  9
$DIMPOST
  1

  9
$DIMAPOST
  1

  9
$DIMALT
 70
     0
  9
$DIMALTD
 70
     3
  9
$DIMALTF
 40
0.03937007874016
  9
$DIMLFAC
 40
1.0
  9
$DIMTOFL
 70
     1
  9
$DIMTVP
 40
0.0
  9
$DIMTIX
 70
     0
  9
$DIMSOXD
 70
     0
  9
$DIMSAH
 70
     0
  9
$DIMBLK1
  1

  9
$DIMBLK2
  1

  9
$DIMSTYLE
  2
ISO-25
  9
$DIMCLRD
 70
     0
  9
$DIMCLRE
 70
     0
  9
$DIMCLRT
 70
     0
  9
$DIMTFAC
 40
1.0
  9
$DIMGAP
 40
0.625
  9
$LUNITS
 70
     2
  9
$LUPREC
 70
     4
  9
$SKETCHINC
 40
1.0
  9
$FILLETRAD
 40
0.0
  9
$AUNITS
 70
     0
  9
$AUPREC
 70
     0
  9
$MENU
  1
.
  9
$ELEVATION
 40
0.0
  9
$PELEVATION
 40
0.0
  9
$THICKNESS
 40
0.0
  9
$LIMCHECK
 70
     0
  9
$BLIPMODE
 70
     0
  9
$CHAMFERA
 40
10.0
  9
$CHAMFERB
 40
10.0
  9
$SKPOLY
 70
     0
  9
$TDCREATE
 40
2453378.22126956
  9
$TDUPDATE
 40
2453419.645156424
  9
$TDINDWG
 40
0.8780834028
  9
$TDUSRTIMER
 40
0.878069375
  9
$USRTIMER
 70
     1
  9
$ANGBASE
 50
0.0
  9
$ANGDIR
 70
     0
  9
$PDMODE
 70
     0
  9
$PDSIZE
 40
0.0
  9
$PLINEWID
 40
0.0
  9
$COORDS
 70
     1
  9
$SPLFRAME
 70
     0
  9
$SPLINETYPE
 70
     6
  9
$SPLINESEGS
 70
     8
  9
$ATTDIA
 70
     0
  9
$ATTREQ
 70
     1
  9
$HANDLING
 70
     1
  9
$HANDSEED
  5
B4451
  9
$SURFTAB1
 70
     6
  9
$SURFTAB2
 70
     6
  9
$SURFTYPE
 70
     6
  9
$SURFU
 70
     6
  9
$SURFV
 70
     6
  9
$UCSNAME
  2

  9
$UCSORG
 10
0.0
 20
0.0
 30
0.0
  9
$UCSXDIR
 10
1.0
 20
0.0
 30
0.0
  9
$UCSYDIR
 10
0.0
 20
1.0
 30
0.0
  9
$PUCSNAME
  2

  9
$PUCSORG
 10
0.0
 20
0.0
 30
0.0
  9
$PUCSXDIR
 10
1.0
 20
0.0
 30
0.0
  9
$PUCSYDIR
 10
0.0
 20
1.0
 30
0.0
  9
$USERI1
 70
     0
  9
$USERI2
 70
     0
  9
$USERI3
 70
     0
  9
$USERI4
 70
     0
  9
$USERI5
 70
     0
  9
$USERR1
 40
0.0
  9
$USERR2
 40
0.0
  9
$USERR3
 40
0.0
  9
$USERR4
 40
0.0
  9
$USERR5
 40
0.0
  9
$WORLDVIEW
 70
     1
  9
$SHADEDGE
 70
     3
  9
$SHADEDIF
 70
    70
  9
$TILEMODE
 70
     1
  9
$MAXACTVP
 70
    64
  9
$PLIMCHECK
 70
     0
  9
$PEXTMIN
 10
1.0000000000000000E+020
 20
1.0000000000000000E+020
 30
1.0000000000000000E+020
  9
$PEXTMAX
 10
-1.0000000000000000E+020
 20
-1.0000000000000000E+020
 30
-1.0000000000000000E+020
  9
$PLIMMIN
 10
0.0
 20
0.0
  9
$PLIMMAX
 10
420.0
 20
297.0
  9
$UNITMODE
 70
     0
  9
$VISRETAIN
 70
     1
  9
$PLINEGEN
 70
     0
  9
$PSLTSCALE
 70
     1
  0
ENDSEC
  0
SECTION
  2
TABLES
  0
TABLE
  2
VPORT
 70
     2
  0
VPORT
  2
*ACTIVE
 70
     0
 10
0.0
 20
0.0
 11
1.0
 21
1.0
 12
1.174768515105
 22
2.1999323983752959
 13
0.0
 23
0.0
 14
10.0
 24
10.0
 15
10.0
 25
10.0
 16
0.0
 26
0.0
 36
1.0
 17
0.0
 27
0.0
 37
0.0
 40
8.5953571281401384
 41
1.9608247422680409
 42
50.0
 43
0.0
 44
0.0
 50
0.0
 51
0.0
 71
     0
 72
  1000
 73
     1
 74
     3
 75
     0
 76
     0
 77
     0
 78
     0
  0
ENDTAB
  0
TABLE
  2
LTYPE
 70
     1
  0
LTYPE
  2
CONTINUOUS
 70
     0
  3
Solid line
 72
    65
 73
     0
 40
0.0
  0
ENDTAB
  0
TABLE
  2
LAYER
 70
     3
  0
LAYER
  2
0
 70
     0
 62
     7
  6
CONTINUOUS
  0
LAYER
  2
ASHADE
 70
     0
 62
     7
  6
CONTINUOUS
  0
LAYER
  2
DEFPOINTS
 70
     0
 62
     7
  6
CONTINUOUS
  0
ENDTAB
  0
TABLE
  2
STYLE
 70
     2
  0
STYLE
  2
STANDARD
 70
     0
 40
0.0
 41
1.0
 50
0.0
 71
     0
 42
0.001
  3
txt
  4

  0
STYLE
  2
ASHADE
 70
     0
 40
0.2
 41
1.0
 50
0.0
 71
     0
 42
2.5
  3
simplex.shx
  4

  0
ENDTAB
  0
TABLE
  2
VIEW
 70
     0
  0
ENDTAB
  0
TABLE
  2
UCS
 70
     0
  0
ENDTAB
  0
TABLE
  2
APPID
 70
     6
  0
APPID
  2
ACAD
 70
     0
  0
APPID
  2
AVE_RENDER
 70
     0
  0
APPID
  2
AVE_ENTITY_MATERIAL
 70
     0
  0
APPID
  2
AVE_FINISH
 70
     0
  0
APPID
  2
AVE_MATERIAL
 70
     0
  0
APPID
  2
AVE_GLOBAL
 70
     0
  0
ENDTAB
  0
TABLE
  2
DIMSTYLE
 70
     2
  0
DIMSTYLE
  2
ISO-25
 70
     0
  3

  4

  5

  6

  7

 40
1.0
 41
2.5
 42
0.625
 43
3.75
 44
1.25
 45
0.0
 46
0.0
 47
0.0
 48
0.0
140
2.5
141
2.5
142
0.0
143
0.03937007874016
144
1.0
145
0.0
146
1.0
147
0.625
 71
     0
 72
     0
 73
     0
 74
     0
 75
     0
 76
     0
 77
     1
 78
     8
170
     0
171
     3
172
     1
173
     0
174
     0
175
     0
176
     0
177
     0
178
     0
  0
DIMSTYLE
  2
STANDARD
 70
     0
  3

  4

  5

  6

  7

 40
1.0
 41
0.18
 42
0.0625
 43
0.38
 44
0.18
 45
0.0
 46
0.0
 47
0.0
 48
0.0
140
0.18
141
0.09
142
0.0
143
25.399999999999999
144
1.0
145
0.0
146
1.0
147
0.09
 71
     0
 72
     0
 73
     1
 74
     1
 75
     0
 76
     0
 77
     0
 78
     0
170
     0
171
     2
172
     0
173
     0
174
     0
175
     0
176
     0
177
     0
178
     0
  0
ENDTAB
  0
ENDSEC
  0
SECTION
  2
BLOCKS
  0
BLOCK
  8
0
  2
$MODEL_SPACE
 70
     0
 10
0.0
 20
0.0
 30
0.0
  3
$MODEL_SPACE
  1

  0
ENDBLK
  5
B3EF5
  8
0
  0
BLOCK
 67
     1
  8
0
  2
$PAPER_SPACE
 70
     0
 10
0.0
 20
0.0
 30
0.0
  3
$PAPER_SPACE
  1

  0
ENDBLK
  5
B3EF1
 67
     1
  8
0
  0
BLOCK
  8
ASHADE
  2
AVE_RENDER
 70
     0
 10
0.0
 20
0.0
 30
0.0
  3
AVE_RENDER
  1
AVE_RENDER
  0
ENDBLK
  5
31
  8
0
  0
BLOCK
  8
ASHADE
  2
AVE_GLOBAL
 70
     0
 10
0.0
 20
0.0
 30
0.0
  3
AVE_GLOBAL
  1
AVE_GLOBAL
  0
ENDBLK
  5
3F
  8
0
  0
BLOCK
  8
ASHADE
  2
RM_SDB
 70
     2
 10
0.0
 20
0.0
 30
0.0
  3
RM_SDB
  1
RM_SDB
  0
ATTDEF
  5
A3F6D
  8
ASHADE
  6
CONTINUOUS
 62
     1
 10
0.0000000000000001
 20
-0.15
 30
0.0
 40
0.2
  1

 41
100.0
  7
ASHADE
 72
     1
 11
0.0000000000000001
 21
-0.15
 31
0.0
  3
Name
  2
NAME
 70
     0
  0
ENDBLK
  5
620
  8
0
  0
ENDSEC
  0
SECTION
  2
ENTITIES
  0
ATTDEF
  5
B1A5D
  8
0
 10
0.0
 20
0.0
 30
0.0
 40
0.001
  1
K-14418
  3

  2
MODELNUMBER
 70
     8
  0
ATTDEF
  5
B1A5E
  8
0
 10
0.0
 20
-0.0016666666666667
 30
0.0
 40
0.001
  1
PURIST
  3

  2
TRADENAME
 70
     8
  0
ATTDEF
  5
B1A5F
  8
0
 10
0.0
 20
-0.0033333333333333
 30
0.0
 40
0.001
  1
FAUCETS
  3

  2
PRODUCT
 70
     8
  0
ATTDEF
  5
B1A60
  8
0
 10
0.0
 20
-0.005
 30
0.0
 40
0.001
  1
BRASS
  3

  2
MATERIAL
 70
     8
  0
POLYLINE
  5
B2AA7
  8
ASHADE
 66
     1
 10
0.0
 20
0.0
 30
0.0
  0
VERTEX
  5
B3F12
  8
ASHADE
 10
-1.607
 20
1.075289999999981
 30
0.0
  0
VERTEX
  5
B3F13
  8
ASHADE
 10
-1.6064999999999989
 20
1.0488999999999959
 30
0.0
  0
VERTEX
  5
B3F14
  8
ASHADE
 10
-1.604999999999998
 20
1.0225299999999959
 30
0.0
  0
VERTEX
  5
B3F15
  8
ASHADE
 10
-1.602599999999996
 20
0.9961899999999985
 30
0.0
  0
VERTEX
  5
B3F16
  8
ASHADE
 10
-1.599199999999998
 20
0.9698999999999813
 30
0.0
  0
VERTEX
  5
B3F17
  8
ASHADE
 10
-1.594899999999996
 20
0.9436699999999973
 30
0.0
  0
VERTEX
  5
B3F18
  8
ASHADE
 10
-1.5895999999999979
 20
0.9175099999999716
 30
0.0
  0
VERTEX
  5
B3F19
  8
ASHADE
 10
-1.5832999999999959
 20
0.8914599999999808
 30
0.0
  0
VERTEX
  5
B3F1A
  8
ASHADE
 10
-1.5760999999999969
 20
0.8655099999999862
 30
0.0
  0
VERTEX
  5
B3F1B
  8
ASHADE
 10
-1.567899999999997
 20
0.8396899999999831
 30
0.0
  0
VERTEX
  5
B3F1C
  8
ASHADE
 10
-1.5588000000000011
 20
0.8140199999999708
 30
0.0
  0
VERTEX
  5
B3F1D
  8
ASHADE
 10
-1.5488000000000031
 20
0.7884999999999849
 30
0.0
  0
VERTEX
  5
B3F1E
  8
ASHADE
 10
-1.5377999999999989
 20
0.763149999999996
 30
0.0
  0
VERTEX
  5
B3F1F
  8
ASHADE
 10
-1.5259000000000009
 20
0.7379899999999964
 30
0.0
  0
VERTEX
  5
B3F20
  8
ASHADE
 10
-1.5129999999999999
 20
0.7130399999999854
 30
0.0
  0
VERTEX
  5
B3F21
  8
ASHADE
 10
-1.4993000000000001
 20
0.6882999999999983
 30
0.0
  0
VERTEX
  5
B3F22
  8
ASHADE
 10
-1.484699999999997
 20
0.6637899999999846
 30
0.0
  0
VERTEX
  5
B3F23
  8
ASHADE
 10
-1.469099999999999
 20
0.6395399999999825
 30
0.0
  0
VERTEX
  5
B3F24
  8
ASHADE
 10
-1.4527000000000021
 20
0.6155399999999958
 30
0.0
  0
VERTEX
  5
B3F25
  8
ASHADE
 10
-1.435399999999996
 20
0.5918299999999875
 30
0.0
  0
VERTEX
  5
B3F26
  8
ASHADE
 10
-1.4171999999999949
 20
0.5683999999999969
 30
0.0
  0
VERTEX
  5
B3F27
  8
ASHADE
 10
-1.3981999999999959
 20
0.5452799999999982
 30
0.0
  0
VERTEX
  5
B3F28
  8
ASHADE
 10
-1.378400000000001
 20
0.5224799999999661
 30
0.0
  0
VERTEX
  5
B3F29
  8
ASHADE
 10
-1.3576999999999959
 20
0.5000099999999961
 30
0.0
  0
VERTEX
  5
B3F2A
  8
ASHADE
 10
-1.3361999999999989
 20
0.4778899999999809
 30
0.0
  0
VERTEX
  5
B3F2B
  8
ASHADE
 10
-1.313800000000001
 20
0.4561299999999804
 30
0.0
  0
VERTEX
  5
B3F2C
  8
ASHADE
 10
-1.2906999999999971
 20
0.4347399999999837
 30
0.0
  0
VERTEX
  5
B3F2D
  8
ASHADE
 10
-1.2668999999999999
 20
0.4137399999999971
 30
0.0
  0
VERTEX
  5
B3F2E
  8
ASHADE
 10
-1.242199999999998
 20
0.3931299999999851
 30
0.0
  0
VERTEX
  5
B3F2F
  8
ASHADE
 10
-1.216800000000001
 20
0.3729399999999714
 30
0.0
  0
VERTEX
  5
B3F30
  8
ASHADE
 10
-1.190700000000001
 20
0.3531699999999986
 30
0.0
  0
VERTEX
  5
B3F31
  8
ASHADE
 10
-1.1637999999999971
 20
0.3338299999999847
 30
0.0
  0
VERTEX
  5
B3F32
  8
ASHADE
 10
-1.136299999999999
 20
0.3149399999999858
 30
0.0
  0
VERTEX
  5
B3F33
  8
ASHADE
 10
-1.108100000000001
 20
0.2965099999999978
 30
0.0
  0
VERTEX
  5
B3F34
  8
ASHADE
 10
-1.079200000000003
 20
0.2785499999999885
 30
0.0
  0
VERTEX
  5
B3F35
  8
ASHADE
 10
-1.049599999999999
 20
0.2610699999999824
 30
0.0
  0
VERTEX
  5
B3F36
  8
ASHADE
 10
-1.019500000000001
 20
0.2440799999999967
 30
0.0
  0
VERTEX
  5
B3F37
  8
ASHADE
 10
-0.9886999999999977
 20
0.2275899999999993
 30
0.0
  0
VERTEX
  5
B3F38
  8
ASHADE
 10
-0.9573
 20
0.2116099999999719
 30
0.0
  0
VERTEX
  5
B3F39
  8
ASHADE
 10
-0.9253000000000037
 20
0.1961499999999816
 30
0.0
  0
VERTEX
  5
B3F3A
  8
ASHADE
 10
-0.8927999999999974
 20
0.1812199999999961
 30
0.0
  0
VERTEX
  5
B3F3B
  8
ASHADE
 10
-0.8596999999999999
 20
0.1668199999999871
 30
0.0
  0
VERTEX
  5
B3F3C
  8
ASHADE
 10
-0.8261000000000002
 20
0.152979999999971
 30
0.0
  0
VERTEX
  5
B3F3D
  8
ASHADE
 10
-0.7921000000000014
 20
0.1396899999999874
 30
0.0
  0
VERTEX
  5
B3F3E
  8
ASHADE
 10
-0.757500000000004
 20
0.1269699999999716
 30
0.0
  0
VERTEX
  5
B3F3F
  8
ASHADE
 10
-0.7225000000000003
 20
0.1148099999999985
 30
0.0
  0
VERTEX
  5
B3F40
  8
ASHADE
 10
-0.6871000000000045
 20
0.1032399999999711
 30
0.0
  0
VERTEX
  5
B3F41
  8
ASHADE
 10
-0.6511999999999995
 20
0.09225
 30
0.0
  0
VERTEX
  5
B3F42
  8
ASHADE
 10
-0.6149999999999987
 20
0.0818499999999958
 30
0.0
  0
VERTEX
  5
B3F43
  8
ASHADE
 10
-0.5783000000000024
 20
0.0720499999999831
 30
0.0
  0
VERTEX
  5
B3F44
  8
ASHADE
 10
-0.5413999999999997
 20
0.0628499999999974
 30
0.0
  0
VERTEX
  5
B3F45
  8
ASHADE
 10
-0.5040999999999977
 20
0.0542699999999954
 30
0.0
  0
VERTEX
  5
B3F46
  8
ASHADE
 10
-0.4665
 20
0.0462999999999596
 30
0.0
  0
VERTEX
  5
B3F47
  8
ASHADE
 10
-0.4285999999999996
 20
0.0389499999999998
 30
0.0
  0
VERTEX
  5
B3F48
  8
ASHADE
 10
-0.3904999999999994
 20
0.0322199999999953
 30
0.0
  0
VERTEX
  5
B3F49
  8
ASHADE
 10
-0.3521000000000036
 20
0.0261199999999988
 30
0.0
  0
VERTEX
  5
B3F4A
  8
ASHADE
 10
-0.3135000000000012
 20
0.0206599999999995
 30
0.0
  0
VERTEX
  5
B3F4B
  8
ASHADE
 10
-0.2746999999999992
 20
0.0158299999999869
 30
0.0
  0
VERTEX
  5
B3F4C
  8
ASHADE
 10
-0.2358000000000011
 20
0.0116299999999967
 30
0.0
  0
VERTEX
  5
B3F4D
  8
ASHADE
 10
-0.1966999999999998
 20
0.0080799999999996
 30
0.0
  0
VERTEX
  5
B3F4E
  8
ASHADE
 10
-0.1575000000000024
 20
0.0051699999999855
 30
0.0
  0
VERTEX
  5
B3F4F
  8
ASHADE
 10
-0.1182000000000016
 20
0.0029099999999715
 30
0.0
  0
VERTEX
  5
B3F50
  8
ASHADE
 10
-0.0788000000000011
 20
0.0012899999999974
 30
0.0
  0
VERTEX
  5
B3F51
  8
ASHADE
 10
-0.0394000000000005
 20
0.000319999999995
 30
0.0
  0
VERTEX
  5
B3F52
  8
ASHADE
 10
0.0
 20
0.0
 30
0.0
  0
VERTEX
  5
B3F53
  8
ASHADE
 10
0.0395000000000004
 20
0.000319999999995
 30
0.0
  0
VERTEX
  5
B3F54
  8
ASHADE
 10
0.0788999999999974
 20
0.0012899999999974
 30
0.0
  0
VERTEX
  5
B3F55
  8
ASHADE
 10
0.1181999999999981
 20
0.0029099999999715
 30
0.0
  0
VERTEX
  5
B3F56
  8
ASHADE
 10
0.1574999999999989
 20
0.0051699999999855
 30
0.0
  0
VERTEX
  5
B3F57
  8
ASHADE
 10
0.1966999999999999
 20
0.0080799999999996
 30
0.0
  0
VERTEX
  5
B3F58
  8
ASHADE
 10
0.2357999999999976
 20
0.0116299999999967
 30
0.0
  0
VERTEX
  5
B3F59
  8
ASHADE
 10
0.2747999999999991
 20
0.0158299999999869
 30
0.0
  0
VERTEX
  5
B3F5A
  8
ASHADE
 10
0.3134999999999977
 20
0.0206599999999995
 30
0.0
  0
VERTEX
  5
B3F5B
  8
ASHADE
 10
0.3521000000000001
 20
0.0261199999999988
 30
0.0
  0
VERTEX
  5
B3F5C
  8
ASHADE
 10
0.3904999999999994
 20
0.0322199999999953
 30
0.0
  0
VERTEX
  5
B3F5D
  8
ASHADE
 10
0.4285999999999997
 20
0.0389499999999998
 30
0.0
  0
VERTEX
  5
B3F5E
  8
ASHADE
 10
0.4665000000000002
 20
0.0462999999999596
 30
0.0
  0
VERTEX
  5
B3F5F
  8
ASHADE
 10
0.5040999999999977
 20
0.0542699999999954
 30
0.0
  0
VERTEX
  5
B3F60
  8
ASHADE
 10
0.5413999999999996
 20
0.0628499999999974
 30
0.0
  0
VERTEX
  5
B3F61
  8
ASHADE
 10
0.5783999999999985
 20
0.0720499999999831
 30
0.0
  0
VERTEX
  5
B3F62
  8
ASHADE
 10
0.6149999999999986
 20
0.0818499999999958
 30
0.0
  0
VERTEX
  5
B3F63
  8
ASHADE
 10
0.6511999999999995
 20
0.09225
 30
0.0
  0
VERTEX
  5
B3F64
  8
ASHADE
 10
0.6870999999999976
 20
0.1032399999999711
 30
0.0
  0
VERTEX
  5
B3F65
  8
ASHADE
 10
0.7225000000000003
 20
0.1148099999999985
 30
0.0
  0
VERTEX
  5
B3F66
  8
ASHADE
 10
0.7576000000000001
 20
0.1269699999999716
 30
0.0
  0
VERTEX
  5
B3F67
  8
ASHADE
 10
0.792099999999998
 20
0.1396899999999874
 30
0.0
  0
VERTEX
  5
B3F68
  8
ASHADE
 10
0.8261999999999998
 20
0.152979999999971
 30
0.0
  0
VERTEX
  5
B3F69
  8
ASHADE
 10
0.8597999999999997
 20
0.1668199999999871
 30
0.0
  0
VERTEX
  5
B3F6A
  8
ASHADE
 10
0.8927999999999974
 20
0.1812199999999961
 30
0.0
  0
VERTEX
  5
B3F6B
  8
ASHADE
 10
0.9252999999999998
 20
0.1961499999999816
 30
0.0
  0
VERTEX
  5
B3F6C
  8
ASHADE
 10
0.9572999999999998
 20
0.2116099999999719
 30
0.0
  0
VERTEX
  5
B3F6D
  8
ASHADE
 10
0.9886999999999977
 20
0.2275899999999993
 30
0.0
  0
VERTEX
  5
B3F6E
  8
ASHADE
 10
1.019499999999999
 20
0.2440799999999967
 30
0.0
  0
VERTEX
  5
B3F6F
  8
ASHADE
 10
1.049699999999997
 20
0.2610699999999824
 30
0.0
  0
VERTEX
  5
B3F70
  8
ASHADE
 10
1.0791999999999979
 20
0.2785499999999885
 30
0.0
  0
VERTEX
  5
B3F71
  8
ASHADE
 10
1.108099999999999
 20
0.2965099999999978
 30
0.0
  0
VERTEX
  5
B3F72
  8
ASHADE
 10
1.136299999999997
 20
0.3149399999999858
 30
0.0
  0
VERTEX
  5
B3F73
  8
ASHADE
 10
1.1638999999999959
 20
0.3338299999999847
 30
0.0
  0
VERTEX
  5
B3F74
  8
ASHADE
 10
1.190699999999999
 20
0.3531699999999986
 30
0.0
  0
VERTEX
  5
B3F75
  8
ASHADE
 10
1.216899999999997
 20
0.3729399999999714
 30
0.0
  0
VERTEX
  5
B3F76
  8
ASHADE
 10
1.242199999999998
 20
0.3931299999999851
 30
0.0
  0
VERTEX
  5
B3F77
  8
ASHADE
 10
1.2668999999999979
 20
0.4137399999999971
 30
0.0
  0
VERTEX
  5
B3F78
  8
ASHADE
 10
1.290799999999996
 20
0.4347399999999837
 30
0.0
  0
VERTEX
  5
B3F79
  8
ASHADE
 10
1.313899999999999
 20
0.4561299999999804
 30
0.0
  0
VERTEX
  5
B3F7A
  8
ASHADE
 10
1.3361999999999969
 20
0.4778899999999809
 30
0.0
  0
VERTEX
  5
B3F7B
  8
ASHADE
 10
1.3576999999999959
 20
0.5000099999999961
 30
0.0
  0
VERTEX
  5
B3F7C
  8
ASHADE
 10
1.378399999999997
 20
0.5224799999999661
 30
0.0
  0
VERTEX
  5
B3F7D
  8
ASHADE
 10
1.398299999999997
 20
0.5452799999999982
 30
0.0
  0
VERTEX
  5
B3F7E
  8
ASHADE
 10
1.417299999999996
 20
0.5683999999999969
 30
0.0
  0
VERTEX
  5
B3F7F
  8
ASHADE
 10
1.4353999999999969
 20
0.5918299999999875
 30
0.0
  0
VERTEX
  5
B3F80
  8
ASHADE
 10
1.452699999999999
 20
0.6155399999999958
 30
0.0
  0
VERTEX
  5
B3F81
  8
ASHADE
 10
1.469199999999999
 20
0.6395399999999825
 30
0.0
  0
VERTEX
  5
B3F82
  8
ASHADE
 10
1.4846999999999979
 20
0.6637899999999846
 30
0.0
  0
VERTEX
  5
B3F83
  8
ASHADE
 10
1.499299999999997
 20
0.6882999999999983
 30
0.0
  0
VERTEX
  5
B3F84
  8
ASHADE
 10
1.513099999999997
 20
0.7130399999999854
 30
0.0
  0
VERTEX
  5
B3F85
  8
ASHADE
 10
1.5258999999999989
 20
0.7379899999999964
 30
0.0
  0
VERTEX
  5
B3F86
  8
ASHADE
 10
1.5377999999999989
 20
0.763149999999996
 30
0.0
  0
VERTEX
  5
B3F87
  8
ASHADE
 10
1.548799999999998
 20
0.7884999999999849
 30
0.0
  0
VERTEX
  5
B3F88
  8
ASHADE
 10
1.558899999999996
 20
0.8140199999999708
 30
0.0
  0
VERTEX
  5
B3F89
  8
ASHADE
 10
1.567999999999997
 20
0.8396899999999831
 30
0.0
  0
VERTEX
  5
B3F8A
  8
ASHADE
 10
1.5760999999999969
 20
0.8655099999999862
 30
0.0
  0
VERTEX
  5
B3F8B
  8
ASHADE
 10
1.5833999999999959
 20
0.8914599999999808
 30
0.0
  0
VERTEX
  5
B3F8C
  8
ASHADE
 10
1.589599999999995
 20
0.9175099999999716
 30
0.0
  0
VERTEX
  5
B3F8D
  8
ASHADE
 10
1.594899999999998
 20
0.9436699999999973
 30
0.0
  0
VERTEX
  5
B3F8E
  8
ASHADE
 10
1.5992999999999979
 20
0.9698999999999813
 30
0.0
  0
VERTEX
  5
B3F8F
  8
ASHADE
 10
1.6026999999999969
 20
0.9961899999999985
 30
0.0
  0
VERTEX
  5
B3F90
  8
ASHADE
 10
1.605099999999998
 20
1.0225299999999959
 30
0.0
  0
VERTEX
  5
B3F91
  8
ASHADE
 10
1.6064999999999969
 20
1.0488999999999959
 30
0.0
  0
VERTEX
  5
B3F92
  8
ASHADE
 10
1.6069999999999971
 20
1.075289999999981
 30
0.0
  0
SEQEND
  5
B3F93
  8
ASHADE
  0
POLYLINE
  5
B2B27
  8
ASHADE
 66
     1
 10
0.0
 20
0.0
 30
0.0005100000000011
  0
VERTEX
  5
B3F94
  8
ASHADE
 10
-0.4143000000000009
 20
2.6835299999999971
 30
0.0005100000000011
  0
VERTEX
  5
B3F95
  8
ASHADE
 10
-0.4837000000000027
 20
2.6700099999999969
 30
0.0005100000000011
  0
VERTEX
  5
B3F96
  8
ASHADE
 10
-0.5522000000000028
 20
2.6544099999999839
 30
0.0005100000000011
  0
VERTEX
  5
B3F97
  8
ASHADE
 10
-0.6194999999999987
 20
2.6367799999999662
 30
0.0005100000000011
  0
VERTEX
  5
B3F98
  8
ASHADE
 10
-0.6855000000000012
 20
2.6171299999999809
 30
0.0005100000000011
  0
VERTEX
  5
B3F99
  8
ASHADE
 10
-0.7502000000000032
 20
2.5955199999999721
 30
0.0005100000000011
  0
VERTEX
  5
B3F9A
  8
ASHADE
 10
-0.8133000000000016
 20
2.5719799999999822
 30
0.0005100000000011
  0
VERTEX
  5
B3F9B
  8
ASHADE
 10
-0.8748000000000038
 20
2.5465699999999951
 30
0.0005100000000011
  0
VERTEX
  5
B3F9C
  8
ASHADE
 10
-0.9345999999999994
 20
2.5193299999999961
 30
0.0005100000000011
  0
VERTEX
  5
B3F9D
  8
ASHADE
 10
-0.9924000000000001
 20
2.490329999999978
 30
0.0005100000000011
  0
VERTEX
  5
B3F9E
  8
ASHADE
 10
-1.0483
 20
2.459609999999997
 30
0.0005100000000011
  0
VERTEX
  5
B3F9F
  8
ASHADE
 10
-1.101999999999997
 20
2.427239999999983
 30
0.0005100000000011
  0
VERTEX
  5
B3FA0
  8
ASHADE
 10
-1.153399999999998
 20
2.3932899999999711
 30
0.0005100000000011
  0
VERTEX
  5
B3FA1
  8
ASHADE
 10
-1.2025999999999979
 20
2.357829999999971
 30
0.0005100000000011
  0
VERTEX
  5
B3FA2
  8
ASHADE
 10
-1.249299999999999
 20
2.3209199999999721
 30
0.0005100000000011
  0
VERTEX
  5
B3FA3
  8
ASHADE
 10
-1.293499999999995
 20
2.2826399999999718
 30
0.0005100000000011
  0
VERTEX
  5
B3FA4
  8
ASHADE
 10
-1.3350999999999991
 20
2.243079999999984
 30
0.0005100000000011
  0
VERTEX
  5
B3FA5
  8
ASHADE
 10
-1.3738999999999999
 20
2.2022999999999859
 30
0.0005100000000011
  0
VERTEX
  5
B3FA6
  8
ASHADE
 10
-1.409999999999997
 20
2.1603899999999849
 30
0.0005100000000011
  0
VERTEX
  5
B3FA7
  8
ASHADE
 10
-1.4433000000000009
 20
2.1174399999999798
 30
0.0005100000000011
  0
VERTEX
  5
B3FA8
  8
ASHADE
 10
-1.473599999999998
 20
2.073539999999972
 30
0.0005100000000011
  0
VERTEX
  5
B3FA9
  8
ASHADE
 10
-1.5008999999999959
 20
2.0287599999999841
 30
0.0005100000000011
  0
VERTEX
  5
B3FAA
  8
ASHADE
 10
-1.5251999999999999
 20
1.983209999999985
 30
0.0005100000000011
  0
VERTEX
  5
B3FAB
  8
ASHADE
 10
-1.5464
 20
1.9369699999999801
 30
0.0005100000000011
  0
VERTEX
  5
B3FAC
  8
ASHADE
 10
-1.564499999999996
 20
1.890149999999998
 30
0.0005100000000011
  0
VERTEX
  5
B3FAD
  8
ASHADE
 10
-1.5793999999999999
 20
1.842819999999981
 30
0.0005100000000011
  0
VERTEX
  5
B3FAE
  8
ASHADE
 10
-1.5912000000000031
 20
1.7950899999999801
 30
0.0005100000000011
  0
VERTEX
  5
B3FAF
  8
ASHADE
 10
-1.599699999999999
 20
1.7470599999999969
 30
0.0005100000000011
  0
VERTEX
  5
B3FB0
  8
ASHADE
 10
-1.604900000000002
 20
1.6988299999999721
 30
0.0005100000000011
  0
VERTEX
  5
B3FB1
  8
ASHADE
 10
-1.607
 20
1.650479999999966
 30
0.0005100000000011
  0
VERTEX
  5
B3FB2
  8
ASHADE
 10
-1.6056999999999999
 20
1.6021199999999849
 30
0.0005100000000011
  0
VERTEX
  5
B3FB3
  8
ASHADE
 10
-1.6012999999999971
 20
1.5538399999999719
 30
0.0005100000000011
  0
VERTEX
  5
B3FB4
  8
ASHADE
 10
-1.5934999999999999
 20
1.5057499999999839
 30
0.0005100000000011
  0
VERTEX
  5
B3FB5
  8
ASHADE
 10
-1.5826000000000009
 20
1.4579499999999821
 30
0.0005100000000011
  0
VERTEX
  5
B3FB6
  8
ASHADE
 10
-1.5684
 20
1.410509999999995
 30
0.0005100000000011
  0
VERTEX
  5
B3FB7
  8
ASHADE
 10
-1.5510999999999999
 20
1.363559999999971
 30
0.0005100000000011
  0
VERTEX
  5
B3FB8
  8
ASHADE
 10
-1.5306999999999991
 20
1.3171699999999971
 30
0.0005100000000011
  0
VERTEX
  5
B3FB9
  8
ASHADE
 10
-1.5070999999999961
 20
1.2714399999999979
 30
0.0005100000000011
  0
VERTEX
  5
B3FBA
  8
ASHADE
 10
-1.4804999999999999
 20
1.226469999999984
 30
0.0005100000000011
  0
VERTEX
  5
B3FBB
  8
ASHADE
 10
-1.450899999999999
 20
1.1823399999999959
 30
0.0005100000000011
  0
VERTEX
  5
B3FBC
  8
ASHADE
 10
-1.4184000000000001
 20
1.1391499999999719
 30
0.0005100000000011
  0
VERTEX
  5
B3FBD
  8
ASHADE
 10
-1.382999999999996
 20
1.0969799999999801
 30
0.0005100000000011
  0
VERTEX
  5
B3FBE
  8
ASHADE
 10
-1.3448
 20
1.0559199999999711
 30
0.0005100000000011
  0
VERTEX
  5
B3FBF
  8
ASHADE
 10
-1.3038999999999989
 20
1.016049999999971
 30
0.0005100000000011
  0
VERTEX
  5
B3FC0
  8
ASHADE
 10
-1.260300000000002
 20
0.9774499999999832
 30
0.0005100000000011
  0
VERTEX
  5
B3FC1
  8
ASHADE
 10
-1.2142000000000011
 20
0.940209999999972
 30
0.0005100000000011
  0
VERTEX
  5
B3FC2
  8
ASHADE
 10
-1.1655999999999991
 20
0.9043799999999819
 30
0.0005100000000011
  0
VERTEX
  5
B3FC3
  8
ASHADE
 10
-1.1147000000000009
 20
0.8700599999999596
 30
0.0005100000000011
  0
VERTEX
  5
B3FC4
  8
ASHADE
 10
-1.0614999999999959
 20
0.8372999999999848
 30
0.0005100000000011
  0
VERTEX
  5
B3FC5
  8
ASHADE
 10
-1.0062
 20
0.8061799999999976
 30
0.0005100000000011
  0
VERTEX
  5
B3FC6
  8
ASHADE
 10
-0.9488000000000022
 20
0.7767499999999714
 30
0.0005100000000011
  0
VERTEX
  5
B3FC7
  8
ASHADE
 10
-0.889599999999998
 20
0.749069999999982
 30
0.0005100000000011
  0
VERTEX
  5
B3FC8
  8
ASHADE
 10
-0.8285000000000017
 20
0.7232099999999662
 30
0.0005100000000011
  0
VERTEX
  5
B3FC9
  8
ASHADE
 10
-0.7656999999999991
 20
0.699219999999997
 30
0.0005100000000011
  0
VERTEX
  5
B3FCA
  8
ASHADE
 10
-0.7014000000000034
 20
0.6771299999999983
 30
0.0005100000000011
  0
VERTEX
  5
B3FCB
  8
ASHADE
 10
-0.6357000000000035
 20
0.6569999999999823
 30
0.0005100000000011
  0
VERTEX
  5
B3FCC
  8
ASHADE
 10
-0.5687000000000034
 20
0.6388699999999972
 30
0.0005100000000011
  0
VERTEX
  5
B3FCD
  8
ASHADE
 10
-0.500499999999999
 20
0.6227799999999846
 30
0.0005100000000011
  0
VERTEX
  5
B3FCE
  8
ASHADE
 10
-0.4313000000000039
 20
0.6087499999999722
 30
0.0005100000000011
  0
VERTEX
  5
B3FCF
  8
ASHADE
 10
-0.3613000000000035
 20
0.5968199999999726
 30
0.0005100000000011
  0
VERTEX
  5
B3FD0
  8
ASHADE
 10
-0.2904999999999979
 20
0.5870099999999852
 30
0.0005100000000011
  0
VERTEX
  5
B3FD1
  8
ASHADE
 10
-0.2191000000000009
 20
0.5793399999999807
 30
0.0005100000000011
  0
VERTEX
  5
B3FD2
  8
ASHADE
 10
-0.1473000000000013
 20
0.5738199999999978
 30
0.0005100000000011
  0
VERTEX
  5
B3FD3
  8
ASHADE
 10
-0.0752000000000024
 20
0.5704699999999862
 30
0.0005100000000011
  0
VERTEX
  5
B3FD4
  8
ASHADE
 10
-0.0029000000000003
 20
0.5692999999999984
 30
0.0005100000000011
  0
VERTEX
  5
B3FD5
  8
ASHADE
 10
0.0692999999999984
 20
0.5702899999999858
 30
0.0005100000000011
  0
VERTEX
  5
B3FD6
  8
ASHADE
 10
0.1413999999999973
 20
0.5734699999999862
 30
0.0005100000000011
  0
VERTEX
  5
B3FD7
  8
ASHADE
 10
0.2133000000000003
 20
0.5788099999999972
 30
0.0005100000000011
  0
VERTEX
  5
B3FD8
  8
ASHADE
 10
0.2846999999999973
 20
0.5862999999999872
 30
0.0005100000000011
  0
VERTEX
  5
B3FD9
  8
ASHADE
 10
0.3554999999999993
 20
0.5959399999999846
 30
0.0005100000000011
  0
VERTEX
  5
B3FDA
  8
ASHADE
 10
0.4255999999999996
 20
0.6076999999999729
 30
0.0005100000000011
  0
VERTEX
  5
B3FDB
  8
ASHADE
 10
0.4948999999999979
 20
0.621549999999985
 30
0.0005100000000011
  0
VERTEX
  5
B3FDC
  8
ASHADE
 10
0.5630999999999988
 20
0.6374799999999823
 30
0.0005100000000011
  0
VERTEX
  5
B3FDD
  8
ASHADE
 10
0.6302999999999985
 20
0.6554399999999845
 30
0.0005100000000011
  0
VERTEX
  5
B3FDE
  8
ASHADE
 10
0.6960999999999978
 20
0.6753999999999963
 30
0.0005100000000011
  0
VERTEX
  5
B3FDF
  8
ASHADE
 10
0.7605000000000006
 20
0.6973299999999725
 30
0.0005100000000011
  0
VERTEX
  5
B3FE0
  8
ASHADE
 10
0.8233999999999996
 20
0.7211699999999724
 30
0.0005100000000011
  0
VERTEX
  5
B3FE1
  8
ASHADE
 10
0.8845999999999987
 20
0.7468799999999974
 30
0.0005100000000011
  0
VERTEX
  5
B3FE2
  8
ASHADE
 10
0.9440999999999986
 20
0.774409999999982
 30
0.0005100000000011
  0
VERTEX
  5
B3FE3
  8
ASHADE
 10
1.0015999999999969
 20
0.803689999999996
 30
0.0005100000000011
  0
VERTEX
  5
B3FE4
  8
ASHADE
 10
1.0570999999999959
 20
0.8346799999999846
 30
0.0005100000000011
  0
VERTEX
  5
B3FE5
  8
ASHADE
 10
1.1104999999999969
 20
0.867309999999982
 30
0.0005100000000011
  0
VERTEX
  5
B3FE6
  8
ASHADE
 10
1.161599999999998
 20
0.9015099999999662
 30
0.0005100000000011
  0
VERTEX
  5
B3FE7
  8
ASHADE
 10
1.2102999999999979
 20
0.9372099999999718
 30
0.0005100000000011
  0
VERTEX
  5
B3FE8
  8
ASHADE
 10
1.2566999999999979
 20
0.9743499999999798
 30
0.0005100000000011
  0
VERTEX
  5
B3FE9
  8
ASHADE
 10
1.300399999999998
 20
1.012839999999982
 30
0.0005100000000011
  0
VERTEX
  5
B3FEA
  8
ASHADE
 10
1.3415999999999979
 20
1.052599999999998
 30
0.0005100000000011
  0
VERTEX
  5
B3FEB
  8
ASHADE
 10
1.379999999999997
 20
1.0935699999999711
 30
0.0005100000000011
  0
VERTEX
  5
B3FEC
  8
ASHADE
 10
1.4155999999999971
 20
1.135649999999998
 30
0.0005100000000011
  0
VERTEX
  5
B3FED
  8
ASHADE
 10
1.4483999999999979
 20
1.178759999999982
 30
0.0005100000000011
  0
VERTEX
  5
B3FEE
  8
ASHADE
 10
1.478199999999996
 20
1.2228099999999951
 30
0.0005100000000011
  0
VERTEX
  5
B3FEF
  8
ASHADE
 10
1.5050999999999981
 20
1.267719999999982
 30
0.0005100000000011
  0
VERTEX
  5
B3FF0
  8
ASHADE
 10
1.5288999999999979
 20
1.3133899999999981
 30
0.0005100000000011
  0
VERTEX
  5
B3FF1
  8
ASHADE
 10
1.549599999999997
 20
1.3597299999999839
 30
0.0005100000000011
  0
VERTEX
  5
B3FF2
  8
ASHADE
 10
1.5671999999999979
 20
1.406639999999995
 30
0.0005100000000011
  0
VERTEX
  5
B3FF3
  8
ASHADE
 10
1.5815999999999959
 20
1.454039999999984
 30
0.0005100000000011
  0
VERTEX
  5
B3FF4
  8
ASHADE
 10
1.5927999999999971
 20
1.501819999999995
 30
0.0005100000000011
  0
VERTEX
  5
B3FF5
  8
ASHADE
 10
1.6007999999999969
 20
1.5498899999999971
 30
0.0005100000000011
  0
VERTEX
  5
B3FF6
  8
ASHADE
 10
1.605499999999997
 20
1.598149999999996
 30
0.0005100000000011
  0
VERTEX
  5
B3FF7
  8
ASHADE
 10
1.6069999999999971
 20
1.646509999999985
 30
0.0005100000000011
  0
VERTEX
  5
B3FF8
  8
ASHADE
 10
1.605299999999998
 20
1.694859999999998
 30
0.0005100000000011
  0
VERTEX
  5
B3FF9
  8
ASHADE
 10
1.6002999999999989
 20
1.74310999999998
 30
0.0005100000000011
  0
VERTEX
  5
B3FFA
  8
ASHADE
 10
1.5919999999999981
 20
1.791159999999997
 30
0.0005100000000011
  0
VERTEX
  5
B3FFB
  8
ASHADE
 10
1.5805999999999969
 20
1.8389199999999799
 30
0.0005100000000011
  0
VERTEX
  5
B3FFC
  8
ASHADE
 10
1.565899999999997
 20
1.88627999999997
 30
0.0005100000000011
  0
VERTEX
  5
B3FFD
  8
ASHADE
 10
1.5480999999999969
 20
1.933149999999997
 30
0.0005100000000011
  0
VERTEX
  5
B3FFE
  8
ASHADE
 10
1.527099999999995
 20
1.9794399999999821
 30
0.0005100000000011
  0
VERTEX
  5
B3FFF
  8
ASHADE
 10
1.503099999999999
 20
2.0250499999999709
 30
0.0005100000000011
  0
VERTEX
  5
B4000
  8
ASHADE
 10
1.475999999999998
 20
2.0698899999999858
 30
0.0005100000000011
  0
VERTEX
  5
B4001
  8
ASHADE
 10
1.4458999999999971
 20
2.1138699999999981
 30
0.0005100000000011
  0
VERTEX
  5
B4002
  8
ASHADE
 10
1.4128999999999969
 20
2.1569099999999821
 30
0.0005100000000011
  0
VERTEX
  5
B4003
  8
ASHADE
 10
1.376999999999998
 20
2.1988999999999801
 30
0.0005100000000011
  0
VERTEX
  5
B4004
  8
ASHADE
 10
1.3383999999999989
 20
2.2397699999999712
 30
0.0005100000000011
  0
VERTEX
  5
B4005
  8
ASHADE
 10
1.2970999999999979
 20
2.2794399999999859
 30
0.0005100000000011
  0
VERTEX
  5
B4006
  8
ASHADE
 10
1.253099999999999
 20
2.3178299999999861
 30
0.0005100000000011
  0
VERTEX
  5
B4007
  8
ASHADE
 10
1.2065999999999959
 20
2.3548499999999839
 30
0.0005100000000011
  0
VERTEX
  5
B4008
  8
ASHADE
 10
1.157599999999998
 20
2.390439999999983
 30
0.0005100000000011
  0
VERTEX
  5
B4009
  8
ASHADE
 10
1.106299999999995
 20
2.4245199999999789
 30
0.0005100000000011
  0
VERTEX
  5
B400A
  8
ASHADE
 10
1.052799999999996
 20
2.4570099999999822
 30
0.0005100000000011
  0
VERTEX
  5
B400B
  8
ASHADE
 10
0.9970999999999994
 20
2.4878699999999858
 30
0.0005100000000011
  0
VERTEX
  5
B400C
  8
ASHADE
 10
0.9393999999999989
 20
2.5170199999999952
 30
0.0005100000000011
  0
VERTEX
  5
B400D
  8
ASHADE
 10
0.879899999999999
 20
2.5443999999999809
 30
0.0005100000000011
  0
VERTEX
  5
B400E
  8
ASHADE
 10
0.8185
 20
2.569969999999997
 30
0.0005100000000011
  0
VERTEX
  5
B400F
  8
ASHADE
 10
0.755499999999998
 20
2.5936599999999852
 30
0.0005100000000011
  0
VERTEX
  5
B4010
  8
ASHADE
 10
0.6908999999999996
 20
2.6154299999999822
 30
0.0005100000000011
  0
VERTEX
  5
B4011
  8
ASHADE
 10
0.6250000000000002
 20
2.6352399999999809
 30
0.0005100000000011
  0
VERTEX
  5
B4012
  8
ASHADE
 10
0.5578000000000007
 20
2.6530399999999972
 30
0.0005100000000011
  0
VERTEX
  5
B4013
  8
ASHADE
 10
0.4894
 20
2.668799999999997
 30
0.0005100000000011
  0
VERTEX
  5
B4014
  8
ASHADE
 10
0.4200999999999982
 20
2.6824899999999801
 30
0.0005100000000011
  0
SEQEND
  5
B4015
  8
ASHADE
  0
POLYLINE
  5
B2DB1
  8
0
 66
     1
 10
0.0
 20
0.0
 30
0.0031435310925771
  0
VERTEX
  5
B4016
  8
0
 10
-0.4149916337617725
 20
3.0386916295779818
 30
0.0031435310925771
  0
VERTEX
  5
B4017
  8
0
 10
-0.4148656337617725
 20
3.0322916295779971
 30
0.0031435310925771
  0
VERTEX
  5
B4018
  8
0
 10
-0.4144886337617725
 20
3.0257916295779799
 30
0.0031435310925771
  0
VERTEX
  5
B4019
  8
0
 10
-0.4138596337617725
 20
3.0193916295779948
 30
0.0031435310925771
  0
VERTEX
  5
B401A
  8
0
 10
-0.4129796337617725
 20
3.0129916295779822
 30
0.0031435310925771
  0
VERTEX
  5
B401B
  8
0
 10
-0.4118496337617725
 20
3.0066916295779711
 30
0.0031435310925771
  0
VERTEX
  5
B401C
  8
0
 10
-0.4104686337617726
 20
3.0002916295779789
 30
0.0031435310925771
  0
VERTEX
  5
B401D
  8
0
 10
-0.4088396337617725
 20
2.9938916295779729
 30
0.0031435310925771
  0
VERTEX
  5
B401E
  8
0
 10
-0.4069626337617724
 20
2.9875916295779912
 30
0.0031435310925771
  0
VERTEX
  5
B401F
  8
0
 10
-0.4048386337617725
 20
2.981391629577991
 30
0.0031435310925771
  0
VERTEX
  5
B4020
  8
0
 10
-0.4024696337617725
 20
2.975091629577995
 30
0.0031435310925771
  0
VERTEX
  5
B4021
  8
0
 10
-0.3998556337617724
 20
2.968891629577981
 30
0.0031435310925771
  0
VERTEX
  5
B4022
  8
0
 10
-0.3969996337617724
 20
2.9626916295779822
 30
0.0031435310925771
  0
VERTEX
  5
B4023
  8
0
 10
-0.3939026337617724
 20
2.9565916295779919
 30
0.0031435310925771
  0
VERTEX
  5
B4024
  8
0
 10
-0.3905666337617725
 20
2.9504916295779822
 30
0.0031435310925771
  0
VERTEX
  5
B4025
  8
0
 10
-0.3869936337617724
 20
2.9444916295779811
 30
0.0031435310925771
  0
VERTEX
  5
B4026
  8
0
 10
-0.3831866337617724
 20
2.9385916295779921
 30
0.0031435310925771
  0
VERTEX
  5
B4027
  8
0
 10
-0.3791456337617724
 20
2.932591629577991
 30
0.0031435310925771
  0
VERTEX
  5
B4028
  8
0
 10
-0.3748756337617724
 20
2.926791629577969
 30
0.0031435310925771
  0
VERTEX
  5
B4029
  8
0
 10
-0.3703776337617724
 20
2.9209916295779972
 30
0.0031435310925771
  0
VERTEX
  5
B402A
  8
0
 10
-0.3656556337617724
 20
2.915291629577978
 30
0.0031435310925771
  0
VERTEX
  5
B402B
  8
0
 10
-0.3607106337617724
 20
2.9096916295779911
 30
0.0031435310925771
  0
VERTEX
  5
B402C
  8
0
 10
-0.3555476337617724
 20
2.9041916295779791
 30
0.0031435310925771
  0
VERTEX
  5
B402D
  8
0
 10
-0.3501686337617724
 20
2.8986916295779821
 30
0.0031435310925771
  0
VERTEX
  5
B402E
  8
0
 10
-0.3445766337617724
 20
2.89329162957798
 30
0.0031435310925771
  0
VERTEX
  5
B402F
  8
0
 10
-0.3387756337617724
 20
2.8879916295779959
 30
0.0031435310925771
  0
VERTEX
  5
B4030
  8
0
 10
-0.3327686337617724
 20
2.8827916295779801
 30
0.0031435310925771
  0
VERTEX
  5
B4031
  8
0
 10
-0.3265596337617724
 20
2.8776916295779951
 30
0.0031435310925771
  0
VERTEX
  5
B4032
  8
0
 10
-0.3201526337617724
 20
2.8726916295779921
 30
0.0031435310925771
  0
VERTEX
  5
B4033
  8
0
 10
-0.3135506337617724
 20
2.867791629577972
 30
0.0031435310925771
  0
VERTEX
  5
B4034
  8
0
 10
-0.3067586337617723
 20
2.8629916295779689
 30
0.0031435310925771
  0
VERTEX
  5
B4035
  8
0
 10
-0.2997806337617724
 20
2.8582916295779688
 30
0.0031435310925771
  0
VERTEX
  5
B4036
  8
0
 10
-0.2926196337617723
 20
2.8536916295779799
 30
0.0031435310925771
  0
VERTEX
  5
B4037
  8
0
 10
-0.2852806337617723
 20
2.8491916295779798
 30
0.0031435310925771
  0
VERTEX
  5
B4038
  8
0
 10
-0.2777686337617724
 20
2.8447916295779971
 30
0.0031435310925771
  0
VERTEX
  5
B4039
  8
0
 10
-0.2700876337617725
 20
2.840591629577971
 30
0.0031435310925771
  0
VERTEX
  5
B403A
  8
0
 10
-0.2622426337617724
 20
2.8364916295779921
 30
0.0031435310925771
  0
VERTEX
  5
B403B
  8
0
 10
-0.2542376337617724
 20
2.8323916295779981
 30
0.0031435310925771
  0
VERTEX
  5
B403C
  8
0
 10
-0.2460786337617724
 20
2.8285916295779918
 30
0.0031435310925771
  0
VERTEX
  5
B403D
  8
0
 10
-0.2377696337617724
 20
2.8247916295779798
 30
0.0031435310925771
  0
VERTEX
  5
B403E
  8
0
 10
-0.2293156337617724
 20
2.8211916295779949
 30
0.0031435310925771
  0
VERTEX
  5
B403F
  8
0
 10
-0.2207216337617724
 20
2.817691629577979
 30
0.0031435310925771
  0
VERTEX
  5
B4040
  8
0
 10
-0.2119936337617724
 20
2.814291629577979
 30
0.0031435310925771
  0
VERTEX
  5
B4041
  8
0
 10
-0.2031356337617724
 20
2.8110916295779802
 30
0.0031435310925771
  0
VERTEX
  5
B4042
  8
0
 10
-0.1941546337617724
 20
2.8079916295779981
 30
0.0031435310925771
  0
VERTEX
  5
B4043
  8
0
 10
-0.1850546337617724
 20
2.8049916295779829
 30
0.0031435310925771
  0
VERTEX
  5
B4044
  8
0
 10
-0.1758416337617724
 20
2.8021916295779832
 30
0.0031435310925771
  0
VERTEX
  5
B4045
  8
0
 10
-0.1665216337617724
 20
2.7995916295779959
 30
0.0031435310925771
  0
VERTEX
  5
B4046
  8
0
 10
-0.1570996337617724
 20
2.7969916295779949
 30
0.0031435310925771
  0
VERTEX
  5
B4047
  8
0
 10
-0.1475816337617724
 20
2.794591629577972
 30
0.0031435310925771
  0
VERTEX
  5
B4048
  8
0
 10
-0.1379726337617724
 20
2.7923916295779909
 30
0.0031435310925771
  0
VERTEX
  5
B4049
  8
0
 10
-0.1282796337617724
 20
2.7902916295779709
 30
0.0031435310925771
  0
VERTEX
  5
B404A
  8
0
 10
-0.1185076337617724
 20
2.7883916295779718
 30
0.0031435310925771
  0
VERTEX
  5
B404B
  8
0
 10
-0.1086626337617724
 20
2.7865916295779982
 30
0.0031435310925771
  0
VERTEX
  5
B404C
  8
0
 10
-0.0987513337617724
 20
2.7849916295779802
 30
0.0031435310925771
  0
VERTEX
  5
B404D
  8
0
 10
-0.0887787337617724
 20
2.7834916295779801
 30
0.0031435310925771
  0
VERTEX
  5
B404E
  8
0
 10
-0.0787513337617724
 20
2.7821916295779801
 30
0.0031435310925771
  0
VERTEX
  5
B404F
  8
0
 10
-0.0686750337617724
 20
2.7809916295779971
 30
0.0031435310925771
  0
VERTEX
  5
B4050
  8
0
 10
-0.0585560337617724
 20
2.7799916295779918
 30
0.0031435310925771
  0
VERTEX
  5
B4051
  8
0
 10
-0.0484002337617724
 20
2.779091629577997
 30
0.0031435310925771
  0
VERTEX
  5
B4052
  8
0
 10
-0.0382139337617724
 20
2.7783916295779809
 30
0.0031435310925771
  0
VERTEX
  5
B4053
  8
0
 10
-0.0280032337617724
 20
2.777891629577979
 30
0.0031435310925771
  0
VERTEX
  5
B4054
  8
0
 10
-0.0177743337617724
 20
2.7774916295779799
 30
0.0031435310925771
  0
VERTEX
  5
B4055
  8
0
 10
-0.0075333137617724
 20
2.7772916295779799
 30
0.0031435310925771
  0
VERTEX
  5
B4056
  8
0
 10
0.0027135862382276
 20
2.7771916295779908
 30
0.0031435310925771
  0
VERTEX
  5
B4057
  8
0
 10
0.0129601662382276
 20
2.7772916295779799
 30
0.0031435310925771
  0
VERTEX
  5
B4058
  8
0
 10
0.0232003662382276
 20
2.7774916295779799
 30
0.0031435310925771
  0
VERTEX
  5
B4059
  8
0
 10
0.0334278662382276
 20
2.777891629577979
 30
0.0031435310925771
  0
VERTEX
  5
B405A
  8
0
 10
0.0436365662382276
 20
2.7784916295779918
 30
0.0031435310925771
  0
VERTEX
  5
B405B
  8
0
 10
0.0538202662382276
 20
2.7791916295779791
 30
0.0031435310925771
  0
VERTEX
  5
B405C
  8
0
 10
0.0639728662382276
 20
2.7800916295779952
 30
0.0031435310925771
  0
VERTEX
  5
B405D
  8
0
 10
0.0740882662382276
 20
2.7810916295779791
 30
0.0031435310925771
  0
VERTEX
  5
B405E
  8
0
 10
0.0841602662382276
 20
2.7822916295779829
 30
0.0031435310925771
  0
VERTEX
  5
B405F
  8
0
 10
0.0941828662382276
 20
2.7835916295779981
 30
0.0031435310925771
  0
VERTEX
  5
B4060
  8
0
 10
0.1041503662382276
 20
2.7850916295779689
 30
0.0031435310925771
  0
VERTEX
  5
B4061
  8
0
 10
0.1140553662382276
 20
2.7867916295779969
 30
0.0031435310925771
  0
VERTEX
  5
B4062
  8
0
 10
0.1238943662382276
 20
2.7885916295779789
 30
0.0031435310925771
  0
VERTEX
  5
B4063
  8
0
 10
0.1336583662382276
 20
2.7904916295779918
 30
0.0031435310925771
  0
VERTEX
  5
B4064
  8
0
 10
0.1433443662382276
 20
2.792591629577998
 30
0.0031435310925771
  0
VERTEX
  5
B4065
  8
0
 10
0.1529443662382276
 20
2.7948916295779962
 30
0.0031435310925771
  0
VERTEX
  5
B4066
  8
0
 10
0.1624543662382276
 20
2.7972916295779688
 30
0.0031435310925771
  0
VERTEX
  5
B4067
  8
0
 10
0.1718673662382276
 20
2.799791629577995
 30
0.0031435310925771
  0
VERTEX
  5
B4068
  8
0
 10
0.1811773662382276
 20
2.8024916295779709
 30
0.0031435310925771
  0
VERTEX
  5
B4069
  8
0
 10
0.1903803662382276
 20
2.805291629577972
 30
0.0031435310925771
  0
VERTEX
  5
B406A
  8
0
 10
0.1994693662382276
 20
2.8082916295779792
 30
0.0031435310925771
  0
VERTEX
  5
B406B
  8
0
 10
0.2084393662382276
 20
2.8113916295779831
 30
0.0031435310925771
  0
VERTEX
  5
B406C
  8
0
 10
0.2172853662382276
 20
2.814591629577996
 30
0.0031435310925771
  0
VERTEX
  5
B406D
  8
0
 10
0.2260013662382277
 20
2.817991629577981
 30
0.0031435310925771
  0
VERTEX
  5
B406E
  8
0
 10
0.2345823662382276
 20
2.8214916295779982
 30
0.0031435310925771
  0
VERTEX
  5
B406F
  8
0
 10
0.2430233662382276
 20
2.8250916295779969
 30
0.0031435310925771
  0
VERTEX
  5
B4070
  8
0
 10
0.2513193662382276
 20
2.8288916295779951
 30
0.0031435310925771
  0
VERTEX
  5
B4071
  8
0
 10
0.2594643662382276
 20
2.8327916295779971
 30
0.0031435310925771
  0
VERTEX
  5
B4072
  8
0
 10
0.2674543662382276
 20
2.8367916295779798
 30
0.0031435310925771
  0
VERTEX
  5
B4073
  8
0
 10
0.2752853662382276
 20
2.8409916295779918
 30
0.0031435310925771
  0
VERTEX
  5
B4074
  8
0
 10
0.2829503662382276
 20
2.845191629577982
 30
0.0031435310925771
  0
VERTEX
  5
B4075
  8
0
 10
0.2904463662382276
 20
2.8495916295779788
 30
0.0031435310925771
  0
VERTEX
  5
B4076
  8
0
 10
0.2977693662382275
 20
2.8540916295779719
 30
0.0031435310925771
  0
VERTEX
  5
B4077
  8
0
 10
0.3049133662382276
 20
2.8586916295779972
 30
0.0031435310925771
  0
VERTEX
  5
B4078
  8
0
 10
0.3118743662382276
 20
2.863391629577996
 30
0.0031435310925771
  0
VERTEX
  5
B4079
  8
0
 10
0.3186493662382276
 20
2.8681916295779919
 30
0.0031435310925771
  0
VERTEX
  5
B407A
  8
0
 10
0.3252333662382276
 20
2.8731916295779811
 30
0.0031435310925771
  0
VERTEX
  5
B407B
  8
0
 10
0.3316223662382277
 20
2.8781916295779828
 30
0.0031435310925771
  0
VERTEX
  5
B407C
  8
0
 10
0.3378123662382276
 20
2.8832916295779958
 30
0.0031435310925771
  0
VERTEX
  5
B407D
  8
0
 10
0.3438003662382276
 20
2.8884916295779912
 30
0.0031435310925771
  0
VERTEX
  5
B407E
  8
0
 10
0.3495823662382276
 20
2.8937916295779971
 30
0.0031435310925771
  0
VERTEX
  5
B407F
  8
0
 10
0.3551543662382276
 20
2.8991916295779911
 30
0.0031435310925771
  0
VERTEX
  5
B4080
  8
0
 10
0.3605143662382276
 20
2.9046916295779961
 30
0.0031435310925771
  0
VERTEX
  5
B4081
  8
0
 10
0.3656573662382277
 20
2.9101916295779802
 30
0.0031435310925771
  0
VERTEX
  5
B4082
  8
0
 10
0.3705813662382276
 20
2.9158916295779909
 30
0.0031435310925771
  0
VERTEX
  5
B4083
  8
0
 10
0.3752833662382276
 20
2.9215916295779958
 30
0.0031435310925771
  0
VERTEX
  5
B4084
  8
0
 10
0.3797603662382276
 20
2.9272916295779718
 30
0.0031435310925771
  0
VERTEX
  5
B4085
  8
0
 10
0.3840093662382276
 20
2.9331916295779972
 30
0.0031435310925771
  0
VERTEX
  5
B4086
  8
0
 10
0.3880283662382276
 20
2.9390916295779799
 30
0.0031435310925771
  0
VERTEX
  5
B4087
  8
0
 10
0.3918143662382275
 20
2.945091629577973
 30
0.0031435310925771
  0
VERTEX
  5
B4088
  8
0
 10
0.3953653662382276
 20
2.9510916295779799
 30
0.0031435310925771
  0
VERTEX
  5
B4089
  8
0
 10
0.3986793662382276
 20
2.9571916295779981
 30
0.0031435310925771
  0
VERTEX
  5
B408A
  8
0
 10
0.4017543662382276
 20
2.9632916295779799
 30
0.0031435310925771
  0
VERTEX
  5
B408B
  8
0
 10
0.4045873662382278
 20
2.969491629577973
 30
0.0031435310925771
  0
VERTEX
  5
B408C
  8
0
 10
0.4071783662382276
 20
2.9756916295779798
 30
0.0031435310925771
  0
VERTEX
  5
B408D
  8
0
 10
0.4095253662382278
 20
2.98189162957798
 30
0.0031435310925771
  0
VERTEX
  5
B408E
  8
0
 10
0.4116263662382277
 20
2.9881916295779969
 30
0.0031435310925771
  0
VERTEX
  5
B408F
  8
0
 10
0.4134813662382277
 20
2.9944916295779711
 30
0.0031435310925771
  0
VERTEX
  5
B4090
  8
0
 10
0.4150873662382278
 20
3.0008916295779922
 30
0.0031435310925771
  0
VERTEX
  5
B4091
  8
0
 10
0.4164443662382278
 20
3.0071916295779948
 30
0.0031435310925771
  0
VERTEX
  5
B4092
  8
0
 10
0.4175513662382276
 20
3.0135916295779799
 30
0.0031435310925771
  0
VERTEX
  5
B4093
  8
0
 10
0.4184083662382276
 20
3.0199916295779801
 30
0.0031435310925771
  0
VERTEX
  5
B4094
  8
0
 10
0.4190133662382275
 20
3.0263916295779718
 30
0.0031435310925771
  0
VERTEX
  5
B4095
  8
0
 10
0.4193673662382278
 20
3.0328916295779811
 30
0.0031435310925771
  0
VERTEX
  5
B4096
  8
0
 10
0.4194703662382279
 20
3.0392916295779808
 30
0.0031435310925771
  0
SEQEND
  5
B4097
  8
0
  0
POLYLINE
  5
B2E31
  8
ASHADE
 66
     1
 10
0.0
 20
0.0
 30
0.0015900000000011
  0
VERTEX
  5
B4098
  8
ASHADE
 10
-0.4171999999999977
 20
3.0386699999999811
 30
0.0015900000000011
  0
VERTEX
  5
B4099
  8
ASHADE
 10
-0.4171000000000015
 20
3.0322299999999842
 30
0.0015900000000011
  0
VERTEX
  5
B409A
  8
ASHADE
 10
-0.4167000000000024
 20
3.0257899999999651
 30
0.0015900000000011
  0
VERTEX
  5
B409B
  8
ASHADE
 10
-0.4160000000000003
 20
3.0193599999999838
 30
0.0015900000000011
  0
VERTEX
  5
B409C
  8
ASHADE
 10
-0.4152000000000022
 20
3.012939999999964
 30
0.0015900000000011
  0
VERTEX
  5
B409D
  8
ASHADE
 10
-0.4149423309282716
 20
3.011563617708489
 30
0.0015900000000011
  0
SEQEND
  5
B409E
  8
ASHADE
  0
POLYLINE
  5
B2E36
  8
0
 66
     1
 10
0.0
 20
0.0
 30
-0.0011564689074239
  0
VERTEX
  5
B409F
  8
0
 10
-0.4143416337617725
 20
2.6801916295779828
 30
-0.0011564689074239
  0
VERTEX
  5
B40A0
  8
0
 10
-0.4142166337617725
 20
2.6736916295779798
 30
-0.0011564689074239
  0
VERTEX
  5
B40A1
  8
0
 10
-0.4138386337617725
 20
2.6671916295779918
 30
-0.0011564689074239
  0
VERTEX
  5
B40A2
  8
0
 10
-0.4132096337617725
 20
2.6607916295779921
 30
-0.0011564689074239
  0
VERTEX
  5
B40A3
  8
0
 10
-0.4123296337617724
 20
2.654291629577997
 30
-0.0011564689074239
  0
VERTEX
  5
B40A4
  8
0
 10
-0.4111996337617724
 20
2.6478916295779982
 30
-0.0011564689074239
  0
VERTEX
  5
B40A5
  8
0
 10
-0.4098196337617725
 20
2.6414916295779909
 30
-0.0011564689074239
  0
VERTEX
  5
B40A6
  8
0
 10
-0.4081906337617725
 20
2.635091629577992
 30
-0.0011564689074239
  0
VERTEX
  5
B40A7
  8
0
 10
-0.4063136337617724
 20
2.6286916295779781
 30
-0.0011564689074239
  0
VERTEX
  5
B40A8
  8
0
 10
-0.4041896337617725
 20
2.6223916295779972
 30
-0.0011564689074239
  0
VERTEX
  5
B40A9
  8
0
 10
-0.4018196337617725
 20
2.616091629577979
 30
-0.0011564689074239
  0
VERTEX
  5
B40AA
  8
0
 10
-0.3992066337617723
 20
2.6097916295779831
 30
-0.0011564689074239
  0
VERTEX
  5
B40AB
  8
0
 10
-0.3963506337617724
 20
2.6035916295779979
 30
-0.0011564689074239
  0
VERTEX
  5
B40AC
  8
0
 10
-0.3932536337617724
 20
2.5974916295779802
 30
-0.0011564689074239
  0
VERTEX
  5
B40AD
  8
0
 10
-0.3899176337617724
 20
2.59129162957798
 30
-0.0011564689074239
  0
VERTEX
  5
B40AE
  8
0
 10
-0.3863446337617723
 20
2.5852916295779802
 30
-0.0011564689074239
  0
VERTEX
  5
B40AF
  8
0
 10
-0.3825366337617724
 20
2.57929162957798
 30
-0.0011564689074239
  0
VERTEX
  5
B40B0
  8
0
 10
-0.3784966337617724
 20
2.5732916295779802
 30
-0.0011564689074239
  0
VERTEX
  5
B40B1
  8
0
 10
-0.3742256337617724
 20
2.5673916295779828
 30
-0.0011564689074239
  0
VERTEX
  5
B40B2
  8
0
 10
-0.3697286337617724
 20
2.5615916295779821
 30
-0.0011564689074239
  0
VERTEX
  5
B40B3
  8
0
 10
-0.3650056337617724
 20
2.5558916295779919
 30
-0.0011564689074239
  0
VERTEX
  5
B40B4
  8
0
 10
-0.3600606337617724
 20
2.5501916295779798
 30
-0.0011564689074239
  0
VERTEX
  5
B40B5
  8
0
 10
-0.3548976337617724
 20
2.5445916295779791
 30
-0.0011564689074239
  0
VERTEX
  5
B40B6
  8
0
 10
-0.3495186337617724
 20
2.5390916295779808
 30
-0.0011564689074239
  0
VERTEX
  5
B40B7
  8
0
 10
-0.3439266337617724
 20
2.5336916295779801
 30
-0.0011564689074239
  0
VERTEX
  5
B40B8
  8
0
 10
-0.3381256337617723
 20
2.5282916295779918
 30
-0.0011564689074239
  0
VERTEX
  5
B40B9
  8
0
 10
-0.3321186337617724
 20
2.5230916295779968
 30
-0.0011564689074239
  0
VERTEX
  5
B40BA
  8
0
 10
-0.3259096337617724
 20
2.5179916295779909
 30
-0.0011564689074239
  0
VERTEX
  5
B40BB
  8
0
 10
-0.3195026337617723
 20
2.5128916295779931
 30
-0.0011564689074239
  0
VERTEX
  5
B40BC
  8
0
 10
-0.3129006337617724
 20
2.5079916295779792
 30
-0.0011564689074239
  0
VERTEX
  5
B40BD
  8
0
 10
-0.3061086337617724
 20
2.5030916295779728
 30
-0.0011564689074239
  0
VERTEX
  5
B40BE
  8
0
 10
-0.2991296337617724
 20
2.4983916295779731
 30
-0.0011564689074239
  0
VERTEX
  5
B40BF
  8
0
 10
-0.2919686337617724
 20
2.4936916295779952
 30
-0.0011564689074239
  0
VERTEX
  5
B40C0
  8
0
 10
-0.2846306337617724
 20
2.4891916295779799
 30
-0.0011564689074239
  0
VERTEX
  5
B40C1
  8
0
 10
-0.2771186337617723
 20
2.4847916295779688
 30
-0.0011564689074239
  0
VERTEX
  5
B40C2
  8
0
 10
-0.2694376337617724
 20
2.4804916295779971
 30
-0.0011564689074239
  0
VERTEX
  5
B40C3
  8
0
 10
-0.2615916337617724
 20
2.4763916295779822
 30
-0.0011564689074239
  0
VERTEX
  5
B40C4
  8
0
 10
-0.2535866337617723
 20
2.4722916295779949
 30
-0.0011564689074239
  0
VERTEX
  5
B40C5
  8
0
 10
-0.2454276337617724
 20
2.468391629577972
 30
-0.0011564689074239
  0
VERTEX
  5
B40C6
  8
0
 10
-0.2371176337617723
 20
2.464591629577995
 30
-0.0011564689074239
  0
VERTEX
  5
B40C7
  8
0
 10
-0.2286636337617724
 20
2.4609916295779959
 30
-0.0011564689074239
  0
VERTEX
  5
B40C8
  8
0
 10
-0.2200696337617724
 20
2.4573916295779981
 30
-0.0011564689074239
  0
VERTEX
  5
B40C9
  8
0
 10
-0.2113416337617724
 20
2.45409162957798
 30
-0.0011564689074239
  0
VERTEX
  5
B40CA
  8
0
 10
-0.2024846337617724
 20
2.4507916295779921
 30
-0.0011564689074239
  0
VERTEX
  5
B40CB
  8
0
 10
-0.1935026337617724
 20
2.4476916295779949
 30
-0.0011564689074239
  0
VERTEX
  5
B40CC
  8
0
 10
-0.1844026337617724
 20
2.444691629577981
 30
-0.0011564689074239
  0
VERTEX
  5
B40CD
  8
0
 10
-0.1751896337617724
 20
2.44189162957798
 30
-0.0011564689074239
  0
VERTEX
  5
B40CE
  8
0
 10
-0.1658696337617724
 20
2.439191629577997
 30
-0.0011564689074239
  0
VERTEX
  5
B40CF
  8
0
 10
-0.1564476337617724
 20
2.4365916295779959
 30
-0.0011564689074239
  0
VERTEX
  5
B40D0
  8
0
 10
-0.1469296337617724
 20
2.4341916295779811
 30
-0.0011564689074239
  0
VERTEX
  5
B40D1
  8
0
 10
-0.1373206337617724
 20
2.4319916295779791
 30
-0.0011564689074239
  0
VERTEX
  5
B40D2
  8
0
 10
-0.1276276337617724
 20
2.4298916295779729
 30
-0.0011564689074239
  0
VERTEX
  5
B40D3
  8
0
 10
-0.1178556337617724
 20
2.4278916295779922
 30
-0.0011564689074239
  0
VERTEX
  5
B40D4
  8
0
 10
-0.1080106337617724
 20
2.426091629577996
 30
-0.0011564689074239
  0
VERTEX
  5
B40D5
  8
0
 10
-0.0980989337617724
 20
2.424491629577993
 30
-0.0011564689074239
  0
VERTEX
  5
B40D6
  8
0
 10
-0.0881263337617724
 20
2.4229916295779921
 30
-0.0011564689074239
  0
VERTEX
  5
B40D7
  8
0
 10
-0.0780988337617724
 20
2.421691629577992
 30
-0.0011564689074239
  0
VERTEX
  5
B40D8
  8
0
 10
-0.0680224337617724
 20
2.4204916295779948
 30
-0.0011564689074239
  0
VERTEX
  5
B40D9
  8
0
 10
-0.0579033337617724
 20
2.4194916295779971
 30
-0.0011564689074239
  0
VERTEX
  5
B40DA
  8
0
 10
-0.0477475337617724
 20
2.4185916295779961
 30
-0.0011564689074239
  0
VERTEX
  5
B40DB
  8
0
 10
-0.0375611337617724
 20
2.4178916295779791
 30
-0.0011564689074239
  0
VERTEX
  5
B40DC
  8
0
 10
-0.0273504337617724
 20
2.4173916295779909
 30
-0.0011564689074239
  0
VERTEX
  5
B40DD
  8
0
 10
-0.0171214337617724
 20
2.4169916295779919
 30
-0.0011564689074239
  0
VERTEX
  5
B40DE
  8
0
 10
-0.0068803137617724
 20
2.4166916295779961
 30
-0.0011564689074239
  0
VERTEX
  5
B40DF
  8
0
 10
0.0033666462382276
 20
2.4166916295779961
 30
-0.0011564689074239
  0
VERTEX
  5
B40E0
  8
0
 10
0.0136133662382276
 20
2.416791629577971
 30
-0.0011564689074239
  0
VERTEX
  5
B40E1
  8
0
 10
0.0238535662382276
 20
2.4169916295779919
 30
-0.0011564689074239
  0
VERTEX
  5
B40E2
  8
0
 10
0.0340810662382276
 20
2.4173916295779909
 30
-0.0011564689074239
  0
VERTEX
  5
B40E3
  8
0
 10
0.0442898662382276
 20
2.4179916295779971
 30
-0.0011564689074239
  0
VERTEX
  5
B40E4
  8
0
 10
0.0544735662382276
 20
2.4186916295779919
 30
-0.0011564689074239
  0
VERTEX
  5
B40E5
  8
0
 10
0.0646262662382276
 20
2.419591629577972
 30
-0.0011564689074239
  0
VERTEX
  5
B40E6
  8
0
 10
0.0747416662382276
 20
2.4205916295779981
 30
-0.0011564689074239
  0
VERTEX
  5
B40E7
  8
0
 10
0.0848137662382276
 20
2.4217916295779811
 30
-0.0011564689074239
  0
VERTEX
  5
B40E8
  8
0
 10
0.0948363662382276
 20
2.4230916295779821
 30
-0.0011564689074239
  0
VERTEX
  5
B40E9
  8
0
 10
0.1048033662382276
 20
2.4246916295779921
 30
-0.0011564689074239
  0
VERTEX
  5
B40EA
  8
0
 10
0.1147093662382276
 20
2.426291629577995
 30
-0.0011564689074239
  0
VERTEX
  5
B40EB
  8
0
 10
0.1245473662382276
 20
2.4280916295779909
 30
-0.0011564689074239
  0
VERTEX
  5
B40EC
  8
0
 10
0.1343123662382276
 20
2.4300916295779791
 30
-0.0011564689074239
  0
VERTEX
  5
B40ED
  8
0
 10
0.1439983662382276
 20
2.432191629577992
 30
-0.0011564689074239
  0
VERTEX
  5
B40EE
  8
0
 10
0.1535983662382276
 20
2.4344916295779981
 30
-0.0011564689074239
  0
VERTEX
  5
B40EF
  8
0
 10
0.1631083662382276
 20
2.4368916295779921
 30
-0.0011564689074239
  0
VERTEX
  5
B40F0
  8
0
 10
0.1725203662382276
 20
2.4393916295779969
 30
-0.0011564689074239
  0
VERTEX
  5
B40F1
  8
0
 10
0.1818313662382276
 20
2.4420916295779729
 30
-0.0011564689074239
  0
VERTEX
  5
B40F2
  8
0
 10
0.1910343662382276
 20
2.4449916295779981
 30
-0.0011564689074239
  0
VERTEX
  5
B40F3
  8
0
 10
0.2001233662382276
 20
2.4479916295779982
 30
-0.0011564689074239
  0
VERTEX
  5
B40F4
  8
0
 10
0.2090933662382276
 20
2.4510916295779799
 30
-0.0011564689074239
  0
VERTEX
  5
B40F5
  8
0
 10
0.2179393662382276
 20
2.4543916295779971
 30
-0.0011564689074239
  0
VERTEX
  5
B40F6
  8
0
 10
0.2266553662382276
 20
2.457791629577982
 30
-0.0011564689074239
  0
VERTEX
  5
B40F7
  8
0
 10
0.2352363662382276
 20
2.4612916295779921
 30
-0.0011564689074239
  0
VERTEX
  5
B40F8
  8
0
 10
0.2436773662382276
 20
2.4649916295779799
 30
-0.0011564689074239
  0
VERTEX
  5
B40F9
  8
0
 10
0.2519723662382276
 20
2.4687916295779919
 30
-0.0011564689074239
  0
VERTEX
  5
B40FA
  8
0
 10
0.2601183662382277
 20
2.4726916295779802
 30
-0.0011564689074239
  0
VERTEX
  5
B40FB
  8
0
 10
0.2681083662382276
 20
2.476791629577995
 30
-0.0011564689074239
  0
VERTEX
  5
B40FC
  8
0
 10
0.2759383662382276
 20
2.4808916295779819
 30
-0.0011564689074239
  0
VERTEX
  5
B40FD
  8
0
 10
0.2836043662382276
 20
2.4851916295779972
 30
-0.0011564689074239
  0
VERTEX
  5
B40FE
  8
0
 10
0.2911003662382276
 20
2.489591629577979
 30
-0.0011564689074239
  0
VERTEX
  5
B40FF
  8
0
 10
0.2984223662382277
 20
2.4941916295779829
 30
-0.0011564689074239
  0
VERTEX
  5
B4100
  8
0
 10
0.3055663662382276
 20
2.4987916295779788
 30
-0.0011564689074239
  0
VERTEX
  5
B4101
  8
0
 10
0.3125273662382276
 20
2.5035916295779819
 30
-0.0011564689074239
  0
VERTEX
  5
B4102
  8
0
 10
0.3193023662382276
 20
2.508391629577992
 30
-0.0011564689074239
  0
VERTEX
  5
B4103
  8
0
 10
0.3258863662382277
 20
2.513391629577995
 30
-0.0011564689074239
  0
VERTEX
  5
B4104
  8
0
 10
0.3322753662382276
 20
2.518391629577998
 30
-0.0011564689074239
  0
VERTEX
  5
B4105
  8
0
 10
0.3384653662382276
 20
2.5235916295779921
 30
-0.0011564689074239
  0
VERTEX
  5
B4106
  8
0
 10
0.3444533662382277
 20
2.52879162957798
 30
-0.0011564689074239
  0
VERTEX
  5
B4107
  8
0
 10
0.3502353662382276
 20
2.5341916295779958
 30
-0.0011564689074239
  0
VERTEX
  5
B4108
  8
0
 10
0.3558073662382276
 20
2.5395916295779979
 30
-0.0011564689074239
  0
VERTEX
  5
B4109
  8
0
 10
0.3611663662382276
 20
2.5450916295779811
 30
-0.0011564689074239
  0
VERTEX
  5
B410A
  8
0
 10
0.3663093662382276
 20
2.5506916295779831
 30
-0.0011564689074239
  0
VERTEX
  5
B410B
  8
0
 10
0.3712333662382276
 20
2.5563916295779801
 30
-0.0011564689074239
  0
VERTEX
  5
B410C
  8
0
 10
0.3759353662382276
 20
2.562191629577995
 30
-0.0011564689074239
  0
VERTEX
  5
B410D
  8
0
 10
0.3804123662382276
 20
2.5679916295779961
 30
-0.0011564689074239
  0
VERTEX
  5
B410E
  8
0
 10
0.3846613662382276
 20
2.573891629577993
 30
-0.0011564689074239
  0
VERTEX
  5
B410F
  8
0
 10
0.3886793662382276
 20
2.5797916295779819
 30
-0.0011564689074239
  0
VERTEX
  5
B4110
  8
0
 10
0.3924653662382276
 20
2.5857916295779968
 30
-0.0011564689074239
  0
VERTEX
  5
B4111
  8
0
 10
0.3960163662382276
 20
2.5918916295779719
 30
-0.0011564689074239
  0
VERTEX
  5
B4112
  8
0
 10
0.3993303662382276
 20
2.5979916295779968
 30
-0.0011564689074239
  0
VERTEX
  5
B4113
  8
0
 10
0.4024053662382278
 20
2.6041916295779819
 30
-0.0011564689074239
  0
VERTEX
  5
B4114
  8
0
 10
0.4052383662382278
 20
2.6103916295779821
 30
-0.0011564689074239
  0
VERTEX
  5
B4115
  8
0
 10
0.4078293662382277
 20
2.6166916295779918
 30
-0.0011564689074239
  0
VERTEX
  5
B4116
  8
0
 10
0.4101763662382277
 20
2.6229916295779812
 30
-0.0011564689074239
  0
VERTEX
  5
B4117
  8
0
 10
0.4122773662382276
 20
2.6292916295779909
 30
-0.0011564689074239
  0
VERTEX
  5
B4118
  8
0
 10
0.4141313662382278
 20
2.6356916295779982
 30
-0.0011564689074239
  0
VERTEX
  5
B4119
  8
0
 10
0.4157373662382279
 20
2.642091629577997
 30
-0.0011564689074239
  0
VERTEX
  5
B411A
  8
0
 10
0.4170943662382278
 20
2.6484916295779959
 30
-0.0011564689074239
  0
VERTEX
  5
B411B
  8
0
 10
0.4182013662382277
 20
2.654891629577981
 30
-0.0011564689074239
  0
VERTEX
  5
B411C
  8
0
 10
0.4190573662382279
 20
2.6613916295779911
 30
-0.0011564689074239
  0
VERTEX
  5
B411D
  8
0
 10
0.4196633662382278
 20
2.6677916295779691
 30
-0.0011564689074239
  0
VERTEX
  5
B411E
  8
0
 10
0.4200173662382279
 20
2.6742916295779788
 30
-0.0011564689074239
  0
VERTEX
  5
B411F
  8
0
 10
0.4201193662382276
 20
2.680791629577981
 30
-0.0011564689074239
  0
SEQEND
  5
B4120
  8
0
  0
POLYLINE
  5
B2EB6
  8
0
 66
     1
 10
0.0
 20
0.0
 30
0.0013335310925759
  0
VERTEX
  5
B4121
  8
0
 10
-0.1488376337617724
 20
2.4347916295779788
 30
0.0013335310925759
  0
VERTEX
  5
B4122
  8
0
 10
-0.1487906337617724
 20
2.4322916295779811
 30
0.0013335310925759
  0
VERTEX
  5
B4123
  8
0
 10
-0.1486546337617724
 20
2.429791629577998
 30
0.0013335310925759
  0
VERTEX
  5
B4124
  8
0
 10
-0.1484306337617724
 20
2.4272916295779789
 30
0.0013335310925759
  0
VERTEX
  5
B4125
  8
0
 10
-0.1481186337617724
 20
2.4247916295779808
 30
0.0013335310925759
  0
VERTEX
  5
B4126
  8
0
 10
-0.1477176337617724
 20
2.4222916295779982
 30
0.0013335310925759
  0
VERTEX
  5
B4127
  8
0
 10
-0.1472286337617724
 20
2.419891629577982
 30
0.0013335310925759
  0
VERTEX
  5
B4128
  8
0
 10
-0.1466516337617724
 20
2.4173916295779909
 30
0.0013335310925759
  0
VERTEX
  5
B4129
  8
0
 10
-0.1459876337617724
 20
2.4148916295779719
 30
0.0013335310925759
  0
VERTEX
  5
B412A
  8
0
 10
-0.1452366337617724
 20
2.4124916295779921
 30
0.0013335310925759
  0
VERTEX
  5
B412B
  8
0
 10
-0.1443996337617724
 20
2.4100916295779982
 30
0.0013335310925759
  0
VERTEX
  5
B412C
  8
0
 10
-0.1434756337617724
 20
2.407691629577982
 30
0.0013335310925759
  0
VERTEX
  5
B412D
  8
0
 10
-0.1424666337617724
 20
2.40529162957798
 30
0.0013335310925759
  0
VERTEX
  5
B412E
  8
0
 10
-0.1413726337617724
 20
2.402891629577979
 30
0.0013335310925759
  0
VERTEX
  5
B412F
  8
0
 10
-0.1401946337617724
 20
2.4004916295779921
 30
0.0013335310925759
  0
VERTEX
  5
B4130
  8
0
 10
-0.1389326337617724
 20
2.3981916295779788
 30
0.0013335310925759
  0
VERTEX
  5
B4131
  8
0
 10
-0.1375876337617724
 20
2.3958916295779811
 30
0.0013335310925759
  0
VERTEX
  5
B4132
  8
0
 10
-0.1361616337617724
 20
2.3935916295779971
 30
0.0013335310925759
  0
VERTEX
  5
B4133
  8
0
 10
-0.1346536337617724
 20
2.3912916295779918
 30
0.0013335310925759
  0
VERTEX
  5
B4134
  8
0
 10
-0.1330656337617724
 20
2.3890916295779832
 30
0.0013335310925759
  0
VERTEX
  5
B4135
  8
0
 10
-0.1313986337617724
 20
2.3867916295779921
 30
0.0013335310925759
  0
VERTEX
  5
B4136
  8
0
 10
-0.1296526337617724
 20
2.3846916295779792
 30
0.0013335310925759
  0
VERTEX
  5
B4137
  8
0
 10
-0.1278296337617724
 20
2.3824916295779981
 30
0.0013335310925759
  0
VERTEX
  5
B4138
  8
0
 10
-0.1259306337617724
 20
2.3803916295779919
 30
0.0013335310925759
  0
VERTEX
  5
B4139
  8
0
 10
-0.1239566337617724
 20
2.3782916295779719
 30
0.0013335310925759
  0
VERTEX
  5
B413A
  8
0
 10
-0.1219086337617724
 20
2.3761916295779808
 30
0.0013335310925759
  0
VERTEX
  5
B413B
  8
0
 10
-0.1197886337617724
 20
2.374191629577993
 30
0.0013335310925759
  0
VERTEX
  5
B413C
  8
0
 10
-0.1175966337617724
 20
2.372191629577983
 30
0.0013335310925759
  0
VERTEX
  5
B413D
  8
0
 10
-0.1153346337617724
 20
2.370191629577981
 30
0.0013335310925759
  0
VERTEX
  5
B413E
  8
0
 10
-0.1130036337617724
 20
2.368291629577981
 30
0.0013335310925759
  0
VERTEX
  5
B413F
  8
0
 10
-0.1106056337617724
 20
2.3664916295779781
 30
0.0013335310925759
  0
VERTEX
  5
B4140
  8
0
 10
-0.1081416337617724
 20
2.364591629577979
 30
0.0013335310925759
  0
VERTEX
  5
B4141
  8
0
 10
-0.1056126337617724
 20
2.362791629577969
 30
0.0013335310925759
  0
VERTEX
  5
B4142
  8
0
 10
-0.1030216337617724
 20
2.3610916295779911
 30
0.0013335310925759
  0
VERTEX
  5
B4143
  8
0
 10
-0.1003686337617724
 20
2.3593916295779911
 30
0.0013335310925759
  0
VERTEX
  5
B4144
  8
0
 10
-0.0976561337617724
 20
2.3576916295779919
 30
0.0013335310925759
  0
VERTEX
  5
B4145
  8
0
 10
-0.0948853337617724
 20
2.356091629577981
 30
0.0013335310925759
  0
VERTEX
  5
B4146
  8
0
 10
-0.0920579337617724
 20
2.3544916295779919
 30
0.0013335310925759
  0
VERTEX
  5
B4147
  8
0
 10
-0.0891756337617724
 20
2.3529916295779918
 30
0.0013335310925759
  0
VERTEX
  5
B4148
  8
0
 10
-0.0862403337617724
 20
2.3515916295779808
 30
0.0013335310925759
  0
VERTEX
  5
B4149
  8
0
 10
-0.0832535337617724
 20
2.350091629577995
 30
0.0013335310925759
  0
VERTEX
  5
B414A
  8
0
 10
-0.0802171337617724
 20
2.3487916295779812
 30
0.0013335310925759
  0
VERTEX
  5
B414B
  8
0
 10
-0.0771329337617724
 20
2.3473916295779982
 30
0.0013335310925759
  0
VERTEX
  5
B414C
  8
0
 10
-0.0740027337617724
 20
2.3461916295779801
 30
0.0013335310925759
  0
VERTEX
  5
B414D
  8
0
 10
-0.0708284337617724
 20
2.344991629577982
 30
0.0013335310925759
  0
VERTEX
  5
B414E
  8
0
 10
-0.0676119337617724
 20
2.3437916295779919
 30
0.0013335310925759
  0
VERTEX
  5
B414F
  8
0
 10
-0.0643551337617724
 20
2.3426916295779909
 30
0.0013335310925759
  0
VERTEX
  5
B4150
  8
0
 10
-0.0610599337617724
 20
2.3416916295779719
 30
0.0013335310925759
  0
VERTEX
  5
B4151
  8
0
 10
-0.0577283337617724
 20
2.340691629577996
 30
0.0013335310925759
  0
VERTEX
  5
B4152
  8
0
 10
-0.0543624337617724
 20
2.3396916295779908
 30
0.0013335310925759
  0
VERTEX
  5
B4153
  8
0
 10
-0.0509640337617724
 20
2.3387916295779969
 30
0.0013335310925759
  0
VERTEX
  5
B4154
  8
0
 10
-0.0475352337617724
 20
2.3379916295779921
 30
0.0013335310925759
  0
VERTEX
  5
B4155
  8
0
 10
-0.0440781337617724
 20
2.3371916295779789
 30
0.0013335310925759
  0
VERTEX
  5
B4156
  8
0
 10
-0.0405947337617724
 20
2.3364916295779921
 30
0.0013335310925759
  0
VERTEX
  5
B4157
  8
0
 10
-0.0370871337617724
 20
2.3358916295779788
 30
0.0013335310925759
  0
VERTEX
  5
B4158
  8
0
 10
-0.0335574337617724
 20
2.3352916295779802
 30
0.0013335310925759
  0
VERTEX
  5
B4159
  8
0
 10
-0.0300077337617724
 20
2.334791629577992
 30
0.0013335310925759
  0
VERTEX
  5
B415A
  8
0
 10
-0.0264401337617724
 20
2.3342916295779972
 30
0.0013335310925759
  0
VERTEX
  5
B415B
  8
0
 10
-0.0228567337617724
 20
2.333891629577983
 30
0.0013335310925759
  0
VERTEX
  5
B415C
  8
0
 10
-0.0192597337617724
 20
2.3334916295779911
 30
0.0013335310925759
  0
VERTEX
  5
B415D
  8
0
 10
-0.0156512337617724
 20
2.3331916295779962
 30
0.0013335310925759
  0
VERTEX
  5
B415E
  8
0
 10
-0.0120333337617724
 20
2.332991629577982
 30
0.0013335310925759
  0
VERTEX
  5
B415F
  8
0
 10
-0.0084083137617724
 20
2.332791629577982
 30
0.0013335310925759
  0
VERTEX
  5
B4160
  8
0
 10
-0.0047782437617724
 20
2.3326916295779792
 30
0.0013335310925759
  0
VERTEX
  5
B4161
  8
0
 10
-0.0011453137617724
 20
2.3326916295779792
 30
0.0013335310925759
  0
VERTEX
  5
B4162
  8
0
 10
0.0024883262382276
 20
2.3326916295779792
 30
0.0013335310925759
  0
VERTEX
  5
B4163
  8
0
 10
0.0061204962382276
 20
2.332791629577982
 30
0.0013335310925759
  0
VERTEX
  5
B4164
  8
0
 10
0.0097490462382276
 20
2.332891629577972
 30
0.0013335310925759
  0
VERTEX
  5
B4165
  8
0
 10
0.0133717662382276
 20
2.333091629577992
 30
0.0013335310925759
  0
VERTEX
  5
B4166
  8
0
 10
0.0169865662382276
 20
2.3333916295779948
 30
0.0013335310925759
  0
VERTEX
  5
B4167
  8
0
 10
0.0205912662382276
 20
2.3336916295779981
 30
0.0013335310925759
  0
VERTEX
  5
B4168
  8
0
 10
0.0241837662382276
 20
2.3339916295779801
 30
0.0013335310925759
  0
VERTEX
  5
B4169
  8
0
 10
0.0277618662382276
 20
2.3344916295779821
 30
0.0013335310925759
  0
VERTEX
  5
B416A
  8
0
 10
0.0313233662382276
 20
2.334991629577992
 30
0.0013335310925759
  0
VERTEX
  5
B416B
  8
0
 10
0.0348662662382276
 20
2.3354916295779802
 30
0.0013335310925759
  0
VERTEX
  5
B416C
  8
0
 10
0.0383884662382276
 20
2.3361916295779959
 30
0.0013335310925759
  0
VERTEX
  5
B416D
  8
0
 10
0.0418877662382276
 20
2.3367916295779798
 30
0.0013335310925759
  0
VERTEX
  5
B416E
  8
0
 10
0.0453620662382276
 20
2.337591629577993
 30
0.0013335310925759
  0
VERTEX
  5
B416F
  8
0
 10
0.0488094662382276
 20
2.338391629577969
 30
0.0013335310925759
  0
VERTEX
  5
B4170
  8
0
 10
0.0522277662382276
 20
2.3391916295779822
 30
0.0013335310925759
  0
VERTEX
  5
B4171
  8
0
 10
0.0556149662382276
 20
2.340091629577997
 30
0.0013335310925759
  0
VERTEX
  5
B4172
  8
0
 10
0.0589689662382276
 20
2.3410916295779809
 30
0.0013335310925759
  0
VERTEX
  5
B4173
  8
0
 10
0.0622879662382276
 20
2.342091629577979
 30
0.0013335310925759
  0
VERTEX
  5
B4174
  8
0
 10
0.0655698662382276
 20
2.3431916295779791
 30
0.0013335310925759
  0
VERTEX
  5
B4175
  8
0
 10
0.0688126662382276
 20
2.3442916295779801
 30
0.0013335310925759
  0
VERTEX
  5
B4176
  8
0
 10
0.0720145662382276
 20
2.345491629577992
 30
0.0013335310925759
  0
VERTEX
  5
B4177
  8
0
 10
0.0751734662382276
 20
2.3466916295779821
 30
0.0013335310925759
  0
VERTEX
  5
B4178
  8
0
 10
0.0782876662382276
 20
2.347991629577983
 30
0.0013335310925759
  0
VERTEX
  5
B4179
  8
0
 10
0.0813552662382276
 20
2.3492916295779969
 30
0.0013335310925759
  0
VERTEX
  5
B417A
  8
0
 10
0.0843743662382276
 20
2.3506916295779798
 30
0.0013335310925759
  0
VERTEX
  5
B417B
  8
0
 10
0.0873432662382276
 20
2.3521916295779799
 30
0.0013335310925759
  0
VERTEX
  5
B417C
  8
0
 10
0.0902600662382276
 20
2.3536916295779799
 30
0.0013335310925759
  0
VERTEX
  5
B417D
  8
0
 10
0.0931231662382276
 20
2.35519162957798
 30
0.0013335310925759
  0
VERTEX
  5
B417E
  8
0
 10
0.0959308662382276
 20
2.356791629577998
 30
0.0013335310925759
  0
VERTEX
  5
B417F
  8
0
 10
0.0986813662382276
 20
2.3583916295779801
 30
0.0013335310925759
  0
VERTEX
  5
B4180
  8
0
 10
0.1013733662382276
 20
2.3600916295779721
 30
0.0013335310925759
  0
VERTEX
  5
B4181
  8
0
 10
0.1040043662382276
 20
2.3617916295779788
 30
0.0013335310925759
  0
VERTEX
  5
B4182
  8
0
 10
0.1065733662382276
 20
2.3635916295779822
 30
0.0013335310925759
  0
VERTEX
  5
B4183
  8
0
 10
0.1090793662382276
 20
2.3653916295779922
 30
0.0013335310925759
  0
VERTEX
  5
B4184
  8
0
 10
0.1115203662382276
 20
2.3671916295779951
 30
0.0013335310925759
  0
VERTEX
  5
B4185
  8
0
 10
0.1138953662382276
 20
2.36909162957798
 30
0.0013335310925759
  0
VERTEX
  5
B4186
  8
0
 10
0.1162023662382276
 20
2.371091629577982
 30
0.0013335310925759
  0
VERTEX
  5
B4187
  8
0
 10
0.1184393662382276
 20
2.3729916295779812
 30
0.0013335310925759
  0
VERTEX
  5
B4188
  8
0
 10
0.1206063662382276
 20
2.3749916295779689
 30
0.0013335310925759
  0
VERTEX
  5
B4189
  8
0
 10
0.1227013662382276
 20
2.3770916295779818
 30
0.0013335310925759
  0
VERTEX
  5
B418A
  8
0
 10
0.1247233662382276
 20
2.3790916295779918
 30
0.0013335310925759
  0
VERTEX
  5
B418B
  8
0
 10
0.1266713662382276
 20
2.38129162957798
 30
0.0013335310925759
  0
VERTEX
  5
B418C
  8
0
 10
0.1285433662382276
 20
2.383391629577992
 30
0.0013335310925759
  0
VERTEX
  5
B418D
  8
0
 10
0.1303393662382276
 20
2.3855916295779802
 30
0.0013335310925759
  0
VERTEX
  5
B418E
  8
0
 10
0.1320573662382276
 20
2.387791629577996
 30
0.0013335310925759
  0
VERTEX
  5
B418F
  8
0
 10
0.1336963662382276
 20
2.3899916295779908
 30
0.0013335310925759
  0
VERTEX
  5
B4190
  8
0
 10
0.1352563662382276
 20
2.392191629577979
 30
0.0013335310925759
  0
VERTEX
  5
B4191
  8
0
 10
0.1367353662382276
 20
2.394491629577991
 30
0.0013335310925759
  0
VERTEX
  5
B4192
  8
0
 10
0.1381333662382276
 20
2.3967916295779821
 30
0.0013335310925759
  0
VERTEX
  5
B4193
  8
0
 10
0.1394493662382276
 20
2.3991916295779911
 30
0.0013335310925759
  0
VERTEX
  5
B4194
  8
0
 10
0.1406813662382276
 20
2.4014916295779818
 30
0.0013335310925759
  0
VERTEX
  5
B4195
  8
0
 10
0.1418303662382276
 20
2.403891629577998
 30
0.0013335310925759
  0
VERTEX
  5
B4196
  8
0
 10
0.1428943662382276
 20
2.4062916295779919
 30
0.0013335310925759
  0
VERTEX
  5
B4197
  8
0
 10
0.1438733662382276
 20
2.4086916295779801
 30
0.0013335310925759
  0
VERTEX
  5
B4198
  8
0
 10
0.1447663662382276
 20
2.4110916295779949
 30
0.0013335310925759
  0
VERTEX
  5
B4199
  8
0
 10
0.1455733662382276
 20
2.4134916295779831
 30
0.0013335310925759
  0
VERTEX
  5
B419A
  8
0
 10
0.1462943662382276
 20
2.41599162957798
 30
0.0013335310925759
  0
VERTEX
  5
B419B
  8
0
 10
0.1469273662382276
 20
2.4183916295779819
 30
0.0013335310925759
  0
VERTEX
  5
B419C
  8
0
 10
0.1474733662382276
 20
2.4208916295779801
 30
0.0013335310925759
  0
VERTEX
  5
B419D
  8
0
 10
0.1479313662382276
 20
2.423391629577992
 30
0.0013335310925759
  0
VERTEX
  5
B419E
  8
0
 10
0.1483013662382276
 20
2.4258916295779822
 30
0.0013335310925759
  0
VERTEX
  5
B419F
  8
0
 10
0.1485823662382276
 20
2.4282916295779979
 30
0.0013335310925759
  0
VERTEX
  5
B41A0
  8
0
 10
0.1487753662382276
 20
2.4307916295779961
 30
0.0013335310925759
  0
VERTEX
  5
B41A1
  8
0
 10
0.1488793662382276
 20
2.4332916295779721
 30
0.0013335310925759
  0
SEQEND
  5
B41A2
  8
0
  0
POLYLINE
  5
B2F36
  8
0
 66
     1
 10
0.0
 20
0.0
 30
0.0010935310925762
  0
VERTEX
  5
B41A3
  8
0
 10
-0.1761846337617724
 20
2.385491629577984
 30
0.0010935310925762
  0
VERTEX
  5
B41A4
  8
0
 10
-0.1811296337617724
 20
2.3813916295779971
 30
0.0010935310925762
  0
VERTEX
  5
B41A5
  8
0
 10
-0.1858516337617724
 20
2.377191629577978
 30
0.0010935310925762
  0
VERTEX
  5
B41A6
  8
0
 10
-0.1903456337617724
 20
2.372891629577992
 30
0.0010935310925762
  0
VERTEX
  5
B41A7
  8
0
 10
-0.1946046337617724
 20
2.368491629577981
 30
0.0010935310925762
  0
VERTEX
  5
B41A8
  8
0
 10
-0.1986246337617724
 20
2.3639916295779808
 30
0.0010935310925762
  0
VERTEX
  5
B41A9
  8
0
 10
-0.2024006337617724
 20
2.3593916295779911
 30
0.0010935310925762
  0
VERTEX
  5
B41AA
  8
0
 10
-0.2059266337617724
 20
2.3546916295779918
 30
0.0010935310925762
  0
VERTEX
  5
B41AB
  8
0
 10
-0.2092006337617724
 20
2.3499916295779921
 30
0.0010935310925762
  0
VERTEX
  5
B41AC
  8
0
 10
-0.2122166337617724
 20
2.345091629577972
 30
0.0010935310925762
  0
VERTEX
  5
B41AD
  8
0
 10
-0.2149716337617723
 20
2.3402916295779832
 30
0.0010935310925762
  0
VERTEX
  5
B41AE
  8
0
 10
-0.2174616337617724
 20
2.3352916295779802
 30
0.0010935310925762
  0
VERTEX
  5
B41AF
  8
0
 10
-0.2196846337617724
 20
2.3302916295779919
 30
0.0010935310925762
  0
VERTEX
  5
B41B0
  8
0
 10
-0.2216366337617724
 20
2.3251916295779789
 30
0.0010935310925762
  0
VERTEX
  5
B41B1
  8
0
 10
-0.2233166337617724
 20
2.320091629577973
 30
0.0010935310925762
  0
VERTEX
  5
B41B2
  8
0
 10
-0.2247216337617724
 20
2.3148916295779922
 30
0.0010935310925762
  0
VERTEX
  5
B41B3
  8
0
 10
-0.2258506337617723
 20
2.3097916295779721
 30
0.0010935310925762
  0
VERTEX
  5
B41B4
  8
0
 10
-0.2267016337617724
 20
2.3045916295779909
 30
0.0010935310925762
  0
VERTEX
  5
B41B5
  8
0
 10
-0.2272736337617724
 20
2.2992916295779788
 30
0.0010935310925762
  0
VERTEX
  5
B41B6
  8
0
 10
-0.2275656337617724
 20
2.2940916295779981
 30
0.0010935310925762
  0
VERTEX
  5
B41B7
  8
0
 10
-0.2275786337617724
 20
2.2888916295779822
 30
0.0010935310925762
  0
VERTEX
  5
B41B8
  8
0
 10
-0.2273106337617724
 20
2.2835916295779981
 30
0.0010935310925762
  0
VERTEX
  5
B41B9
  8
0
 10
-0.2267636337617724
 20
2.2783916295779809
 30
0.0010935310925762
  0
VERTEX
  5
B41BA
  8
0
 10
-0.2259376337617724
 20
2.2731916295779722
 30
0.0010935310925762
  0
VERTEX
  5
B41BB
  8
0
 10
-0.2248336337617724
 20
2.2679916295779909
 30
0.0010935310925762
  0
VERTEX
  5
B41BC
  8
0
 10
-0.2234526337617724
 20
2.262791629577996
 30
0.0010935310925762
  0
VERTEX
  5
B41BD
  8
0
 10
-0.2217966337617723
 20
2.2576916295779692
 30
0.0010935310925762
  0
VERTEX
  5
B41BE
  8
0
 10
-0.2198686337617724
 20
2.2525916295779922
 30
0.0010935310925762
  0
VERTEX
  5
B41BF
  8
0
 10
-0.2176696337617724
 20
2.2474916295779721
 30
0.0010935310925762
  0
VERTEX
  5
B41C0
  8
0
 10
-0.2152026337617724
 20
2.2424916295779971
 30
0.0010935310925762
  0
VERTEX
  5
B41C1
  8
0
 10
-0.2124706337617724
 20
2.2375916295779912
 30
0.0010935310925762
  0
VERTEX
  5
B41C2
  8
0
 10
-0.2094776337617724
 20
2.2326916295779919
 30
0.0010935310925762
  0
VERTEX
  5
B41C3
  8
0
 10
-0.2062276337617724
 20
2.2278916295779818
 30
0.0010935310925762
  0
VERTEX
  5
B41C4
  8
0
 10
-0.2027226337617724
 20
2.2231916295779821
 30
0.0010935310925762
  0
VERTEX
  5
B41C5
  8
0
 10
-0.1989686337617724
 20
2.218491629577982
 30
0.0010935310925762
  0
VERTEX
  5
B41C6
  8
0
 10
-0.1949706337617724
 20
2.213991629577996
 30
0.0010935310925762
  0
VERTEX
  5
B41C7
  8
0
 10
-0.1907326337617724
 20
2.2094916295779821
 30
0.0010935310925762
  0
VERTEX
  5
B41C8
  8
0
 10
-0.1862596337617724
 20
2.2050916295779919
 30
0.0010935310925762
  0
VERTEX
  5
B41C9
  8
0
 10
-0.1815576337617724
 20
2.2007916295779921
 30
0.0010935310925762
  0
VERTEX
  5
B41CA
  8
0
 10
-0.1766316337617724
 20
2.1966916295779688
 30
0.0010935310925762
  0
VERTEX
  5
B41CB
  8
0
 10
-0.1714886337617724
 20
2.192591629577997
 30
0.0010935310925762
  0
VERTEX
  5
B41CC
  8
0
 10
-0.1661356337617724
 20
2.1886916295779808
 30
0.0010935310925762
  0
VERTEX
  5
B41CD
  8
0
 10
-0.1605776337617724
 20
2.1848916295779972
 30
0.0010935310925762
  0
VERTEX
  5
B41CE
  8
0
 10
-0.1548216337617724
 20
2.1811916295779801
 30
0.0010935310925762
  0
VERTEX
  5
B41CF
  8
0
 10
-0.1488756337617724
 20
2.1776916295779918
 30
0.0010935310925762
  0
VERTEX
  5
B41D0
  8
0
 10
-0.1427466337617724
 20
2.1742916295779722
 30
0.0010935310925762
  0
VERTEX
  5
B41D1
  8
0
 10
-0.1364416337617724
 20
2.1710916295779792
 30
0.0010935310925762
  0
VERTEX
  5
B41D2
  8
0
 10
-0.1299696337617724
 20
2.1678916295779791
 30
0.0010935310925762
  0
VERTEX
  5
B41D3
  8
0
 10
-0.1233376337617724
 20
2.1649916295779832
 30
0.0010935310925762
  0
VERTEX
  5
B41D4
  8
0
 10
-0.1165536337617724
 20
2.1621916295779822
 30
0.0010935310925762
  0
VERTEX
  5
B41D5
  8
0
 10
-0.1096256337617724
 20
2.159491629577992
 30
0.0010935310925762
  0
VERTEX
  5
B41D6
  8
0
 10
-0.1025636337617724
 20
2.1569916295779938
 30
0.0010935310925762
  0
VERTEX
  5
B41D7
  8
0
 10
-0.0953756337617724
 20
2.1546916295779819
 30
0.0010935310925762
  0
VERTEX
  5
B41D8
  8
0
 10
-0.0880701337617724
 20
2.1524916295779799
 30
0.0010935310925762
  0
VERTEX
  5
B41D9
  8
0
 10
-0.0806563337617724
 20
2.1504916295779921
 30
0.0010935310925762
  0
VERTEX
  5
B41DA
  8
0
 10
-0.0731434337617724
 20
2.1486916295779821
 30
0.0010935310925762
  0
VERTEX
  5
B41DB
  8
0
 10
-0.0655405337617724
 20
2.147091629577992
 30
0.0010935310925762
  0
VERTEX
  5
B41DC
  8
0
 10
-0.0578572337617724
 20
2.145591629577992
 30
0.0010935310925762
  0
VERTEX
  5
B41DD
  8
0
 10
-0.0501027337617724
 20
2.1442916295779919
 30
0.0010935310925762
  0
VERTEX
  5
B41DE
  8
0
 10
-0.0422867337617724
 20
2.143191629577998
 30
0.0010935310925762
  0
VERTEX
  5
B41DF
  8
0
 10
-0.0344188337617724
 20
2.1422916295779819
 30
0.0010935310925762
  0
VERTEX
  5
B41E0
  8
0
 10
-0.0265086337617724
 20
2.1414916295779909
 30
0.0010935310925762
  0
VERTEX
  5
B41E1
  8
0
 10
-0.0185660337617724
 20
2.140891629577971
 30
0.0010935310925762
  0
VERTEX
  5
B41E2
  8
0
 10
-0.0106006337617724
 20
2.140491629577979
 30
0.0010935310925762
  0
VERTEX
  5
B41E3
  8
0
 10
-0.0026222737617724
 20
2.1402916295779799
 30
0.0010935310925762
  0
VERTEX
  5
B41E4
  8
0
 10
0.0053591462382276
 20
2.1402916295779799
 30
0.0010935310925762
  0
VERTEX
  5
B41E5
  8
0
 10
0.0133338662382276
 20
2.140491629577979
 30
0.0010935310925762
  0
VERTEX
  5
B41E6
  8
0
 10
0.0212920662382276
 20
2.1407916295779961
 30
0.0010935310925762
  0
VERTEX
  5
B41E7
  8
0
 10
0.0292238662382276
 20
2.1412916295779918
 30
0.0010935310925762
  0
VERTEX
  5
B41E8
  8
0
 10
0.0371195662382276
 20
2.142091629577997
 30
0.0010935310925762
  0
VERTEX
  5
B41E9
  8
0
 10
0.0449695662382276
 20
2.1428916295779952
 30
0.0010935310925762
  0
VERTEX
  5
B41EA
  8
0
 10
0.0527639662382276
 20
2.1439916295779819
 30
0.0010935310925762
  0
VERTEX
  5
B41EB
  8
0
 10
0.0604934662382276
 20
2.145291629577982
 30
0.0010935310925762
  0
VERTEX
  5
B41EC
  8
0
 10
0.0681482662382276
 20
2.1466916295779792
 30
0.0010935310925762
  0
VERTEX
  5
B41ED
  8
0
 10
0.0757190662382276
 20
2.1482916295779968
 30
0.0010935310925762
  0
VERTEX
  5
B41EE
  8
0
 10
0.0831965662382276
 20
2.150091629577993
 30
0.0010935310925762
  0
VERTEX
  5
B41EF
  8
0
 10
0.0905715662382276
 20
2.1519916295779922
 30
0.0010935310925762
  0
VERTEX
  5
B41F0
  8
0
 10
0.0978349662382276
 20
2.1541916295779791
 30
0.0010935310925762
  0
VERTEX
  5
B41F1
  8
0
 10
0.1049773662382276
 20
2.1564916295779919
 30
0.0010935310925762
  0
VERTEX
  5
B41F2
  8
0
 10
0.1119913662382276
 20
2.1588916295779792
 30
0.0010935310925762
  0
VERTEX
  5
B41F3
  8
0
 10
0.1188663662382276
 20
2.1614916295779798
 30
0.0010935310925762
  0
VERTEX
  5
B41F4
  8
0
 10
0.1255963662382276
 20
2.1642916295779808
 30
0.0010935310925762
  0
VERTEX
  5
B41F5
  8
0
 10
0.1321703662382276
 20
2.1671916295779918
 30
0.0010935310925762
  0
VERTEX
  5
B41F6
  8
0
 10
0.1385823662382276
 20
2.1702916295779811
 30
0.0010935310925762
  0
VERTEX
  5
B41F7
  8
0
 10
0.1448233662382276
 20
2.1734916295779811
 30
0.0010935310925762
  0
VERTEX
  5
B41F8
  8
0
 10
0.1508853662382276
 20
2.1768916295779799
 30
0.0010935310925762
  0
VERTEX
  5
B41F9
  8
0
 10
0.1567623662382276
 20
2.180391629577997
 30
0.0010935310925762
  0
VERTEX
  5
B41FA
  8
0
 10
0.1624463662382276
 20
2.1839916295779811
 30
0.0010935310925762
  0
VERTEX
  5
B41FB
  8
0
 10
0.1679293662382276
 20
2.1877916295779718
 30
0.0010935310925762
  0
VERTEX
  5
B41FC
  8
0
 10
0.1732063662382276
 20
2.1916916295779951
 30
0.0010935310925762
  0
VERTEX
  5
B41FD
  8
0
 10
0.1782693662382276
 20
2.1956916295779791
 30
0.0010935310925762
  0
VERTEX
  5
B41FE
  8
0
 10
0.1831133662382276
 20
2.1997916295779798
 30
0.0010935310925762
  0
VERTEX
  5
B41FF
  8
0
 10
0.1877323662382276
 20
2.20409162957798
 30
0.0010935310925762
  0
VERTEX
  5
B4200
  8
0
 10
0.1921193662382276
 20
2.2083916295779811
 30
0.0010935310925762
  0
VERTEX
  5
B4201
  8
0
 10
0.1962703662382276
 20
2.2128916295779808
 30
0.0010935310925762
  0
VERTEX
  5
B4202
  8
0
 10
0.2001793662382276
 20
2.217391629577981
 30
0.0010935310925762
  0
VERTEX
  5
B4203
  8
0
 10
0.2038413662382276
 20
2.221991629577992
 30
0.0010935310925762
  0
VERTEX
  5
B4204
  8
0
 10
0.2072533662382276
 20
2.2266916295779922
 30
0.0010935310925762
  0
VERTEX
  5
B4205
  8
0
 10
0.2104093662382276
 20
2.2314916295779801
 30
0.0010935310925762
  0
VERTEX
  5
B4206
  8
0
 10
0.2133063662382276
 20
2.2363916295779802
 30
0.0010935310925762
  0
VERTEX
  5
B4207
  8
0
 10
0.2159413662382276
 20
2.2412916295779719
 30
0.0010935310925762
  0
VERTEX
  5
B4208
  8
0
 10
0.2183093662382276
 20
2.246291629577982
 30
0.0010935310925762
  0
VERTEX
  5
B4209
  8
0
 10
0.2204093662382276
 20
2.2513916295779799
 30
0.0010935310925762
  0
VERTEX
  5
B420A
  8
0
 10
0.2222383662382276
 20
2.2563916295779971
 30
0.0010935310925762
  0
VERTEX
  5
B420B
  8
0
 10
0.2237923662382276
 20
2.2615916295779921
 30
0.0010935310925762
  0
VERTEX
  5
B420C
  8
0
 10
0.2250713662382276
 20
2.266691629577998
 30
0.0010935310925762
  0
VERTEX
  5
B420D
  8
0
 10
0.2260733662382276
 20
2.2718916295779721
 30
0.0010935310925762
  0
VERTEX
  5
B420E
  8
0
 10
0.2267973662382276
 20
2.277091629577995
 30
0.0010935310925762
  0
VERTEX
  5
B420F
  8
0
 10
0.2272413662382276
 20
2.2823916295779791
 30
0.0010935310925762
  0
VERTEX
  5
B4210
  8
0
 10
0.2274063662382276
 20
2.2875916295779808
 30
0.0010935310925762
  0
VERTEX
  5
B4211
  8
0
 10
0.2272913662382276
 20
2.2927916295779971
 30
0.0010935310925762
  0
VERTEX
  5
B4212
  8
0
 10
0.2268953662382276
 20
2.2980916295779821
 30
0.0010935310925762
  0
VERTEX
  5
B4213
  8
0
 10
0.2262213662382276
 20
2.3032916295779979
 30
0.0010935310925762
  0
VERTEX
  5
B4214
  8
0
 10
0.2252673662382276
 20
2.308491629577972
 30
0.0010935310925762
  0
VERTEX
  5
B4215
  8
0
 10
0.2240373662382276
 20
2.313691629577995
 30
0.0010935310925762
  0
VERTEX
  5
B4216
  8
0
 10
0.2225303662382276
 20
2.3188916295779829
 30
0.0010935310925762
  0
VERTEX
  5
B4217
  8
0
 10
0.2207503662382276
 20
2.3239916295779959
 30
0.0010935310925762
  0
VERTEX
  5
B4218
  8
0
 10
0.2186973662382276
 20
2.3289916295779909
 30
0.0010935310925762
  0
VERTEX
  5
B4219
  8
0
 10
0.2163763662382276
 20
2.3340916295779972
 30
0.0010935310925762
  0
VERTEX
  5
B421A
  8
0
 10
0.2137883662382276
 20
2.3390916295779931
 30
0.0010935310925762
  0
VERTEX
  5
B421B
  8
0
 10
0.2109363662382276
 20
2.3439916295779919
 30
0.0010935310925762
  0
VERTEX
  5
B421C
  8
0
 10
0.2078253662382276
 20
2.3487916295779812
 30
0.0010935310925762
  0
VERTEX
  5
B421D
  8
0
 10
0.2044583662382276
 20
2.3535916295779842
 30
0.0010935310925762
  0
VERTEX
  5
B421E
  8
0
 10
0.2008393662382276
 20
2.358291629577983
 30
0.0010935310925762
  0
VERTEX
  5
B421F
  8
0
 10
0.1969733662382276
 20
2.3628916295779798
 30
0.0010935310925762
  0
VERTEX
  5
B4220
  8
0
 10
0.1928653662382276
 20
2.36739162957798
 30
0.0010935310925762
  0
VERTEX
  5
B4221
  8
0
 10
0.1885193662382276
 20
2.3717916295779982
 30
0.0010935310925762
  0
VERTEX
  5
B4222
  8
0
 10
0.1839403662382276
 20
2.3761916295779808
 30
0.0010935310925762
  0
VERTEX
  5
B4223
  8
0
 10
0.1791353662382276
 20
2.3803916295779919
 30
0.0010935310925762
  0
SEQEND
  5
B4224
  8
0
  0
POLYLINE
  5
B2FB6
  8
0
 66
     1
 10
0.0
 20
0.0
 30
0.0010935310925762
  0
VERTEX
  5
B4225
  8
0
 10
-0.3296116337617724
 20
2.5209916295779911
 30
0.0010935310925762
  0
VERTEX
  5
B4226
  8
0
 10
-0.3402986337617724
 20
2.5123916295779969
 30
0.0010935310925762
  0
VERTEX
  5
B4227
  8
0
 10
-0.3505436337617724
 20
2.503491629577979
 30
0.0010935310925762
  0
VERTEX
  5
B4228
  8
0
 10
-0.3603316337617724
 20
2.494391629577982
 30
0.0010935310925762
  0
VERTEX
  5
B4229
  8
0
 10
-0.3696526337617723
 20
2.484991629577983
 30
0.0010935310925762
  0
VERTEX
  5
B422A
  8
0
 10
-0.3784916337617724
 20
2.4753916295779912
 30
0.0010935310925762
  0
VERTEX
  5
B422B
  8
0
 10
-0.3868396337617724
 20
2.465591629577971
 30
0.0010935310925762
  0
VERTEX
  5
B422C
  8
0
 10
-0.3946846337617724
 20
2.4554916295779909
 30
0.0010935310925762
  0
VERTEX
  5
B422D
  8
0
 10
-0.4020156337617724
 20
2.4452916295779801
 30
0.0010935310925762
  0
VERTEX
  5
B422E
  8
0
 10
-0.4088246337617725
 20
2.4348916295779972
 30
0.0010935310925762
  0
VERTEX
  5
B422F
  8
0
 10
-0.4151016337617725
 20
2.4242916295779722
 30
0.0010935310925762
  0
VERTEX
  5
B4230
  8
0
 10
-0.4208396337617725
 20
2.4135916295779718
 30
0.0010935310925762
  0
VERTEX
  5
B4231
  8
0
 10
-0.4260306337617724
 20
2.4026916295779719
 30
0.0010935310925762
  0
VERTEX
  5
B4232
  8
0
 10
-0.4306666337617724
 20
2.391691629577998
 30
0.0010935310925762
  0
VERTEX
  5
B4233
  8
0
 10
-0.4347436337617725
 20
2.3805916295779919
 30
0.0010935310925762
  0
VERTEX
  5
B4234
  8
0
 10
-0.4382546337617725
 20
2.369391629577982
 30
0.0010935310925762
  0
VERTEX
  5
B4235
  8
0
 10
-0.4411966337617725
 20
2.3580916295779981
 30
0.0010935310925762
  0
VERTEX
  5
B4236
  8
0
 10
-0.4435646337617725
 20
2.346791629577992
 30
0.0010935310925762
  0
VERTEX
  5
B4237
  8
0
 10
-0.4453556337617725
 20
2.3352916295779802
 30
0.0010935310925762
  0
VERTEX
  5
B4238
  8
0
 10
-0.4465686337617725
 20
2.323891629577993
 30
0.0010935310925762
  0
VERTEX
  5
B4239
  8
0
 10
-0.4471996337617724
 20
2.3123916295779798
 30
0.0010935310925762
  0
VERTEX
  5
B423A
  8
0
 10
-0.4472506337617724
 20
2.3008916295779822
 30
0.0010935310925762
  0
VERTEX
  5
B423B
  8
0
 10
-0.4467186337617725
 20
2.2894916295779799
 30
0.0010935310925762
  0
VERTEX
  5
B423C
  8
0
 10
-0.4456066337617725
 20
2.2779916295779961
 30
0.0010935310925762
  0
VERTEX
  5
B423D
  8
0
 10
-0.4439156337617726
 20
2.26659162957798
 30
0.0010935310925762
  0
VERTEX
  5
B423E
  8
0
 10
-0.4416476337617725
 20
2.255191629577979
 30
0.0010935310925762
  0
VERTEX
  5
B423F
  8
0
 10
-0.4388046337617725
 20
2.2438916295779801
 30
0.0010935310925762
  0
VERTEX
  5
B4240
  8
0
 10
-0.4353916337617725
 20
2.2326916295779919
 30
0.0010935310925762
  0
VERTEX
  5
B4241
  8
0
 10
-0.4314116337617726
 20
2.2215916295779721
 30
0.0010935310925762
  0
VERTEX
  5
B4242
  8
0
 10
-0.4268716337617724
 20
2.2105916295779968
 30
0.0010935310925762
  0
VERTEX
  5
B4243
  8
0
 10
-0.4217766337617725
 20
2.1996916295779978
 30
0.0010935310925762
  0
VERTEX
  5
B4244
  8
0
 10
-0.4161326337617724
 20
2.1888916295779941
 30
0.0010935310925762
  0
VERTEX
  5
B4245
  8
0
 10
-0.4099486337617725
 20
2.1782916295779979
 30
0.0010935310925762
  0
VERTEX
  5
B4246
  8
0
 10
-0.4032306337617725
 20
2.1678916295779791
 30
0.0010935310925762
  0
VERTEX
  5
B4247
  8
0
 10
-0.3959896337617724
 20
2.1575916295779791
 30
0.0010935310925762
  0
VERTEX
  5
B4248
  8
0
 10
-0.3882326337617724
 20
2.147491629577992
 30
0.0010935310925762
  0
VERTEX
  5
B4249
  8
0
 10
-0.3799706337617724
 20
2.1376916295779722
 30
0.0010935310925762
  0
VERTEX
  5
B424A
  8
0
 10
-0.3712156337617724
 20
2.1279916295779979
 30
0.0010935310925762
  0
VERTEX
  5
B424B
  8
0
 10
-0.3619776337617724
 20
2.118591629577991
 30
0.0010935310925762
  0
VERTEX
  5
B424C
  8
0
 10
-0.3522686337617724
 20
2.1094916295779811
 30
0.0010935310925762
  0
VERTEX
  5
B424D
  8
0
 10
-0.3421026337617724
 20
2.1005916295779978
 30
0.0010935310925762
  0
VERTEX
  5
B424E
  8
0
 10
-0.3314906337617724
 20
2.091891629577979
 30
0.0010935310925762
  0
VERTEX
  5
B424F
  8
0
 10
-0.3204486337617723
 20
2.0835916295779811
 30
0.0010935310925762
  0
VERTEX
  5
B4250
  8
0
 10
-0.3089896337617724
 20
2.0754916295779822
 30
0.0010935310925762
  0
VERTEX
  5
B4251
  8
0
 10
-0.2971286337617724
 20
2.067691629577971
 30
0.0010935310925762
  0
VERTEX
  5
B4252
  8
0
 10
-0.2848816337617723
 20
2.0601916295779921
 30
0.0010935310925762
  0
VERTEX
  5
B4253
  8
0
 10
-0.2722646337617724
 20
2.0530916295779909
 30
0.0010935310925762
  0
VERTEX
  5
B4254
  8
0
 10
-0.2592936337617724
 20
2.0462916295779792
 30
0.0010935310925762
  0
VERTEX
  5
B4255
  8
0
 10
-0.2459846337617724
 20
2.039791629577997
 30
0.0010935310925762
  0
VERTEX
  5
B4256
  8
0
 10
-0.2323566337617724
 20
2.0335916295779981
 30
0.0010935310925762
  0
VERTEX
  5
B4257
  8
0
 10
-0.2184266337617724
 20
2.0278916295779719
 30
0.0010935310925762
  0
VERTEX
  5
B4258
  8
0
 10
-0.2042126337617724
 20
2.0223916295779811
 30
0.0010935310925762
  0
VERTEX
  5
B4259
  8
0
 10
-0.1897326337617724
 20
2.017391629577979
 30
0.0010935310925762
  0
VERTEX
  5
B425A
  8
0
 10
-0.1750066337617724
 20
2.0126916295779789
 30
0.0010935310925762
  0
VERTEX
  5
B425B
  8
0
 10
-0.1600526337617724
 20
2.008391629577992
 30
0.0010935310925762
  0
VERTEX
  5
B425C
  8
0
 10
-0.1448906337617724
 20
2.004491629577998
 30
0.0010935310925762
  0
VERTEX
  5
B425D
  8
0
 10
-0.1295406337617724
 20
2.0009916295779808
 30
0.0010935310925762
  0
VERTEX
  5
B425E
  8
0
 10
-0.1140216337617724
 20
1.997891629577992
 30
0.0010935310925762
  0
VERTEX
  5
B425F
  8
0
 10
-0.0983551337617724
 20
1.995191629577981
 30
0.0010935310925762
  0
VERTEX
  5
B4260
  8
0
 10
-0.0825606337617724
 20
1.9927916295779791
 30
0.0010935310925762
  0
VERTEX
  5
B4261
  8
0
 10
-0.0666587337617724
 20
1.990891629577987
 30
0.0010935310925762
  0
VERTEX
  5
B4262
  8
0
 10
-0.0506702337617724
 20
1.9893916295779801
 30
0.0010935310925762
  0
VERTEX
  5
B4263
  8
0
 10
-0.0346159337617724
 20
1.9882916295779789
 30
0.0010935310925762
  0
VERTEX
  5
B4264
  8
0
 10
-0.0185166337617724
 20
1.9876916295779801
 30
0.0010935310925762
  0
VERTEX
  5
B4265
  8
0
 10
-0.0023934137617724
 20
1.9873916295779921
 30
0.0010935310925762
  0
VERTEX
  5
B4266
  8
0
 10
0.0137328662382276
 20
1.987591629577991
 30
0.0010935310925762
  0
VERTEX
  5
B4267
  8
0
 10
0.0298412662382276
 20
1.9880916295779789
 30
0.0010935310925762
  0
VERTEX
  5
B4268
  8
0
 10
0.0459107662382276
 20
1.989091629577991
 30
0.0010935310925762
  0
VERTEX
  5
B4269
  8
0
 10
0.0619205662382276
 20
1.9904916295779811
 30
0.0010935310925762
  0
VERTEX
  5
B426A
  8
0
 10
0.0778497662382276
 20
1.992291629577998
 30
0.0010935310925762
  0
VERTEX
  5
B426B
  8
0
 10
0.0936776662382276
 20
1.9944916295779711
 30
0.0010935310925762
  0
VERTEX
  5
B426C
  8
0
 10
0.1093833662382276
 20
1.9970916295779799
 30
0.0010935310925762
  0
VERTEX
  5
B426D
  8
0
 10
0.1249473662382276
 20
2.0000916295779732
 30
0.0010935310925762
  0
VERTEX
  5
B426E
  8
0
 10
0.1403483662382276
 20
2.0034916295779719
 30
0.0010935310925762
  0
VERTEX
  5
B426F
  8
0
 10
0.1555673662382276
 20
2.007391629577981
 30
0.0010935310925762
  0
VERTEX
  5
B4270
  8
0
 10
0.1705833662382276
 20
2.0114916295779959
 30
0.0010935310925762
  0
VERTEX
  5
B4271
  8
0
 10
0.1853773662382276
 20
2.0160916295779918
 30
0.0010935310925762
  0
VERTEX
  5
B4272
  8
0
 10
0.1999313662382276
 20
2.0210916295779811
 30
0.0010935310925762
  0
VERTEX
  5
B4273
  8
0
 10
0.2142243662382276
 20
2.0263916295779718
 30
0.0010935310925762
  0
VERTEX
  5
B4274
  8
0
 10
0.2282393662382276
 20
2.032091629577998
 30
0.0010935310925762
  0
VERTEX
  5
B4275
  8
0
 10
0.2419563662382276
 20
2.038091629577969
 30
0.0010935310925762
  0
VERTEX
  5
B4276
  8
0
 10
0.2553603662382276
 20
2.0444916295779971
 30
0.0010935310925762
  0
VERTEX
  5
B4277
  8
0
 10
0.2684313662382276
 20
2.0511916295779922
 30
0.0010935310925762
  0
VERTEX
  5
B4278
  8
0
 10
0.2811533662382276
 20
2.0582916295779721
 30
0.0010935310925762
  0
VERTEX
  5
B4279
  8
0
 10
0.2935093662382276
 20
2.065691629577997
 30
0.0010935310925762
  0
VERTEX
  5
B427A
  8
0
 10
0.3054833662382275
 20
2.0733916295779968
 30
0.0010935310925762
  0
VERTEX
  5
B427B
  8
0
 10
0.3170613662382276
 20
2.0813916295779711
 30
0.0010935310925762
  0
VERTEX
  5
B427C
  8
0
 10
0.3282263662382276
 20
2.0896916295779908
 30
0.0010935310925762
  0
VERTEX
  5
B427D
  8
0
 10
0.3389643662382276
 20
2.0981916295779821
 30
0.0010935310925762
  0
VERTEX
  5
B427E
  8
0
 10
0.3492613662382276
 20
2.107091629577972
 30
0.0010935310925762
  0
VERTEX
  5
B427F
  8
0
 10
0.3591043662382276
 20
2.1161916295779828
 30
0.0010935310925762
  0
VERTEX
  5
B4280
  8
0
 10
0.3684803662382276
 20
2.1254916295779722
 30
0.0010935310925762
  0
VERTEX
  5
B4281
  8
0
 10
0.3773773662382276
 20
2.135091629577992
 30
0.0010935310925762
  0
VERTEX
  5
B4282
  8
0
 10
0.3857833662382276
 20
2.1448916295779981
 30
0.0010935310925762
  0
VERTEX
  5
B4283
  8
0
 10
0.3936873662382276
 20
2.1548916295779961
 30
0.0010935310925762
  0
VERTEX
  5
B4284
  8
0
 10
0.4010803662382277
 20
2.165091629577979
 30
0.0010935310925762
  0
VERTEX
  5
B4285
  8
0
 10
0.4079513662382278
 20
2.1754916295779969
 30
0.0010935310925762
  0
VERTEX
  5
B4286
  8
0
 10
0.4142913662382277
 20
2.1860916295779869
 30
0.0010935310925762
  0
VERTEX
  5
B4287
  8
0
 10
0.4200933662382277
 20
2.1967916295779801
 30
0.0010935310925762
  0
VERTEX
  5
B4288
  8
0
 10
0.4253483662382278
 20
2.2076916295779792
 30
0.0010935310925762
  0
VERTEX
  5
B4289
  8
0
 10
0.4300503662382278
 20
2.2185916295779791
 30
0.0010935310925762
  0
VERTEX
  5
B428A
  8
0
 10
0.4341933662382277
 20
2.2296916295779918
 30
0.0010935310925762
  0
VERTEX
  5
B428B
  8
0
 10
0.4377713662382277
 20
2.2408916295779799
 30
0.0010935310925762
  0
VERTEX
  5
B428C
  8
0
 10
0.4407803662382277
 20
2.2521916295779709
 30
0.0010935310925762
  0
VERTEX
  5
B428D
  8
0
 10
0.4432163662382278
 20
2.2635916295779799
 30
0.0010935310925762
  0
VERTEX
  5
B428E
  8
0
 10
0.4450753662382278
 20
2.2749916295779959
 30
0.0010935310925762
  0
VERTEX
  5
B428F
  8
0
 10
0.4463553662382277
 20
2.2863916295779911
 30
0.0010935310925762
  0
VERTEX
  5
B4290
  8
0
 10
0.4470563662382278
 20
2.2978916295779821
 30
0.0010935310925762
  0
VERTEX
  5
B4291
  8
0
 10
0.4471743662382277
 20
2.3093916295779802
 30
0.0010935310925762
  0
VERTEX
  5
B4292
  8
0
 10
0.4467113662382278
 20
2.320891629577992
 30
0.0010935310925762
  0
VERTEX
  5
B4293
  8
0
 10
0.4456683662382276
 20
2.332291629577973
 30
0.0010935310925762
  0
VERTEX
  5
B4294
  8
0
 10
0.4440443662382277
 20
2.3436916295779961
 30
0.0010935310925762
  0
VERTEX
  5
B4295
  8
0
 10
0.4418443662382276
 20
2.355091629577998
 30
0.0010935310925762
  0
VERTEX
  5
B4296
  8
0
 10
0.4390683662382277
 20
2.3663916295779961
 30
0.0010935310925762
  0
VERTEX
  5
B4297
  8
0
 10
0.4357223662382277
 20
2.3776916295779809
 30
0.0010935310925762
  0
VERTEX
  5
B4298
  8
0
 10
0.4318093662382276
 20
2.3887916295779799
 30
0.0010935310925762
  0
VERTEX
  5
B4299
  8
0
 10
0.4273353662382277
 20
2.3997916295779969
 30
0.0010935310925762
  0
VERTEX
  5
B429A
  8
0
 10
0.4223043662382279
 20
2.4106916295779821
 30
0.0010935310925762
  0
VERTEX
  5
B429B
  8
0
 10
0.4167253662382279
 20
2.421491629577992
 30
0.0010935310925762
  0
VERTEX
  5
B429C
  8
0
 10
0.4106043662382279
 20
2.432091629577982
 30
0.0010935310925762
  0
VERTEX
  5
B429D
  8
0
 10
0.4039483662382279
 20
2.4425916295779819
 30
0.0010935310925762
  0
VERTEX
  5
B429E
  8
0
 10
0.3967683662382276
 20
2.452891629577969
 30
0.0010935310925762
  0
VERTEX
  5
B429F
  8
0
 10
0.3890713662382276
 20
2.462891629577995
 30
0.0010935310925762
  0
VERTEX
  5
B42A0
  8
0
 10
0.3808693662382275
 20
2.472791629577983
 30
0.0010935310925762
  0
VERTEX
  5
B42A1
  8
0
 10
0.3721713662382276
 20
2.482491629577992
 30
0.0010935310925762
  0
VERTEX
  5
B42A2
  8
0
 10
0.3629893662382276
 20
2.4918916295779918
 30
0.0010935310925762
  0
VERTEX
  5
B42A3
  8
0
 10
0.3533353662382276
 20
2.5010916295779921
 30
0.0010935310925762
  0
VERTEX
  5
B42A4
  8
0
 10
0.3432223662382276
 20
2.510091629577992
 30
0.0010935310925762
  0
VERTEX
  5
B42A5
  8
0
 10
0.3326623662382276
 20
2.518691629577972
 30
0.0010935310925762
  0
SEQEND
  5
B42A6
  8
0
  0
POLYLINE
  5
B3036
  8
0
 66
     1
 10
0.0
 20
0.0
 30
0.000523531092576
  0
VERTEX
  5
B42A7
  8
0
 10
-0.3865256337617723
 20
2.1453916295779791
 30
0.000523531092576
  0
VERTEX
  5
B42A8
  8
0
 10
-0.4163456337617724
 20
2.1346916295779792
 30
0.000523531092576
  0
VERTEX
  5
B42A9
  8
0
 10
-0.4454476337617725
 20
2.1231916295779949
 30
0.000523531092576
  0
VERTEX
  5
B42AA
  8
0
 10
-0.4737826337617724
 20
2.1107916295779812
 30
0.000523531092576
  0
VERTEX
  5
B42AB
  8
0
 10
-0.5013006337617726
 20
2.0976916295779731
 30
0.000523531092576
  0
VERTEX
  5
B42AC
  8
0
 10
-0.5279556337617725
 20
2.0838916295779981
 30
0.000523531092576
  0
VERTEX
  5
B42AD
  8
0
 10
-0.5537006337617726
 20
2.069291629577982
 30
0.000523531092576
  0
VERTEX
  5
B42AE
  8
0
 10
-0.5784916337617725
 20
2.0539916295779781
 30
0.000523531092576
  0
VERTEX
  5
B42AF
  8
0
 10
-0.6022856337617726
 20
2.038091629577969
 30
0.000523531092576
  0
VERTEX
  5
B42B0
  8
0
 10
-0.6250426337617726
 20
2.0214916295779801
 30
0.000523531092576
  0
VERTEX
  5
B42B1
  8
0
 10
-0.6467226337617725
 20
2.0042916295779909
 30
0.000523531092576
  0
VERTEX
  5
B42B2
  8
0
 10
-0.6672886337617725
 20
1.9864916295779831
 30
0.000523531092576
  0
VERTEX
  5
B42B3
  8
0
 10
-0.6867056337617724
 20
1.968191629577972
 30
0.000523531092576
  0
VERTEX
  5
B42B4
  8
0
 10
-0.7049386337617725
 20
1.9492916295779921
 30
0.000523531092576
  0
VERTEX
  5
B42B5
  8
0
 10
-0.7219576337617724
 20
1.9299916295779971
 30
0.000523531092576
  0
VERTEX
  5
B42B6
  8
0
 10
-0.7377336337617724
 20
1.9101916295779939
 30
0.000523531092576
  0
VERTEX
  5
B42B7
  8
0
 10
-0.7522386337617727
 20
1.8899916295779911
 30
0.000523531092576
  0
VERTEX
  5
B42B8
  8
0
 10
-0.7654476337617725
 20
1.869291629577972
 30
0.000523531092576
  0
VERTEX
  5
B42B9
  8
0
 10
-0.7773376337617727
 20
1.8483916295779821
 30
0.000523531092576
  0
VERTEX
  5
B42BA
  8
0
 10
-0.7878896337617727
 20
1.827091629577992
 30
0.000523531092576
  0
VERTEX
  5
B42BB
  8
0
 10
-0.7970836337617726
 20
1.805491629577971
 30
0.000523531092576
  0
VERTEX
  5
B42BC
  8
0
 10
-0.8049056337617724
 20
1.7836916295779801
 30
0.000523531092576
  0
VERTEX
  5
B42BD
  8
0
 10
-0.8113406337617724
 20
1.761691629577981
 30
0.000523531092576
  0
VERTEX
  5
B42BE
  8
0
 10
-0.8163776337617722
 20
1.739491629577997
 30
0.000523531092576
  0
VERTEX
  5
B42BF
  8
0
 10
-0.8200096337617724
 20
1.7171916295779821
 30
0.000523531092576
  0
VERTEX
  5
B42C0
  8
0
 10
-0.8222286337617724
 20
1.694791629577991
 30
0.000523531092576
  0
VERTEX
  5
B42C1
  8
0
 10
-0.8230306337617721
 20
1.6722916295779979
 30
0.000523531092576
  0
VERTEX
  5
B42C2
  8
0
 10
-0.8224156337617722
 20
1.6497916295779831
 30
0.000523531092576
  0
VERTEX
  5
B42C3
  8
0
 10
-0.8203846337617724
 20
1.627391629577992
 30
0.000523531092576
  0
VERTEX
  5
B42C4
  8
0
 10
-0.8169396337617724
 20
1.60499162957798
 30
0.000523531092576
  0
VERTEX
  5
B42C5
  8
0
 10
-0.8120886337617724
 20
1.5826916295779789
 30
0.000523531092576
  0
VERTEX
  5
B42C6
  8
0
 10
-0.8058376337617724
 20
1.560591629577992
 30
0.000523531092576
  0
VERTEX
  5
B42C7
  8
0
 10
-0.7981996337617724
 20
1.5385916295779789
 30
0.000523531092576
  0
VERTEX
  5
B42C8
  8
0
 10
-0.7891856337617726
 20
1.5168916295779971
 30
0.000523531092576
  0
VERTEX
  5
B42C9
  8
0
 10
-0.7788126337617725
 20
1.4953916295779941
 30
0.000523531092576
  0
VERTEX
  5
B42CA
  8
0
 10
-0.7670986337617727
 20
1.47419162957798
 30
0.000523531092576
  0
VERTEX
  5
B42CB
  8
0
 10
-0.7540626337617724
 20
1.4532916295779961
 30
0.000523531092576
  0
VERTEX
  5
B42CC
  8
0
 10
-0.7397286337617725
 20
1.4327916295779981
 30
0.000523531092576
  0
VERTEX
  5
B42CD
  8
0
 10
-0.7241196337617725
 20
1.4126916295779921
 30
0.000523531092576
  0
VERTEX
  5
B42CE
  8
0
 10
-0.7072636337617727
 20
1.3929916295779909
 30
0.000523531092576
  0
VERTEX
  5
B42CF
  8
0
 10
-0.6891896337617727
 20
1.373791629577972
 30
0.000523531092576
  0
VERTEX
  5
B42D0
  8
0
 10
-0.6699276337617725
 20
1.355091629577998
 30
0.000523531092576
  0
VERTEX
  5
B42D1
  8
0
 10
-0.6495116337617725
 20
1.336891629577998
 30
0.000523531092576
  0
VERTEX
  5
B42D2
  8
0
 10
-0.6279776337617726
 20
1.319291629577982
 30
0.000523531092576
  0
VERTEX
  5
B42D3
  8
0
 10
-0.6053606337617726
 20
1.3022916295779789
 30
0.000523531092576
  0
VERTEX
  5
B42D4
  8
0
 10
-0.5817016337617726
 20
1.2858916295779961
 30
0.000523531092576
  0
VERTEX
  5
B42D5
  8
0
 10
-0.5570406337617725
 20
1.2701916295779789
 30
0.000523531092576
  0
VERTEX
  5
B42D6
  8
0
 10
-0.5314196337617726
 20
1.255091629577997
 30
0.000523531092576
  0
VERTEX
  5
B42D7
  8
0
 10
-0.5048826337617725
 20
1.24069162957798
 30
0.000523531092576
  0
VERTEX
  5
B42D8
  8
0
 10
-0.4774756337617725
 20
1.2270916295779981
 30
0.000523531092576
  0
VERTEX
  5
B42D9
  8
0
 10
-0.4492466337617724
 20
1.214191629577982
 30
0.000523531092576
  0
VERTEX
  5
B42DA
  8
0
 10
-0.4202426337617725
 20
1.202091629577992
 30
0.000523531092576
  0
VERTEX
  5
B42DB
  8
0
 10
-0.3905156337617724
 20
1.190791629577979
 30
0.000523531092576
  0
VERTEX
  5
B42DC
  8
0
 10
-0.3601146337617724
 20
1.1802916295779791
 30
0.000523531092576
  0
VERTEX
  5
B42DD
  8
0
 10
-0.3290936337617724
 20
1.1705916295779979
 30
0.000523531092576
  0
VERTEX
  5
B42DE
  8
0
 10
-0.2975046337617724
 20
1.1617916295779831
 30
0.000523531092576
  0
VERTEX
  5
B42DF
  8
0
 10
-0.2654036337617724
 20
1.153891629577998
 30
0.000523531092576
  0
VERTEX
  5
B42E0
  8
0
 10
-0.2328446337617724
 20
1.1467916295779821
 30
0.000523531092576
  0
VERTEX
  5
B42E1
  8
0
 10
-0.1998836337617724
 20
1.140591629577997
 30
0.000523531092576
  0
VERTEX
  5
B42E2
  8
0
 10
-0.1665786337617724
 20
1.1353916295779809
 30
0.000523531092576
  0
VERTEX
  5
B42E3
  8
0
 10
-0.1329856337617724
 20
1.130991629577998
 30
0.000523531092576
  0
VERTEX
  5
B42E4
  8
0
 10
-0.0991628337617724
 20
1.127591629577992
 30
0.000523531092576
  0
VERTEX
  5
B42E5
  8
0
 10
-0.0651689337617724
 20
1.1249916295779689
 30
0.000523531092576
  0
VERTEX
  5
B42E6
  8
0
 10
-0.0310620337617724
 20
1.12339162957798
 30
0.000523531092576
  0
VERTEX
  5
B42E7
  8
0
 10
0.0030989462382276
 20
1.1227916295779961
 30
0.000523531092576
  0
VERTEX
  5
B42E8
  8
0
 10
0.0372552662382276
 20
1.123091629577992
 30
0.000523531092576
  0
VERTEX
  5
B42E9
  8
0
 10
0.0713481662382276
 20
1.1242916295779819
 30
0.000523531092576
  0
VERTEX
  5
B42EA
  8
0
 10
0.1053193662382276
 20
1.1263916295779799
 30
0.000523531092576
  0
VERTEX
  5
B42EB
  8
0
 10
0.1391093662382276
 20
1.129491629577998
 30
0.000523531092576
  0
VERTEX
  5
B42EC
  8
0
 10
0.1726603662382276
 20
1.133391629577992
 30
0.000523531092576
  0
VERTEX
  5
B42ED
  8
0
 10
0.2059153662382276
 20
1.1382916295779919
 30
0.000523531092576
  0
VERTEX
  5
B42EE
  8
0
 10
0.2388163662382276
 20
1.1440916295779919
 30
0.000523531092576
  0
VERTEX
  5
B42EF
  8
0
 10
0.2713063662382276
 20
1.1507916295779801
 30
0.000523531092576
  0
VERTEX
  5
B42F0
  8
0
 10
0.3033303662382276
 20
1.1583916295779979
 30
0.000523531092576
  0
VERTEX
  5
B42F1
  8
0
 10
0.3348333662382276
 20
1.1668916295779961
 30
0.000523531092576
  0
VERTEX
  5
B42F2
  8
0
 10
0.3657603662382276
 20
1.1761916295779919
 30
0.000523531092576
  0
VERTEX
  5
B42F3
  8
0
 10
0.3960573662382276
 20
1.1862916295779791
 30
0.000523531092576
  0
VERTEX
  5
B42F4
  8
0
 10
0.4256743662382277
 20
1.1972916295779821
 30
0.000523531092576
  0
VERTEX
  5
B42F5
  8
0
 10
0.4545593662382277
 20
1.209091629577997
 30
0.000523531092576
  0
VERTEX
  5
B42F6
  8
0
 10
0.4826613662382277
 20
1.221591629577979
 30
0.000523531092576
  0
VERTEX
  5
B42F7
  8
0
 10
0.5099333662382279
 20
1.2348916295779799
 30
0.000523531092576
  0
VERTEX
  5
B42F8
  8
0
 10
0.5363283662382276
 20
1.2489916295779719
 30
0.000523531092576
  0
VERTEX
  5
B42F9
  8
0
 10
0.5618013662382277
 20
1.2637916295779801
 30
0.000523531092576
  0
VERTEX
  5
B42FA
  8
0
 10
0.5863073662382276
 20
1.2791916295779791
 30
0.000523531092576
  0
VERTEX
  5
B42FB
  8
0
 10
0.6098043662382278
 20
1.295391629577991
 30
0.000523531092576
  0
VERTEX
  5
B42FC
  8
0
 10
0.6322523662382276
 20
1.3120916295779921
 30
0.000523531092576
  0
VERTEX
  5
B42FD
  8
0
 10
0.6536123662382277
 20
1.3294916295779791
 30
0.000523531092576
  0
VERTEX
  5
B42FE
  8
0
 10
0.6738483662382278
 20
1.347391629577998
 30
0.000523531092576
  0
VERTEX
  5
B42FF
  8
0
 10
0.6929243662382278
 20
1.365891629577987
 30
0.000523531092576
  0
VERTEX
  5
B4300
  8
0
 10
0.7108083662382279
 20
1.3848916295779921
 30
0.000523531092576
  0
VERTEX
  5
B4301
  8
0
 10
0.7274693662382276
 20
1.404391629577979
 30
0.000523531092576
  0
VERTEX
  5
B4302
  8
0
 10
0.7428783662382276
 20
1.4243916295779819
 30
0.000523531092576
  0
VERTEX
  5
B4303
  8
0
 10
0.7570093662382276
 20
1.444691629577995
 30
0.000523531092576
  0
VERTEX
  5
B4304
  8
0
 10
0.7698373662382277
 20
1.465391629577979
 30
0.000523531092576
  0
VERTEX
  5
B4305
  8
0
 10
0.7813413662382278
 20
1.4864916295779831
 30
0.000523531092576
  0
VERTEX
  5
B4306
  8
0
 10
0.7915003662382278
 20
1.507891629577983
 30
0.000523531092576
  0
VERTEX
  5
B4307
  8
0
 10
0.8002973662382276
 20
1.5294916295779819
 30
0.000523531092576
  0
VERTEX
  5
B4308
  8
0
 10
0.8077173662382277
 20
1.5513916295779919
 30
0.000523531092576
  0
VERTEX
  5
B4309
  8
0
 10
0.8137483662382273
 20
1.5734916295779791
 30
0.000523531092576
  0
VERTEX
  5
B430A
  8
0
 10
0.8183783662382275
 20
1.595691629577991
 30
0.000523531092576
  0
VERTEX
  5
B430B
  8
0
 10
0.8215993662382274
 20
1.617991629577979
 30
0.000523531092576
  0
VERTEX
  5
B430C
  8
0
 10
0.8234073662382275
 20
1.640491629577979
 30
0.000523531092576
  0
VERTEX
  5
B430D
  8
0
 10
0.8237983662382273
 20
1.662891629577991
 30
0.000523531092576
  0
VERTEX
  5
B430E
  8
0
 10
0.8227723662382276
 20
1.685391629577992
 30
0.000523531092576
  0
VERTEX
  5
B430F
  8
0
 10
0.8203293662382275
 20
1.707791629577982
 30
0.000523531092576
  0
VERTEX
  5
B4310
  8
0
 10
0.8164753662382276
 20
1.73019162957798
 30
0.000523531092576
  0
VERTEX
  5
B4311
  8
0
 10
0.8112163662382274
 20
1.752391629577992
 30
0.000523531092576
  0
VERTEX
  5
B4312
  8
0
 10
0.8045613662382276
 20
1.77449162957798
 30
0.000523531092576
  0
VERTEX
  5
B4313
  8
0
 10
0.7965223662382277
 20
1.796391629577996
 30
0.000523531092576
  0
VERTEX
  5
B4314
  8
0
 10
0.7871123662382277
 20
1.8180916295779921
 30
0.000523531092576
  0
VERTEX
  5
B4315
  8
0
 10
0.7763483662382277
 20
1.8394916295779919
 30
0.000523531092576
  0
VERTEX
  5
B4316
  8
0
 10
0.7642473662382276
 20
1.8605916295779821
 30
0.000523531092576
  0
VERTEX
  5
B4317
  8
0
 10
0.7508323662382277
 20
1.8813916295779829
 30
0.000523531092576
  0
VERTEX
  5
B4318
  8
0
 10
0.7361253662382277
 20
1.901791629577992
 30
0.000523531092576
  0
VERTEX
  5
B4319
  8
0
 10
0.7201513662382277
 20
1.9217916295779811
 30
0.000523531092576
  0
VERTEX
  5
B431A
  8
0
 10
0.7029383662382275
 20
1.9412916295779821
 30
0.000523531092576
  0
VERTEX
  5
B431B
  8
0
 10
0.6845153662382275
 20
1.960391629577998
 30
0.000523531092576
  0
VERTEX
  5
B431C
  8
0
 10
0.6649153662382276
 20
1.978891629577979
 30
0.000523531092576
  0
VERTEX
  5
B431D
  8
0
 10
0.6441713662382276
 20
1.9969916295779979
 30
0.000523531092576
  0
VERTEX
  5
B431E
  8
0
 10
0.6223183662382277
 20
2.014391629577978
 30
0.000523531092576
  0
VERTEX
  5
B431F
  8
0
 10
0.5993953662382276
 20
2.0312916295779919
 30
0.000523531092576
  0
VERTEX
  5
B4320
  8
0
 10
0.5754403662382277
 20
2.047491629577983
 30
0.000523531092576
  0
VERTEX
  5
B4321
  8
0
 10
0.5504953662382276
 20
2.0629916295779722
 30
0.000523531092576
  0
VERTEX
  5
B4322
  8
0
 10
0.5246043662382278
 20
2.077891629577997
 30
0.000523531092576
  0
VERTEX
  5
B4323
  8
0
 10
0.4978093662382277
 20
2.091991629577997
 30
0.000523531092576
  0
VERTEX
  5
B4324
  8
0
 10
0.4701593662382276
 20
2.1053916295779791
 30
0.000523531092576
  0
VERTEX
  5
B4325
  8
0
 10
0.4417003662382278
 20
2.1180916295779819
 30
0.000523531092576
  0
VERTEX
  5
B4326
  8
0
 10
0.4124813662382278
 20
2.1299916295779791
 30
0.000523531092576
  0
VERTEX
  5
B4327
  8
0
 10
0.3825523662382276
 20
2.1410916295779918
 30
0.000523531092576
  0
SEQEND
  5
B4328
  8
0
  0
POLYLINE
  5
B30B6
  8
0
 66
     1
 10
0.0
 20
0.0
 30
0.0006335310925771
  0
VERTEX
  5
B4329
  8
0
 10
-0.3832206337617724
 20
2.1414916295779909
 30
0.0006335310925771
  0
VERTEX
  5
B432A
  8
0
 10
-0.3905166337617723
 20
2.132291629577991
 30
0.0006335310925771
  0
VERTEX
  5
B432B
  8
0
 10
-0.3973846337617723
 20
2.122891629577992
 30
0.0006335310925771
  0
VERTEX
  5
B432C
  8
0
 10
-0.4038146337617725
 20
2.1133916295779822
 30
0.0006335310925771
  0
VERTEX
  5
B432D
  8
0
 10
-0.4098016337617725
 20
2.1036916295779799
 30
0.0006335310925771
  0
VERTEX
  5
B432E
  8
0
 10
-0.4153376337617724
 20
2.0937916295779919
 30
0.0006335310925771
  0
VERTEX
  5
B432F
  8
0
 10
-0.4204186337617725
 20
2.0837916295779939
 30
0.0006335310925771
  0
VERTEX
  5
B4330
  8
0
 10
-0.4250366337617725
 20
2.0736916295779788
 30
0.0006335310925771
  0
VERTEX
  5
B4331
  8
0
 10
-0.4291876337617725
 20
2.0634916295779808
 30
0.0006335310925771
  0
VERTEX
  5
B4332
  8
0
 10
-0.4328666337617725
 20
2.05319162957798
 30
0.0006335310925771
  0
VERTEX
  5
B4333
  8
0
 10
-0.4360706337617725
 20
2.0427916295779691
 30
0.0006335310925771
  0
VERTEX
  5
B4334
  8
0
 10
-0.4387956337617724
 20
2.0322916295779971
 30
0.0006335310925771
  0
VERTEX
  5
B4335
  8
0
 10
-0.4410386337617725
 20
2.0217916295779972
 30
0.0006335310925771
  0
VERTEX
  5
B4336
  8
0
 10
-0.4427966337617725
 20
2.0111916295779788
 30
0.0006335310925771
  0
VERTEX
  5
B4337
  8
0
 10
-0.4440686337617725
 20
2.0004916295779789
 30
0.0006335310925771
  0
VERTEX
  5
B4338
  8
0
 10
-0.4448526337617725
 20
1.9897916295779721
 30
0.0006335310925771
  0
VERTEX
  5
B4339
  8
0
 10
-0.4451476337617725
 20
1.9790916295779719
 30
0.0006335310925771
  0
VERTEX
  5
B433A
  8
0
 10
-0.4449536337617725
 20
1.9683916295779791
 30
0.0006335310925771
  0
VERTEX
  5
B433B
  8
0
 10
-0.4442706337617725
 20
1.9576916295779789
 30
0.0006335310925771
  0
VERTEX
  5
B433C
  8
0
 10
-0.4430996337617725
 20
1.946991629577979
 30
0.0006335310925771
  0
VERTEX
  5
B433D
  8
0
 10
-0.4414426337617725
 20
1.936291629577972
 30
0.0006335310925771
  0
VERTEX
  5
B433E
  8
0
 10
-0.4392996337617725
 20
1.9255916295779789
 30
0.0006335310925771
  0
VERTEX
  5
B433F
  8
0
 10
-0.4366746337617724
 20
1.915091629577979
 30
0.0006335310925771
  0
VERTEX
  5
B4340
  8
0
 10
-0.4335696337617725
 20
1.9044916295779819
 30
0.0006335310925771
  0
VERTEX
  5
B4341
  8
0
 10
-0.4299876337617725
 20
1.8940916295779919
 30
0.0006335310925771
  0
VERTEX
  5
B4342
  8
0
 10
-0.4259346337617725
 20
1.8836916295779811
 30
0.0006335310925771
  0
VERTEX
  5
B4343
  8
0
 10
-0.4214126337617725
 20
1.8733916295779729
 30
0.0006335310925771
  0
VERTEX
  5
B4344
  8
0
 10
-0.4164276337617724
 20
1.8631916295779971
 30
0.0006335310925771
  0
VERTEX
  5
B4345
  8
0
 10
-0.4109846337617724
 20
1.853191629577992
 30
0.0006335310925771
  0
VERTEX
  5
B4346
  8
0
 10
-0.4050906337617725
 20
1.8432916295779971
 30
0.0006335310925771
  0
VERTEX
  5
B4347
  8
0
 10
-0.3987516337617724
 20
1.8334916295779911
 30
0.0006335310925771
  0
VERTEX
  5
B4348
  8
0
 10
-0.3919746337617724
 20
1.8237916295779959
 30
0.0006335310925771
  0
VERTEX
  5
B4349
  8
0
 10
-0.3847656337617724
 20
1.8143916295779969
 30
0.0006335310925771
  0
VERTEX
  5
B434A
  8
0
 10
-0.3771346337617724
 20
1.8050916295779791
 30
0.0006335310925771
  0
VERTEX
  5
B434B
  8
0
 10
-0.3690896337617724
 20
1.7958916295779801
 30
0.0006335310925771
  0
VERTEX
  5
B434C
  8
0
 10
-0.3606376337617724
 20
1.7869916295779971
 30
0.0006335310925771
  0
VERTEX
  5
B434D
  8
0
 10
-0.3517896337617724
 20
1.778291629577992
 30
0.0006335310925771
  0
VERTEX
  5
B434E
  8
0
 10
-0.3425556337617724
 20
1.7696916295779981
 30
0.0006335310925771
  0
VERTEX
  5
B434F
  8
0
 10
-0.3329446337617723
 20
1.761391629577993
 30
0.0006335310925771
  0
VERTEX
  5
B4350
  8
0
 10
-0.3229666337617724
 20
1.753391629577997
 30
0.0006335310925771
  0
VERTEX
  5
B4351
  8
0
 10
-0.3126346337617724
 20
1.7454916295779981
 30
0.0006335310925771
  0
VERTEX
  5
B4352
  8
0
 10
-0.3019576337617724
 20
1.73789162957798
 30
0.0006335310925771
  0
VERTEX
  5
B4353
  8
0
 10
-0.2909496337617724
 20
1.7305916295779791
 30
0.0006335310925771
  0
VERTEX
  5
B4354
  8
0
 10
-0.2796206337617724
 20
1.7234916295779921
 30
0.0006335310925771
  0
VERTEX
  5
B4355
  8
0
 10
-0.2679846337617724
 20
1.7166916295779719
 30
0.0006335310925771
  0
VERTEX
  5
B4356
  8
0
 10
-0.2560536337617724
 20
1.710191629577998
 30
0.0006335310925771
  0
VERTEX
  5
B4357
  8
0
 10
-0.2438406337617724
 20
1.7039916295779911
 30
0.0006335310925771
  0
VERTEX
  5
B4358
  8
0
 10
-0.2313586337617723
 20
1.697991629577998
 30
0.0006335310925771
  0
VERTEX
  5
B4359
  8
0
 10
-0.2186226337617724
 20
1.692391629577997
 30
0.0006335310925771
  0
VERTEX
  5
B435A
  8
0
 10
-0.2056446337617724
 20
1.686991629577981
 30
0.0006335310925771
  0
VERTEX
  5
B435B
  8
0
 10
-0.1924416337617724
 20
1.6819916295779711
 30
0.0006335310925771
  0
VERTEX
  5
B435C
  8
0
 10
-0.1790256337617724
 20
1.6772916295779721
 30
0.0006335310925771
  0
VERTEX
  5
B435D
  8
0
 10
-0.1654116337617724
 20
1.6728916295779821
 30
0.0006335310925771
  0
VERTEX
  5
B435E
  8
0
 10
-0.1516156337617724
 20
1.668791629577981
 30
0.0006335310925771
  0
VERTEX
  5
B435F
  8
0
 10
-0.1376526337617724
 20
1.6650916295779721
 30
0.0006335310925771
  0
VERTEX
  5
B4360
  8
0
 10
-0.1235366337617724
 20
1.66169162957798
 30
0.0006335310925771
  0
VERTEX
  5
B4361
  8
0
 10
-0.1092846337617724
 20
1.6585916295779981
 30
0.0006335310925771
  0
VERTEX
  5
B4362
  8
0
 10
-0.0949113337617724
 20
1.6558916295779791
 30
0.0006335310925771
  0
VERTEX
  5
B4363
  8
0
 10
-0.0804327337617724
 20
1.653491629577992
 30
0.0006335310925771
  0
VERTEX
  5
B4364
  8
0
 10
-0.0658647337617724
 20
1.651491629577982
 30
0.0006335310925771
  0
VERTEX
  5
B4365
  8
0
 10
-0.0512232337617724
 20
1.6497916295779831
 30
0.0006335310925771
  0
VERTEX
  5
B4366
  8
0
 10
-0.0365243337617724
 20
1.6484916295779819
 30
0.0006335310925771
  0
VERTEX
  5
B4367
  8
0
 10
-0.0217841337617724
 20
1.647491629577992
 30
0.0006335310925771
  0
VERTEX
  5
B4368
  8
0
 10
-0.0070187637617724
 20
1.6468916295779721
 30
0.0006335310925771
  0
VERTEX
  5
B4369
  8
0
 10
0.0077556162382276
 20
1.646591629577997
 30
0.0006335310925771
  0
VERTEX
  5
B436A
  8
0
 10
0.0225227662382276
 20
1.646691629577979
 30
0.0006335310925771
  0
VERTEX
  5
B436B
  8
0
 10
0.0372665662382276
 20
1.647091629577992
 30
0.0006335310925771
  0
VERTEX
  5
B436C
  8
0
 10
0.0519708662382276
 20
1.647891629577998
 30
0.0006335310925771
  0
VERTEX
  5
B436D
  8
0
 10
0.0666194662382276
 20
1.6490916295779809
 30
0.0006335310925771
  0
VERTEX
  5
B436E
  8
0
 10
0.0811964662382276
 20
1.650591629577981
 30
0.0006335310925771
  0
VERTEX
  5
B436F
  8
0
 10
0.0956857662382276
 20
1.652391629577969
 30
0.0006335310925771
  0
VERTEX
  5
B4370
  8
0
 10
0.1100713662382276
 20
1.654591629577979
 30
0.0006335310925771
  0
VERTEX
  5
B4371
  8
0
 10
0.1243383662382276
 20
1.657091629577969
 30
0.0006335310925771
  0
VERTEX
  5
B4372
  8
0
 10
0.1384693662382276
 20
1.65999162957798
 30
0.0006335310925771
  0
VERTEX
  5
B4373
  8
0
 10
0.1524503662382276
 20
1.6632916295779969
 30
0.0006335310925771
  0
VERTEX
  5
B4374
  8
0
 10
0.1662653662382276
 20
1.6667916295779781
 30
0.0006335310925771
  0
VERTEX
  5
B4375
  8
0
 10
0.1799003662382276
 20
1.670691629577973
 30
0.0006335310925771
  0
VERTEX
  5
B4376
  8
0
 10
0.1933393662382276
 20
1.6748916295779921
 30
0.0006335310925771
  0
VERTEX
  5
B4377
  8
0
 10
0.2065673662382276
 20
1.6794916295779809
 30
0.0006335310925771
  0
VERTEX
  5
B4378
  8
0
 10
0.2195703662382276
 20
1.6843916295779799
 30
0.0006335310925771
  0
VERTEX
  5
B4379
  8
0
 10
0.2323333662382275
 20
1.6894916295779721
 30
0.0006335310925771
  0
VERTEX
  5
B437A
  8
0
 10
0.2448443662382276
 20
1.6949916295779981
 30
0.0006335310925771
  0
VERTEX
  5
B437B
  8
0
 10
0.2570883662382276
 20
1.7007916295779919
 30
0.0006335310925771
  0
VERTEX
  5
B437C
  8
0
 10
0.2690513662382276
 20
1.706891629577981
 30
0.0006335310925771
  0
VERTEX
  5
B437D
  8
0
 10
0.2807203662382277
 20
1.7132916295779801
 30
0.0006335310925771
  0
VERTEX
  5
B437E
  8
0
 10
0.2920843662382276
 20
1.7198916295779789
 30
0.0006335310925771
  0
VERTEX
  5
B437F
  8
0
 10
0.3031283662382276
 20
1.726891629577991
 30
0.0006335310925771
  0
VERTEX
  5
B4380
  8
0
 10
0.3138423662382276
 20
1.734091629577982
 30
0.0006335310925771
  0
VERTEX
  5
B4381
  8
0
 10
0.3242133662382276
 20
1.7414916295779781
 30
0.0006335310925771
  0
VERTEX
  5
B4382
  8
0
 10
0.3342313662382275
 20
1.749191629577993
 30
0.0006335310925771
  0
VERTEX
  5
B4383
  8
0
 10
0.3438833662382276
 20
1.757191629577995
 30
0.0006335310925771
  0
VERTEX
  5
B4384
  8
0
 10
0.3531603662382276
 20
1.765391629577997
 30
0.0006335310925771
  0
VERTEX
  5
B4385
  8
0
 10
0.3620513662382277
 20
1.7737916295779921
 30
0.0006335310925771
  0
VERTEX
  5
B4386
  8
0
 10
0.3705473662382276
 20
1.782391629577972
 30
0.0006335310925771
  0
VERTEX
  5
B4387
  8
0
 10
0.3786383662382276
 20
1.7911916295779799
 30
0.0006335310925771
  0
VERTEX
  5
B4388
  8
0
 10
0.3863163662382276
 20
1.8001916295779801
 30
0.0006335310925771
  0
VERTEX
  5
B4389
  8
0
 10
0.3935713662382276
 20
1.8094916295779979
 30
0.0006335310925771
  0
VERTEX
  5
B438A
  8
0
 10
0.4003973662382276
 20
1.81879162957798
 30
0.0006335310925771
  0
VERTEX
  5
B438B
  8
0
 10
0.4067853662382277
 20
1.828391629577971
 30
0.0006335310925771
  0
VERTEX
  5
B438C
  8
0
 10
0.4127293662382277
 20
1.838091629577981
 30
0.0006335310925771
  0
VERTEX
  5
B438D
  8
0
 10
0.4182223662382278
 20
1.847991629577997
 30
0.0006335310925771
  0
VERTEX
  5
B438E
  8
0
 10
0.4232583662382277
 20
1.857991629577981
 30
0.0006335310925771
  0
VERTEX
  5
B438F
  8
0
 10
0.4278313662382276
 20
1.8680916295779819
 30
0.0006335310925771
  0
VERTEX
  5
B4390
  8
0
 10
0.4319373662382279
 20
1.878291629577979
 30
0.0006335310925771
  0
VERTEX
  5
B4391
  8
0
 10
0.4355713662382278
 20
1.8885916295779941
 30
0.0006335310925771
  0
VERTEX
  5
B4392
  8
0
 10
0.4387293662382278
 20
1.8989916295779921
 30
0.0006335310925771
  0
VERTEX
  5
B4393
  8
0
 10
0.4414083662382279
 20
1.909491629577992
 30
0.0006335310925771
  0
VERTEX
  5
B4394
  8
0
 10
0.4436043662382278
 20
1.9200916295779811
 30
0.0006335310925771
  0
VERTEX
  5
B4395
  8
0
 10
0.4453163662382277
 20
1.9306916295779919
 30
0.0006335310925771
  0
VERTEX
  5
B4396
  8
0
 10
0.4465413662382277
 20
1.9413916295779921
 30
0.0006335310925771
  0
VERTEX
  5
B4397
  8
0
 10
0.4472783662382277
 20
1.952091629577992
 30
0.0006335310925771
  0
VERTEX
  5
B4398
  8
0
 10
0.4475263662382277
 20
1.9627916295779919
 30
0.0006335310925771
  0
VERTEX
  5
B4399
  8
0
 10
0.4472853662382278
 20
1.9734916295779921
 30
0.0006335310925771
  0
VERTEX
  5
B439A
  8
0
 10
0.4465553662382276
 20
1.984191629577992
 30
0.0006335310925771
  0
VERTEX
  5
B439B
  8
0
 10
0.4453383662382279
 20
1.9948916295779919
 30
0.0006335310925771
  0
VERTEX
  5
B439C
  8
0
 10
0.4436333662382277
 20
2.0055916295779919
 30
0.0006335310925771
  0
VERTEX
  5
B439D
  8
0
 10
0.4414443662382278
 20
2.016191629577996
 30
0.0006335310925771
  0
VERTEX
  5
B439E
  8
0
 10
0.4387733662382276
 20
2.0267916295779922
 30
0.0006335310925771
  0
VERTEX
  5
B439F
  8
0
 10
0.4356223662382276
 20
2.037291629577993
 30
0.0006335310925771
  0
VERTEX
  5
B43A0
  8
0
 10
0.4319953662382277
 20
2.0477916295779788
 30
0.0006335310925771
  0
VERTEX
  5
B43A1
  8
0
 10
0.4278963662382278
 20
2.0580916295779801
 30
0.0006335310925771
  0
VERTEX
  5
B43A2
  8
0
 10
0.4233293662382277
 20
2.0683916295779801
 30
0.0006335310925771
  0
VERTEX
  5
B43A3
  8
0
 10
0.4183003662382278
 20
2.0785916295779918
 30
0.0006335310925771
  0
VERTEX
  5
B43A4
  8
0
 10
0.4128143662382276
 20
2.0885916295779969
 30
0.0006335310925771
  0
VERTEX
  5
B43A5
  8
0
 10
0.4068773662382277
 20
2.0984916295779921
 30
0.0006335310925771
  0
VERTEX
  5
B43A6
  8
0
 10
0.4004953662382277
 20
2.1082916295779981
 30
0.0006335310925771
  0
VERTEX
  5
B43A7
  8
0
 10
0.3936763662382276
 20
2.1178916295779819
 30
0.0006335310925771
  0
VERTEX
  5
B43A8
  8
0
 10
0.3864273662382276
 20
2.1273916295779922
 30
0.0006335310925771
  0
VERTEX
  5
B43A9
  8
0
 10
0.3787553662382276
 20
2.1366916295779812
 30
0.0006335310925771
  0
SEQEND
  5
B43AA
  8
0
  0
POLYLINE
  5
B3136
  8
0
 66
     1
 10
0.0
 20
0.0
 30
0.0007235310925768
  0
VERTEX
  5
B43AB
  8
0
 10
-0.4443496337617723
 20
1.9585916295779811
 30
0.0007235310925768
  0
VERTEX
  5
B43AC
  8
0
 10
-0.4479256337617725
 20
1.9498916295779829
 30
0.0007235310925768
  0
VERTEX
  5
B43AD
  8
0
 10
-0.4511296337617724
 20
1.9409916295779721
 30
0.0007235310925768
  0
VERTEX
  5
B43AE
  8
0
 10
-0.4539586337617725
 20
1.932191629577992
 30
0.0007235310925768
  0
VERTEX
  5
B43AF
  8
0
 10
-0.4564106337617725
 20
1.9231916295779921
 30
0.0007235310925768
  0
VERTEX
  5
B43B0
  8
0
 10
-0.4584836337617724
 20
1.9141916295779919
 30
0.0007235310925768
  0
VERTEX
  5
B43B1
  8
0
 10
-0.4601756337617724
 20
1.9051916295779909
 30
0.0007235310925768
  0
VERTEX
  5
B43B2
  8
0
 10
-0.4614856337617725
 20
1.8961916295779979
 30
0.0007235310925768
  0
VERTEX
  5
B43B3
  8
0
 10
-0.4624126337617723
 20
1.88709162957798
 30
0.0007235310925768
  0
VERTEX
  5
B43B4
  8
0
 10
-0.4629556337617725
 20
1.8779916295779979
 30
0.0007235310925768
  0
VERTEX
  5
B43B5
  8
0
 10
-0.4631146337617725
 20
1.868891629577994
 30
0.0007235310925768
  0
VERTEX
  5
B43B6
  8
0
 10
-0.4628886337617725
 20
1.8597916295779691
 30
0.0007235310925768
  0
VERTEX
  5
B43B7
  8
0
 10
-0.4622776337617725
 20
1.8506916295779801
 30
0.0007235310925768
  0
VERTEX
  5
B43B8
  8
0
 10
-0.4612836337617723
 20
1.841591629577997
 30
0.0007235310925768
  0
VERTEX
  5
B43B9
  8
0
 10
-0.4599066337617725
 20
1.8325916295779829
 30
0.0007235310925768
  0
VERTEX
  5
B43BA
  8
0
 10
-0.4581466337617725
 20
1.8234916295779791
 30
0.0007235310925768
  0
VERTEX
  5
B43BB
  8
0
 10
-0.4560076337617723
 20
1.8144916295779789
 30
0.0007235310925768
  0
VERTEX
  5
B43BC
  8
0
 10
-0.4534886337617725
 20
1.8055916295779819
 30
0.0007235310925768
  0
VERTEX
  5
B43BD
  8
0
 10
-0.4505936337617725
 20
1.796691629577992
 30
0.0007235310925768
  0
VERTEX
  5
B43BE
  8
0
 10
-0.4473246337617724
 20
1.787791629577981
 30
0.0007235310925768
  0
VERTEX
  5
B43BF
  8
0
 10
-0.4436846337617724
 20
1.77899162957798
 30
0.0007235310925768
  0
VERTEX
  5
B43C0
  8
0
 10
-0.4396746337617725
 20
1.7702916295779969
 30
0.0007235310925768
  0
VERTEX
  5
B43C1
  8
0
 10
-0.4353006337617725
 20
1.761691629577981
 30
0.0007235310925768
  0
VERTEX
  5
B43C2
  8
0
 10
-0.4305656337617725
 20
1.7530916295779799
 30
0.0007235310925768
  0
VERTEX
  5
B43C3
  8
0
 10
-0.4254726337617726
 20
1.744691629577992
 30
0.0007235310925768
  0
VERTEX
  5
B43C4
  8
0
 10
-0.4200256337617724
 20
1.7363916295779731
 30
0.0007235310925768
  0
VERTEX
  5
B43C5
  8
0
 10
-0.4142306337617726
 20
1.728091629577996
 30
0.0007235310925768
  0
VERTEX
  5
B43C6
  8
0
 10
-0.4080916337617725
 20
1.719991629577982
 30
0.0007235310925768
  0
VERTEX
  5
B43C7
  8
0
 10
-0.4016126337617725
 20
1.7119916295779729
 30
0.0007235310925768
  0
VERTEX
  5
B43C8
  8
0
 10
-0.3948016337617724
 20
1.70409162957798
 30
0.0007235310925768
  0
VERTEX
  5
B43C9
  8
0
 10
-0.3876616337617724
 20
1.6963916295779811
 30
0.0007235310925768
  0
VERTEX
  5
B43CA
  8
0
 10
-0.3802006337617724
 20
1.688791629577991
 30
0.0007235310925768
  0
VERTEX
  5
B43CB
  8
0
 10
-0.3724236337617723
 20
1.681291629577998
 30
0.0007235310925768
  0
VERTEX
  5
B43CC
  8
0
 10
-0.3643376337617724
 20
1.6739916295779831
 30
0.0007235310925768
  0
VERTEX
  5
B43CD
  8
0
 10
-0.3559486337617724
 20
1.6668916295779961
 30
0.0007235310925768
  0
VERTEX
  5
B43CE
  8
0
 10
-0.3472646337617724
 20
1.659891629577998
 30
0.0007235310925768
  0
VERTEX
  5
B43CF
  8
0
 10
-0.3382916337617724
 20
1.6530916295779781
 30
0.0007235310925768
  0
VERTEX
  5
B43D0
  8
0
 10
-0.3290386337617724
 20
1.6464916295779941
 30
0.0007235310925768
  0
VERTEX
  5
B43D1
  8
0
 10
-0.3195116337617724
 20
1.6400916295779799
 30
0.0007235310925768
  0
VERTEX
  5
B43D2
  8
0
 10
-0.3097196337617724
 20
1.6337916295779911
 30
0.0007235310925768
  0
VERTEX
  5
B43D3
  8
0
 10
-0.2996706337617724
 20
1.6277916295779911
 30
0.0007235310925768
  0
VERTEX
  5
B43D4
  8
0
 10
-0.2893726337617724
 20
1.6218916295779731
 30
0.0007235310925768
  0
VERTEX
  5
B43D5
  8
0
 10
-0.2788346337617724
 20
1.6162916295779719
 30
0.0007235310925768
  0
VERTEX
  5
B43D6
  8
0
 10
-0.2680646337617724
 20
1.6107916295779949
 30
0.0007235310925768
  0
VERTEX
  5
B43D7
  8
0
 10
-0.2570726337617724
 20
1.605591629577972
 30
0.0007235310925768
  0
VERTEX
  5
B43D8
  8
0
 10
-0.2458676337617724
 20
1.6005916295779981
 30
0.0007235310925768
  0
VERTEX
  5
B43D9
  8
0
 10
-0.2344576337617724
 20
1.595791629577995
 30
0.0007235310925768
  0
VERTEX
  5
B43DA
  8
0
 10
-0.2228536337617724
 20
1.5911916295779911
 30
0.0007235310925768
  0
VERTEX
  5
B43DB
  8
0
 10
-0.2110636337617724
 20
1.586891629577998
 30
0.0007235310925768
  0
VERTEX
  5
B43DC
  8
0
 10
-0.1990996337617724
 20
1.5827916295779969
 30
0.0007235310925768
  0
VERTEX
  5
B43DD
  8
0
 10
-0.1869696337617723
 20
1.5788916295779949
 30
0.0007235310925768
  0
VERTEX
  5
B43DE
  8
0
 10
-0.1746846337617724
 20
1.575291629577982
 30
0.0007235310925768
  0
VERTEX
  5
B43DF
  8
0
 10
-0.1622556337617724
 20
1.571891629577983
 30
0.0007235310925768
  0
VERTEX
  5
B43E0
  8
0
 10
-0.1496906337617724
 20
1.568691629577998
 30
0.0007235310925768
  0
VERTEX
  5
B43E1
  8
0
 10
-0.1370026337617724
 20
1.565791629577979
 30
0.0007235310925768
  0
VERTEX
  5
B43E2
  8
0
 10
-0.1241996337617724
 20
1.5631916295779931
 30
0.0007235310925768
  0
VERTEX
  5
B43E3
  8
0
 10
-0.1112946337617724
 20
1.560791629577998
 30
0.0007235310925768
  0
VERTEX
  5
B43E4
  8
0
 10
-0.0982971337617724
 20
1.558691629577992
 30
0.0007235310925768
  0
VERTEX
  5
B43E5
  8
0
 10
-0.0852180337617724
 20
1.556791629577972
 30
0.0007235310925768
  0
VERTEX
  5
B43E6
  8
0
 10
-0.0720683337617724
 20
1.5550916295779791
 30
0.0007235310925768
  0
VERTEX
  5
B43E7
  8
0
 10
-0.0588589337617724
 20
1.553791629577979
 30
0.0007235310925768
  0
VERTEX
  5
B43E8
  8
0
 10
-0.0456007337617724
 20
1.552691629577992
 30
0.0007235310925768
  0
VERTEX
  5
B43E9
  8
0
 10
-0.0323049337617724
 20
1.5517916295779981
 30
0.0007235310925768
  0
VERTEX
  5
B43EA
  8
0
 10
-0.0189823337617724
 20
1.5511916295779919
 30
0.0007235310925768
  0
VERTEX
  5
B43EB
  8
0
 10
-0.0056442237617724
 20
1.550891629577982
 30
0.0007235310925768
  0
VERTEX
  5
B43EC
  8
0
 10
0.0076984362382276
 20
1.5507916295779789
 30
0.0007235310925768
  0
VERTEX
  5
B43ED
  8
0
 10
0.0210345662382276
 20
1.5509916295779931
 30
0.0007235310925768
  0
VERTEX
  5
B43EE
  8
0
 10
0.0343529662382276
 20
1.551491629577981
 30
0.0007235310925768
  0
VERTEX
  5
B43EF
  8
0
 10
0.0476427662382276
 20
1.552191629577983
 30
0.0007235310925768
  0
VERTEX
  5
B43F0
  8
0
 10
0.0608927662382276
 20
1.55319162957798
 30
0.0007235310925768
  0
VERTEX
  5
B43F1
  8
0
 10
0.0740920662382276
 20
1.5544916295779949
 30
0.0007235310925768
  0
VERTEX
  5
B43F2
  8
0
 10
0.0872295662382276
 20
1.555991629577981
 30
0.0007235310925768
  0
VERTEX
  5
B43F3
  8
0
 10
0.1002943662382276
 20
1.557691629577981
 30
0.0007235310925768
  0
VERTEX
  5
B43F4
  8
0
 10
0.1132763662382276
 20
1.559691629577983
 30
0.0007235310925768
  0
VERTEX
  5
B43F5
  8
0
 10
0.1261633662382276
 20
1.561991629577995
 30
0.0007235310925768
  0
VERTEX
  5
B43F6
  8
0
 10
0.1389453662382276
 20
1.5644916295779789
 30
0.0007235310925768
  0
VERTEX
  5
B43F7
  8
0
 10
0.1516113662382276
 20
1.5672916295779791
 30
0.0007235310925768
  0
VERTEX
  5
B43F8
  8
0
 10
0.1641523662382276
 20
1.5703916295779969
 30
0.0007235310925768
  0
VERTEX
  5
B43F9
  8
0
 10
0.1765563662382276
 20
1.573591629577983
 30
0.0007235310925768
  0
VERTEX
  5
B43FA
  8
0
 10
0.1888133662382276
 20
1.577091629577992
 30
0.0007235310925768
  0
VERTEX
  5
B43FB
  8
0
 10
0.2009133662382276
 20
1.580891629577998
 30
0.0007235310925768
  0
VERTEX
  5
B43FC
  8
0
 10
0.2128463662382276
 20
1.5848916295779809
 30
0.0007235310925768
  0
VERTEX
  5
B43FD
  8
0
 10
0.2246023662382276
 20
1.5890916295779931
 30
0.0007235310925768
  0
VERTEX
  5
B43FE
  8
0
 10
0.2361713662382276
 20
1.5935916295779791
 30
0.0007235310925768
  0
VERTEX
  5
B43FF
  8
0
 10
0.2475443662382276
 20
1.5982916295779921
 30
0.0007235310925768
  0
VERTEX
  5
B4400
  8
0
 10
0.2587113662382276
 20
1.603191629577992
 30
0.0007235310925768
  0
VERTEX
  5
B4401
  8
0
 10
0.2696633662382276
 20
1.608291629577969
 30
0.0007235310925768
  0
VERTEX
  5
B4402
  8
0
 10
0.2803903662382276
 20
1.6136916295779919
 30
0.0007235310925768
  0
VERTEX
  5
B4403
  8
0
 10
0.2908853662382275
 20
1.6191916295779969
 30
0.0007235310925768
  0
VERTEX
  5
B4404
  8
0
 10
0.3011383662382276
 20
1.624991629577998
 30
0.0007235310925768
  0
VERTEX
  5
B4405
  8
0
 10
0.3111403662382276
 20
1.6308916295779801
 30
0.0007235310925768
  0
VERTEX
  5
B4406
  8
0
 10
0.3208843662382276
 20
1.637091629577994
 30
0.0007235310925768
  0
VERTEX
  5
B4407
  8
0
 10
0.3303613662382276
 20
1.643391629577998
 30
0.0007235310925768
  0
VERTEX
  5
B4408
  8
0
 10
0.3395633662382276
 20
1.6499916295779959
 30
0.0007235310925768
  0
VERTEX
  5
B4409
  8
0
 10
0.3484843662382276
 20
1.656691629577991
 30
0.0007235310925768
  0
VERTEX
  5
B440A
  8
0
 10
0.3571143662382276
 20
1.6635916295779789
 30
0.0007235310925768
  0
VERTEX
  5
B440B
  8
0
 10
0.3654483662382276
 20
1.6705916295779979
 30
0.0007235310925768
  0
VERTEX
  5
B440C
  8
0
 10
0.3734773662382276
 20
1.6777916295779809
 30
0.0007235310925768
  0
VERTEX
  5
B440D
  8
0
 10
0.3811973662382276
 20
1.6851916295779921
 30
0.0007235310925768
  0
VERTEX
  5
B440E
  8
0
 10
0.3885993662382276
 20
1.692691629577979
 30
0.0007235310925768
  0
VERTEX
  5
B440F
  8
0
 10
0.3956793662382276
 20
1.7003916295779931
 30
0.0007235310925768
  0
VERTEX
  5
B4410
  8
0
 10
0.4024303662382277
 20
1.708191629577996
 30
0.0007235310925768
  0
VERTEX
  5
B4411
  8
0
 10
0.4088463662382278
 20
1.7161916295779911
 30
0.0007235310925768
  0
VERTEX
  5
B4412
  8
0
 10
0.4149223662382277
 20
1.7241916295779729
 30
0.0007235310925768
  0
VERTEX
  5
B4413
  8
0
 10
0.4206533662382278
 20
1.732391629577982
 30
0.0007235310925768
  0
VERTEX
  5
B4414
  8
0
 10
0.4260353662382277
 20
1.74069162957798
 30
0.0007235310925768
  0
VERTEX
  5
B4415
  8
0
 10
0.4310633662382277
 20
1.7490916295779819
 30
0.0007235310925768
  0
VERTEX
  5
B4416
  8
0
 10
0.4357323662382277
 20
1.7575916295779801
 30
0.0007235310925768
  0
VERTEX
  5
B4417
  8
0
 10
0.4400403662382278
 20
1.7661916295779809
 30
0.0007235310925768
  0
VERTEX
  5
B4418
  8
0
 10
0.4439813662382277
 20
1.774891629577972
 30
0.0007235310925768
  0
VERTEX
  5
B4419
  8
0
 10
0.4475543662382277
 20
1.7835916295779981
 30
0.0007235310925768
  0
VERTEX
  5
B441A
  8
0
 10
0.4507543662382277
 20
1.7923916295779909
 30
0.0007235310925768
  0
VERTEX
  5
B441B
  8
0
 10
0.4535803662382277
 20
1.801291629577995
 30
0.0007235310925768
  0
VERTEX
  5
B441C
  8
0
 10
0.4560293662382279
 20
1.8101916295779921
 30
0.0007235310925768
  0
VERTEX
  5
B441D
  8
0
 10
0.4580993662382278
 20
1.8191916295779791
 30
0.0007235310925768
  0
VERTEX
  5
B441E
  8
0
 10
0.4597883662382277
 20
1.828191629577979
 30
0.0007235310925768
  0
VERTEX
  5
B441F
  8
0
 10
0.4610953662382278
 20
1.8372916295779971
 30
0.0007235310925768
  0
VERTEX
  5
B4420
  8
0
 10
0.4620193662382276
 20
1.846391629577979
 30
0.0007235310925768
  0
VERTEX
  5
B4421
  8
0
 10
0.4625593662382276
 20
1.8554916295779971
 30
0.0007235310925768
  0
VERTEX
  5
B4422
  8
0
 10
0.4627143662382276
 20
1.864591629577979
 30
0.0007235310925768
  0
VERTEX
  5
B4423
  8
0
 10
0.4624853662382276
 20
1.8736916295779971
 30
0.0007235310925768
  0
VERTEX
  5
B4424
  8
0
 10
0.4618713662382278
 20
1.8827916295779721
 30
0.0007235310925768
  0
VERTEX
  5
B4425
  8
0
 10
0.4608733662382276
 20
1.89179162957798
 30
0.0007235310925768
  0
VERTEX
  5
B4426
  8
0
 10
0.4594933662382277
 20
1.9008916295779981
 30
0.0007235310925768
  0
VERTEX
  5
B4427
  8
0
 10
0.4577303662382279
 20
1.909891629577998
 30
0.0007235310925768
  0
VERTEX
  5
B4428
  8
0
 10
0.4555873662382277
 20
1.918891629577991
 30
0.0007235310925768
  0
VERTEX
  5
B4429
  8
0
 10
0.4530663662382279
 20
1.927891629577992
 30
0.0007235310925768
  0
VERTEX
  5
B442A
  8
0
 10
0.4501683662382276
 20
1.9367916295779819
 30
0.0007235310925768
  0
VERTEX
  5
B442B
  8
0
 10
0.4468953662382278
 20
1.945691629577972
 30
0.0007235310925768
  0
SEQEND
  5
B442C
  8
0
  0
POLYLINE
  5
B31B6
  8
0
 66
     1
 10
0.0
 20
0.0
 30
0.2417495430742477
210
0.5824156243018354
220
0.0
230
-0.8128911615764458
  0
VERTEX
  5
B442D
  8
0
 10
3.0386699999999811
 20
0.3401455225684876
 30
0.2417495430742477
  0
VERTEX
  5
B442E
  8
0
 10
3.0386739332352368
 20
0.3428166857666115
 30
0.2417495430742477
  0
SEQEND
  5
B442F
  8
0
  0
POLYLINE
  5
B31B7
  8
0
 66
     1
 10
0.0
 20
0.0
 30
0.3241428153333783
210
-0.7793363341763149
220
0.0
230
-0.6266058396094179
  0
VERTEX
  5
B4430
  8
0
 10
-3.0386699999999811
 20
0.2626591010563865
 30
0.3241428153333783
  0
VERTEX
  5
B4431
  8
0
 10
-3.038674000285666
 20
0.2591344570861977
 30
0.3241428153333783
  0
SEQEND
  5
B4432
  8
0
  0
POLYLINE
  5
B31C3
  8
ASHADE
 66
     1
 10
0.0
 20
0.0
 30
0.0103900896651301
  0
VERTEX
  5
B4433
  8
ASHADE
 10
0.418246595541121
 20
3.7148352356957939
 30
0.0103900896651301
 42
2.897112978746164
  0
VERTEX
  5
B4434
  8
ASHADE
 10
-0.4162135181867713
 20
3.7133509278102319
 30
0.0103900896651301
  0
SEQEND
  5
B4435
  8
ASHADE
  0
POLYLINE
  5
B31C4
  8
ASHADE
 66
     1
 10
0.0
 20
0.0
 30
-1.6070227961403969
 70
     1
210
-1.0
220
0.0
230
0.0
  0
VERTEX
  5
B4436
  8
ASHADE
 10
-1.64459023408861
 20
0.0005088398738113
 30
-1.6070227961403969
  0
VERTEX
  5
B4437
  8
ASHADE
 10
-1.075292861270611
 20
-0.0000037595960469
 30
-1.6070227961403969
  0
SEQEND
  5
B4438
  8
ASHADE
  0
POLYLINE
  5
B31C6
  8
ASHADE
 66
     1
 10
0.0
 20
0.0
 30
-1.3094702412064889
210
-0.874919527917898
220
-0.4842683343642475
230
0.0
  0
VERTEX
  5
B4439
  8
ASHADE
 10
-1.8965130843281079
 20
0.0010935460557602
 30
-1.3094702412064889
  0
VERTEX
  5
B443A
  8
ASHADE
 10
-2.0566273630695648
 20
0.0013246577773534
 30
-1.3094702412064889
  0
SEQEND
  5
B443B
  8
ASHADE
  0
POLYLINE
  5
B31C7
  8
ASHADE
 66
     1
 10
0.0
 20
0.0
 30
-1.3109780149064221
210
0.8745253874241461
220
-0.4849797384949678
230
0.0
  0
VERTEX
  5
B443C
  8
ASHADE
 10
2.0570881763233708
 20
0.0013272296995699
 30
-1.3109780149064221
  0
VERTEX
  5
B443D
  8
ASHADE
 10
1.894721231355101
 20
0.0010924708810491
 30
-1.3109780149064221
  0
SEQEND
  5
B443E
  8
ASHADE
  0
POLYLINE
  5
B31C8
  8
ASHADE
 66
     1
 10
0.0
 20
0.0
 30
0.0031457544779427
  0
VERTEX
  5
B443F
  8
ASHADE
 10
0.4201207583980706
 20
2.6801617827628159
 30
0.0031457544779427
  0
VERTEX
  5
B4440
  8
ASHADE
 10
0.417283619548517
 20
4.2464676344868693
 30
0.0031457544779427
 42
0.9999999999999998
  0
VERTEX
  5
B4441
  8
ASHADE
 10
-0.4171797383768984
 20
4.2464676344868693
 30
0.0031457544779427
  0
SEQEND
  5
B4442
  8
ASHADE
  0
POLYLINE
  5
B31C9
  8
ASHADE
 66
     1
 10
0.0
 20
0.0
 30
-0.001156855814703
  0
VERTEX
  5
B4443
  8
ASHADE
 10
-0.4143420439410869
 20
2.6801617827628159
 30
-0.001156855814703
  0
VERTEX
  5
B4444
  8
ASHADE
 10
-0.417179182790651
 20
4.2464676344868693
 30
-0.001156855814703
  0
SEQEND
  5
B4445
  8
ASHADE
  0
POLYLINE
  5
B31CB
  8
ASHADE
 66
     1
 10
0.0
 20
0.0
 30
0.0104548121005048
  0
VERTEX
  5
B4446
  8
ASHADE
 10
0.9826345133148938
 20
2.4954473208475099
 30
0.0104548121005048
 42
3.825450438881171
  0
VERTEX
  5
B4447
  8
ASHADE
 10
-0.9825621897461481
 20
2.4954648628514562
 30
0.0104548121005048
  0
SEQEND
  5
B4448
  8
ASHADE
  0
LINE
  5
B31CC
  8
0
 10
-1.607
 20
1.075289999999981
 30
0.0
 11
-1.6056999999999999
 21
1.6021199999999849
 31
0.0005100000000011
  0
ENDSEC
  0
EOF
