  0
SECTION
  2
HEADER
  9
$ACADVER
  1
AC1009
  9
$INSBASE
 10
26.809588685987041
 20
18.918179787811809
 30
0.0
  9
$EXTMIN
 10
21.30958868598703
 20
13.42861833442679
 30
0.0
  9
$EXTMAX
 10
32.309588685987038
 20
20.978179787811811
 30
0.0
  9
$LIMMIN
 10
0.0
 20
0.0
  9
$LIMMAX
 10
29.232283464599998
 20
20.669291338600001
  9
$ORTHOMODE
 70
     1
  9
$REGENMODE
 70
     1
  9
$FILLMODE
 70
     1
  9
$QTEXTMODE
 70
     0
  9
$MIRRTEXT
 70
     0
  9
$DRAGMODE
 70
     2
  9
$LTSCALE
 40
1.6077755906
  9
$OSMODE
 70
    39
  9
$ATTMODE
 70
     1
  9
$TEXTSIZE
 40
0.2
  9
$TRACEWID
 40
0.05
  9
$TEXTSTYLE
  7
STANDARD
  9
$CLAYER
  8
0
  9
$CELTYPE
  6
BYLAYER
  9
$CECOLOR
 62
   256
  9
$DIMSCALE
 40
1.0
  9
$DIMASZ
 40
0.46875
  9
$DIMEXO
 40
0.0625
  9
$DIMDLI
 40
1.1108267716999991
  9
$DIMRND
 40
0.0
  9
$DIMDLE
 40
0.0
  9
$DIMEXE
 40
0.125
  9
$DIMTP
 40
0.0
  9
$DIMTM
 40
0.0
  9
$DIMTXT
 40
0.390625
  9
$DIMCEN
 40
0.2630905512
  9
$DIMTSZ
 40
0.0
  9
$DIMTOL
 70
     0
  9
$DIMLIM
 70
     0
  9
$DIMTIH
 70
     1
  9
$DIMTOH
 70
     1
  9
$DIMSE1
 70
     0
  9
$DIMSE2
 70
     0
  9
$DIMTAD
 70
     0
  9
$DIMZIN
 70
     0
  9
$DIMBLK
  1

  9
$DIMASO
 70
     1
  9
$DIMSHO
 70
     1
  9
$DIMPOST
  1

  9
$DIMAPOST
  1

  9
$DIMALT
 70
     0
  9
$DIMALTD
 70
     2
  9
$DIMALTF
 40
25.399999999999999
  9
$DIMLFAC
 40
1.0
  9
$DIMTOFL
 70
     0
  9
$DIMTVP
 40
0.0
  9
$DIMTIX
 70
     0
  9
$DIMSOXD
 70
     0
  9
$DIMSAH
 70
     0
  9
$DIMBLK1
  1

  9
$DIMBLK2
  1

  9
$DIMSTYLE
  2
STANDARD
  9
$DIMCLRD
 70
     0
  9
$DIMCLRE
 70
     0
  9
$DIMCLRT
 70
     0
  9
$DIMTFAC
 40
1.0
  9
$DIMGAP
 40
0.09
  9
$LUNITS
 70
     2
  9
$LUPREC
 70
     4
  9
$SKETCHINC
 40
0.1
  9
$FILLETRAD
 40
0.0
  9
$AUNITS
 70
     0
  9
$AUPREC
 70
     0
  9
$MENU
  1
.
  9
$ELEVATION
 40
0.0
  9
$PELEVATION
 40
0.0
  9
$THICKNESS
 40
0.0
  9
$LIMCHECK
 70
     0
  9
$BLIPMODE
 70
     0
  9
$CHAMFERA
 40
0.0
  9
$CHAMFERB
 40
0.0
  9
$SKPOLY
 70
     0
  9
$TDCREATE
 40
2457527.505112187
  9
$TDUPDATE
 40
2457528.667230417
  9
$TDINDWG
 40
0.138351331
  9
$TDUSRTIMER
 40
0.138351331
  9
$USRTIMER
 70
     1
  9
$ANGBASE
 50
0.0
  9
$ANGDIR
 70
     0
  9
$PDMODE
 70
     0
  9
$PDSIZE
 40
0.3125
  9
$PLINEWID
 40
0.0
  9
$COORDS
 70
     1
  9
$SPLFRAME
 70
     0
  9
$SPLINETYPE
 70
     6
  9
$SPLINESEGS
 70
     8
  9
$ATTDIA
 70
     1
  9
$ATTREQ
 70
     1
  9
$HANDLING
 70
     1
  9
$HANDSEED
  5
A0B
  9
$SURFTAB1
 70
     6
  9
$SURFTAB2
 70
     6
  9
$SURFTYPE
 70
     6
  9
$SURFU
 70
     6
  9
$SURFV
 70
     6
  9
$UCSNAME
  2

  9
$UCSORG
 10
0.0
 20
0.0
 30
0.0
  9
$UCSXDIR
 10
1.0
 20
0.0
 30
0.0
  9
$UCSYDIR
 10
0.0
 20
1.0
 30
0.0
  9
$PUCSNAME
  2

  9
$PUCSORG
 10
0.0
 20
0.0
 30
0.0
  9
$PUCSXDIR
 10
1.0
 20
0.0
 30
0.0
  9
$PUCSYDIR
 10
0.0
 20
1.0
 30
0.0
  9
$USERI1
 70
     0
  9
$USERI2
 70
     0
  9
$USERI3
 70
     0
  9
$USERI4
 70
     0
  9
$USERI5
 70
     0
  9
$USERR1
 40
0.0
  9
$USERR2
 40
0.0
  9
$USERR3
 40
0.0
  9
$USERR4
 40
0.0
  9
$USERR5
 40
0.0
  9
$WORLDVIEW
 70
     1
  9
$SHADEDGE
 70
     3
  9
$SHADEDIF
 70
    70
  9
$TILEMODE
 70
     1
  9
$MAXACTVP
 70
    48
  9
$PLIMCHECK
 70
     0
  9
$PEXTMIN
 10
1.0000000000000000E+020
 20
1.0000000000000000E+020
 30
1.0000000000000000E+020
  9
$PEXTMAX
 10
-1.0000000000000000E+020
 20
-1.0000000000000000E+020
 30
-1.0000000000000000E+020
  9
$PLIMMIN
 10
0.0
 20
0.0
  9
$PLIMMAX
 10
12.0
 20
9.0
  9
$UNITMODE
 70
     0
  9
$VISRETAIN
 70
     1
  9
$PLINEGEN
 70
     0
  9
$PSLTSCALE
 70
     1
  0
ENDSEC
  0
SECTION
  2
TABLES
  0
TABLE
  2
VPORT
 70
     1
  0
VPORT
  2
*ACTIVE
 70
     0
 10
0.0
 20
0.0
 11
1.0
 21
1.0
 12
7.9580208780192621
 22
12.818453744259649
 13
0.0
 23
0.0
 14
1.0
 24
1.0
 15
0.0
 25
0.0
 16
-0.0000000000000071
 26
0.0
 36
36.596232455009861
 17
26.809588685987041
 27
17.20341236377612
 37
0.0
 40
41.946792978065879
 41
1.798301486199575
 42
50.0
 43
0.0
 44
0.0
 50
0.0
 51
0.0
 71
     0
 72
   100
 73
     1
 74
     1
 75
     0
 76
     0
 77
     0
 78
     0
  0
ENDTAB
  0
TABLE
  2
LTYPE
 70
     1
  0
LTYPE
  2
CONTINUOUS
 70
     0
  3
Solid line
 72
    65
 73
     0
 40
0.0
  0
ENDTAB
  0
TABLE
  2
LAYER
 70
     2
  0
LAYER
  2
0
 70
     0
 62
     7
  6
CONTINUOUS
  0
LAYER
  2
DEFPOINTS
 70
     0
 62
     7
  6
CONTINUOUS
  0
ENDTAB
  0
TABLE
  2
STYLE
 70
     1
  0
STYLE
  2
STANDARD
 70
     0
 40
0.0
 41
0.8
 50
0.0
 71
     0
 42
0.2
  3
txt
  4

  0
ENDTAB
  0
TABLE
  2
VIEW
 70
     0
  0
ENDTAB
  0
TABLE
  2
UCS
 70
     0
  0
ENDTAB
  0
TABLE
  2
APPID
 70
     6
  0
APPID
  2
ACAD
 70
     0
  0
APPID
  2
ACAD_MLEADERVER
 70
     0
  0
APPID
  2
ACAD_DSTYLE_DIMRADIAL_EXTENSION
 70
     0
  0
APPID
  2
ACAD_NAV_VCDISPLAY
 70
     0
  0
APPID
  2
ACAD_EXEMPT_FROM_CAD_STANDARDS
 70
     0
  0
APPID
  2
ACDBATTR
 70
     0
  0
ENDTAB
  0
TABLE
  2
DIMSTYLE
 70
     1
  0
DIMSTYLE
  2
STANDARD
 70
     0
  3

  4

  5

  6

  7

 40
1.0
 41
0.46875
 42
0.0625
 43
0.38
 44
0.125
 45
0.0
 46
0.0
 47
1.5
 48
1.5
140
0.390625
141
0.09
142
0.0
143
25.399999999999999
144
1.0
145
0.0
146
1.0
147
0.09
 71
     0
 72
     0
 73
     1
 74
     1
 75
     0
 76
     0
 77
     0
 78
     4
170
     0
171
     2
172
     0
173
     0
174
     0
175
     0
176
     0
177
     0
178
     0
  0
ENDTAB
  0
ENDSEC
  0
SECTION
  2
BLOCKS
  0
BLOCK
  8
0
  2
$MODEL_SPACE
 70
     0
 10
0.0
 20
0.0
 30
0.0
  3
$MODEL_SPACE
  1

  0
ENDBLK
  5
21
  8
0
  0
BLOCK
 67
     1
  8
0
  2
$PAPER_SPACE
 70
     0
 10
0.0
 20
0.0
 30
0.0
  3
$PAPER_SPACE
  1

  0
ENDBLK
  5
1D
 67
     1
  8
0
  0
ENDSEC
  0
SECTION
  2
ENTITIES
  0
LINE
  5
838
  8
0
 10
21.30958868598703
 20
18.708179787811812
 30
0.0
 11
21.30958868598703
 21
19.12817978781181
 31
0.0
  0
LINE
  5
839
  8
0
 10
22.589588685987032
 20
17.428179787811811
 30
0.0
 11
22.589588685987032
 21
18.618179787811808
 31
0.0
  0
LINE
  5
83A
  8
0
 10
22.589588685987032
 20
19.21817978781181
 30
0.0
 11
22.589588685987032
 21
20.408179787811811
 31
0.0
  0
LINE
  5
83B
  8
0
 10
23.029588685987029
 20
17.428179787811811
 30
0.0
 11
23.029588685987029
 21
18.618179787811808
 31
0.0
  0
LINE
  5
83C
  8
0
 10
23.029588685987029
 20
19.21817978781181
 30
0.0
 11
23.029588685987029
 21
20.408179787811811
 31
0.0
  0
LINE
  5
83D
  8
0
 10
24.30958868598703
 20
19.12817978781181
 30
0.0
 11
24.30958868598703
 21
18.708179787811812
 31
0.0
  0
LINE
  5
83E
  8
0
 10
23.019588685987031
 20
17.418179787811809
 30
0.0
 11
22.59958868598703
 21
17.418179787811809
 31
0.0
  0
LINE
  5
83F
  8
0
 10
24.299588685987029
 20
18.69817978781181
 30
0.0
 11
23.109588685987031
 21
18.69817978781181
 31
0.0
  0
LINE
  5
840
  8
0
 10
22.50958868598703
 20
18.69817978781181
 30
0.0
 11
21.319588685987028
 21
18.69817978781181
 31
0.0
  0
LINE
  5
841
  8
0
 10
24.299588685987029
 20
19.138179787811811
 30
0.0
 11
23.109588685987031
 21
19.138179787811811
 31
0.0
  0
LINE
  5
842
  8
0
 10
22.50958868598703
 20
19.138179787811811
 30
0.0
 11
21.319588685987028
 21
19.138179787811811
 31
0.0
  0
LINE
  5
843
  8
0
 10
22.59958868598703
 20
20.418179787811809
 30
0.0
 11
23.019588685987031
 21
20.418179787811809
 31
0.0
  0
ARC
  5
844
  8
0
 10
23.109588685987031
 20
18.618179787811808
 30
0.0
 40
0.08
 50
90.0
 51
180.0
  0
ARC
  5
845
  8
0
 10
22.50958868598703
 20
18.618179787811808
 30
0.0
 40
0.08
 50
0.0
 51
90.000000000099945
  0
ARC
  5
846
  8
0
 10
21.319588685987028
 20
18.708179787811812
 30
0.0
 40
0.01
 50
180.0
 51
270.0
  0
ARC
  5
847
  8
0
 10
22.59958868598703
 20
17.428179787811811
 30
0.0
 40
0.01
 50
180.0
 51
270.00000000009987
  0
ARC
  5
848
  8
0
 10
23.019588685987031
 20
17.428179787811811
 30
0.0
 40
0.01
 50
269.99999999990001
 51
0.0
  0
ARC
  5
849
  8
0
 10
24.299588685987029
 20
18.708179787811812
 30
0.0
 40
0.01
 50
270.0
 51
0.0
  0
ARC
  5
84A
  8
0
 10
22.80958868598703
 20
18.918179787811809
 30
0.0
 40
0.99
 50
192.86636483779989
 51
257.14334371230012
  0
ARC
  5
84B
  8
0
 10
22.80958868598703
 20
18.918179787811809
 30
0.0
 40
0.99
 50
282.85665718320001
 51
347.13363153600011
  0
ARC
  5
84C
  8
0
 10
22.80958868598703
 20
18.918179787811809
 30
0.0
 40
0.99
 50
12.866364837799919
 51
77.143343712299909
  0
ARC
  5
84D
  8
0
 10
22.80958868598703
 20
18.918179787811809
 30
0.0
 40
0.99
 50
102.8566571832
 51
167.13363153600011
  0
ARC
  5
84E
  8
0
 10
22.80958868598703
 20
18.918179787811809
 30
0.0
 40
0.5343875380000001
 50
204.30815260639989
 51
245.67932108260001
  0
ARC
  5
84F
  8
0
 10
22.80958868598703
 20
18.918179787811809
 30
0.0
 40
0.5343875380000001
 50
294.32916474410001
 51
335.6959178809999
  0
ARC
  5
850
  8
0
 10
22.80958868598703
 20
18.918179787811809
 30
0.0
 40
0.5343875380000001
 50
24.308152606399911
 51
65.679321082600026
  0
ARC
  5
851
  8
0
 10
22.80958868598703
 20
18.918179787811809
 30
0.0
 40
0.5343875380000001
 50
114.3291647440999
 51
155.69591788089991
  0
ARC
  5
852
  8
0
 10
22.50958868598703
 20
19.21817978781181
 30
0.0
 40
0.08
 50
269.99999999969998
 51
0.0
  0
ARC
  5
853
  8
0
 10
23.109588685987031
 20
19.21817978781181
 30
0.0
 40
0.08
 50
180.0
 51
270.00000000009987
  0
ARC
  5
854
  8
0
 10
21.319588685987028
 20
19.12817978781181
 30
0.0
 40
0.01
 50
90.0
 51
180.0
  0
ARC
  5
855
  8
0
 10
23.019588685987031
 20
20.408179787811811
 30
0.0
 40
0.01
 50
0.0
 51
90.0
  0
ARC
  5
856
  8
0
 10
22.59958868598703
 20
20.408179787811811
 30
0.0
 40
0.01
 50
90.0
 51
180.0
  0
ARC
  5
857
  8
0
 10
24.299588685987029
 20
19.12817978781181
 30
0.0
 40
0.01
 50
0.0
 51
90.0
  0
LINE
  5
858
  8
0
 10
26.43458868598703
 20
20.978179787811811
 30
0.0
 11
26.43458868598703
 21
13.736326739178359
 31
0.0
  0
LINE
  5
859
  8
0
 10
27.18458868598703
 20
20.978179787811811
 30
0.0
 11
27.18458868598703
 21
13.736326739178381
 31
0.0
  0
LINE
  5
85A
  8
0
 10
27.184571906787038
 20
20.978179787811811
 30
0.0
 11
26.43460546518703
 21
20.978179787811811
 31
0.0
  0
ARC
  5
85B
  8
0
 10
26.80958868598703
 20
18.918179787811809
 30
0.0
 40
0.99
 50
112.31994155219989
 51
247.68005844780001
  0
ARC
  5
85C
  8
0
 10
26.80958868598703
 20
18.918179787811809
 30
0.0
 40
0.99
 50
292.31994155219968
 51
67.68005844780005
  0
ARC
  5
85D
  8
0
 10
26.80958868598703
 20
18.918179787811809
 30
0.0
 40
0.5450000000000002
 50
133.67409932149991
 51
226.32590067850001
  0
ARC
  5
85E
  8
0
 10
26.80958868598703
 20
18.918179787811809
 30
0.0
 40
0.5450000000000002
 50
313.67409932150002
 51
46.325900678500027
  0
ARC
  5
85F
  8
0
 10
26.755668943399382
 20
13.76082723929037
 30
0.0
 40
0.3220136739421418
 50
184.36358238362641
 51
257.12134360344481
  0
ARC
  5
860
  8
0
 10
26.807543785955328
 20
13.85558822437423
 30
0.0
 40
0.4269698899474391
 50
253.1664077048606
 51
316.06999008450862
  0
ARC
  5
861
  8
0
 10
26.906511791623672
 20
13.74346524000131
 30
0.0
 40
0.2781685053573996
 50
318.56053329612729
 51
358.52948530326768
  0
ARC
  5
862
  8
0
 10
26.723671417986449
 20
13.97515429948311
 30
0.0
 40
0.2891789900835082
 50
181.4783760433026
 51
234.0286137485775
  0
ARC
  5
863
  8
0
 10
26.806486702271432
 20
14.08529131602263
 30
0.0
 40
0.4269645264067722
 50
233.7158255767616
 51
273.84809159534097
  0
ARC
  5
864
  8
0
 10
26.806640044720279
 20
14.098776408906691
 30
0.0
 40
0.4404101968027229
 50
273.71044947026729
 51
309.68221170006427
  0
ARC
  5
865
  8
0
 10
26.87905802976859
 20
13.984120953870161
 30
0.0
 40
0.3064294928723816
 50
312.9520180321432
 51
355.610460600956
  0
LINE
  5
866
  8
0
 10
32.309588685987038
 20
18.708179787811812
 30
0.0
 11
32.309588685987038
 21
19.12817978781181
 31
0.0
  0
LINE
  5
867
  8
0
 10
31.02958868598704
 20
17.428179787811811
 30
0.0
 11
31.02958868598704
 21
18.618179787811808
 31
0.0
  0
LINE
  5
868
  8
0
 10
31.02958868598704
 20
19.21817978781181
 30
0.0
 11
31.02958868598704
 21
20.408179787811811
 31
0.0
  0
LINE
  5
869
  8
0
 10
30.589588685987039
 20
17.428179787811811
 30
0.0
 11
30.589588685987039
 21
18.618179787811808
 31
0.0
  0
LINE
  5
86A
  8
0
 10
30.589588685987039
 20
19.21817978781181
 30
0.0
 11
30.589588685987039
 21
20.408179787811811
 31
0.0
  0
LINE
  5
86B
  8
0
 10
29.309588685987041
 20
19.12817978781181
 30
0.0
 11
29.309588685987041
 21
18.708179787811812
 31
0.0
  0
LINE
  5
86C
  8
0
 10
30.59958868598704
 20
17.418179787811809
 30
0.0
 11
31.019588685987038
 21
17.418179787811809
 31
0.0
  0
LINE
  5
86D
  8
0
 10
29.319588685987039
 20
18.69817978781181
 30
0.0
 11
30.50958868598704
 21
18.69817978781181
 31
0.0
  0
LINE
  5
86E
  8
0
 10
31.109588685987038
 20
18.69817978781181
 30
0.0
 11
32.299588685987032
 21
18.69817978781181
 31
0.0
  0
LINE
  5
86F
  8
0
 10
29.319588685987039
 20
19.138179787811811
 30
0.0
 11
30.50958868598704
 21
19.138179787811811
 31
0.0
  0
LINE
  5
870
  8
0
 10
31.109588685987038
 20
19.138179787811811
 30
0.0
 11
32.299588685987032
 21
19.138179787811811
 31
0.0
  0
LINE
  5
871
  8
0
 10
31.019588685987038
 20
20.418179787811809
 30
0.0
 11
30.59958868598704
 21
20.418179787811809
 31
0.0
  0
ARC
  5
872
  8
0
 10
30.50958868598704
 20
18.618179787811808
 30
0.0
 40
0.08
 50
0.0
 51
90.0
  0
ARC
  5
873
  8
0
 10
31.109588685987038
 20
18.618179787811808
 30
0.0
 40
0.08
 50
89.999999999900055
 51
180.0
  0
ARC
  5
874
  8
0
 10
32.299588685987032
 20
18.708179787811812
 30
0.0
 40
0.01
 50
270.0
 51
0.0
  0
ARC
  5
875
  8
0
 10
31.019588685987038
 20
17.428179787811811
 30
0.0
 40
0.01
 50
269.99999999990001
 51
0.0
  0
ARC
  5
876
  8
0
 10
30.59958868598704
 20
17.428179787811811
 30
0.0
 40
0.01
 50
180.0
 51
270.00000000009987
  0
ARC
  5
877
  8
0
 10
29.319588685987039
 20
18.708179787811812
 30
0.0
 40
0.01
 50
180.0
 51
270.0
  0
ARC
  5
878
  8
0
 10
30.809588685987041
 20
18.918179787811809
 30
0.0
 40
0.99
 50
282.85665628769988
 51
347.13363516219999
  0
ARC
  5
879
  8
0
 10
30.809588685987041
 20
18.918179787811809
 30
0.0
 40
0.99
 50
192.86636846399989
 51
257.14334281679999
  0
ARC
  5
87A
  8
0
 10
30.809588685987041
 20
18.918179787811809
 30
0.0
 40
0.99
 50
102.8566562877001
 51
167.13363516220011
  0
ARC
  5
87B
  8
0
 10
30.809588685987041
 20
18.918179787811809
 30
0.0
 40
0.99
 50
12.86636846399993
 51
77.143342816800015
  0
ARC
  5
87C
  8
0
 10
30.809588685987041
 20
18.918179787811809
 30
0.0
 40
0.5343875380000001
 50
294.32067891740002
 51
335.69184739359991
  0
ARC
  5
87D
  8
0
 10
30.809588685987041
 20
18.918179787811809
 30
0.0
 40
0.5343875380000001
 50
204.30408211899999
 51
245.6708352559001
  0
ARC
  5
87E
  8
0
 10
30.809588685987041
 20
18.918179787811809
 30
0.0
 40
0.5343875380000001
 50
114.3206789173999
 51
155.69184739360011
  0
ARC
  5
87F
  8
0
 10
30.809588685987041
 20
18.918179787811809
 30
0.0
 40
0.5343875380000001
 50
24.304082119100091
 51
65.670835255900101
  0
ARC
  5
880
  8
0
 10
31.109588685987038
 20
19.21817978781181
 30
0.0
 40
0.08
 50
180.0
 51
270.00000000030002
  0
ARC
  5
881
  8
0
 10
30.50958868598704
 20
19.21817978781181
 30
0.0
 40
0.08
 50
269.99999999990001
 51
0.0
  0
ARC
  5
882
  8
0
 10
32.299588685987032
 20
19.12817978781181
 30
0.0
 40
0.01
 50
0.0
 51
90.0
  0
ARC
  5
883
  8
0
 10
30.59958868598704
 20
20.408179787811811
 30
0.0
 40
0.01
 50
90.0
 51
180.0
  0
ARC
  5
884
  8
0
 10
31.019588685987038
 20
20.408179787811811
 30
0.0
 40
0.01
 50
0.0
 51
90.0
  0
ARC
  5
885
  8
0
 10
29.319588685987039
 20
19.12817978781181
 30
0.0
 40
0.01
 50
90.0
 51
180.0
  0
ATTDEF
  5
92E
  8
DEFPOINTS
 10
26.804588674999671
 20
18.908179789796911
 30
0.0
 40
0.001
  1
METAL
  3

  2
MATERIAL
 70
     0
1001
ACDBATTR
1070
     0
1070
     1
  0
ATTDEF
  5
92F
  8
DEFPOINTS
 10
26.804588674999671
 20
18.90984645646358
 30
0.0
 40
0.001
  1
SINK FAUCET
  3

  2
PRODUCT
 70
     0
1001
ACDBATTR
1070
     0
1070
     1
  0
ATTDEF
  5
930
  8
DEFPOINTS
 10
26.804588674999671
 20
18.911513123130241
 30
0.0
 40
0.001
  1
PURIST
  3

  2
TRADENAME
 70
     0
1001
ACDBATTR
1070
     0
1070
     1
  0
ATTDEF
  5
931
  8
DEFPOINTS
 10
26.804588674999671
 20
18.91317978979691
 30
0.0
 40
0.001
  1
K-14410-3
  3

  2
MODELNUMBER
 70
     0
1001
ACDBATTR
1070
     0
1070
     1
  0
ENDSEC
  0
EOF
