  0
SECTION
  2
HEADER
  9
$ACADVER
  1
AC1009
  9
$INSBASE
 10
12.40944366355
 20
11.1280302942
 30
0.0
  9
$EXTMIN
 10
6.9094436635999994
 20
7.7312686755319771
 30
0.0
  9
$EXTMAX
 10
17.909443663499999
 20
15.0440397727
 30
0.0
  9
$LIMMIN
 10
0.0
 20
0.0
  9
$LIMMAX
 10
29.232283464599998
 20
20.669291338600001
  9
$ORTHOMODE
 70
     0
  9
$REGENMODE
 70
     1
  9
$FILLMODE
 70
     1
  9
$QTEXTMODE
 70
     0
  9
$MIRRTEXT
 70
     0
  9
$DRAGMODE
 70
     2
  9
$LTSCALE
 40
1.6077755906
  9
$OSMODE
 70
    39
  9
$ATTMODE
 70
     1
  9
$TEXTSIZE
 40
0.2
  9
$TRACEWID
 40
0.05
  9
$TEXTSTYLE
  7
STANDARD
  9
$CLAYER
  8
0
  9
$CELTYPE
  6
BYLAYER
  9
$CECOLOR
 62
   256
  9
$DIMSCALE
 40
1.0
  9
$DIMASZ
 40
0.46875
  9
$DIMEXO
 40
0.0625
  9
$DIMDLI
 40
1.1108267716999991
  9
$DIMRND
 40
0.0
  9
$DIMDLE
 40
0.0
  9
$DIMEXE
 40
0.125
  9
$DIMTP
 40
0.0
  9
$DIMTM
 40
0.0
  9
$DIMTXT
 40
0.390625
  9
$DIMCEN
 40
0.2630905512
  9
$DIMTSZ
 40
0.0
  9
$DIMTOL
 70
     0
  9
$DIMLIM
 70
     0
  9
$DIMTIH
 70
     1
  9
$DIMTOH
 70
     1
  9
$DIMSE1
 70
     0
  9
$DIMSE2
 70
     0
  9
$DIMTAD
 70
     0
  9
$DIMZIN
 70
     0
  9
$DIMBLK
  1

  9
$DIMASO
 70
     1
  9
$DIMSHO
 70
     1
  9
$DIMPOST
  1

  9
$DIMAPOST
  1

  9
$DIMALT
 70
     0
  9
$DIMALTD
 70
     2
  9
$DIMALTF
 40
25.399999999999999
  9
$DIMLFAC
 40
1.0
  9
$DIMTOFL
 70
     0
  9
$DIMTVP
 40
0.0
  9
$DIMTIX
 70
     0
  9
$DIMSOXD
 70
     0
  9
$DIMSAH
 70
     0
  9
$DIMBLK1
  1

  9
$DIMBLK2
  1

  9
$DIMSTYLE
  2
STANDARD
  9
$DIMCLRD
 70
     0
  9
$DIMCLRE
 70
     0
  9
$DIMCLRT
 70
     0
  9
$DIMTFAC
 40
1.0
  9
$DIMGAP
 40
0.09
  9
$LUNITS
 70
     2
  9
$LUPREC
 70
     4
  9
$SKETCHINC
 40
0.1
  9
$FILLETRAD
 40
0.0
  9
$AUNITS
 70
     0
  9
$AUPREC
 70
     0
  9
$MENU
  1
.
  9
$ELEVATION
 40
0.0
  9
$PELEVATION
 40
0.0
  9
$THICKNESS
 40
0.0
  9
$LIMCHECK
 70
     0
  9
$BLIPMODE
 70
     0
  9
$CHAMFERA
 40
0.0
  9
$CHAMFERB
 40
0.0
  9
$SKPOLY
 70
     0
  9
$TDCREATE
 40
2457527.505112187
  9
$TDUPDATE
 40
2457528.667388137
  9
$TDINDWG
 40
0.1658323843
  9
$TDUSRTIMER
 40
0.1658323843
  9
$USRTIMER
 70
     1
  9
$ANGBASE
 50
0.0
  9
$ANGDIR
 70
     0
  9
$PDMODE
 70
     0
  9
$PDSIZE
 40
0.3125
  9
$PLINEWID
 40
0.0
  9
$COORDS
 70
     1
  9
$SPLFRAME
 70
     0
  9
$SPLINETYPE
 70
     6
  9
$SPLINESEGS
 70
     8
  9
$ATTDIA
 70
     1
  9
$ATTREQ
 70
     1
  9
$HANDLING
 70
     1
  9
$HANDSEED
  5
9DF
  9
$SURFTAB1
 70
     6
  9
$SURFTAB2
 70
     6
  9
$SURFTYPE
 70
     6
  9
$SURFU
 70
     6
  9
$SURFV
 70
     6
  9
$UCSNAME
  2

  9
$UCSORG
 10
0.0
 20
0.0
 30
0.0
  9
$UCSXDIR
 10
1.0
 20
0.0
 30
0.0
  9
$UCSYDIR
 10
0.0
 20
1.0
 30
0.0
  9
$PUCSNAME
  2

  9
$PUCSORG
 10
0.0
 20
0.0
 30
0.0
  9
$PUCSXDIR
 10
1.0
 20
0.0
 30
0.0
  9
$PUCSYDIR
 10
0.0
 20
1.0
 30
0.0
  9
$USERI1
 70
     0
  9
$USERI2
 70
     0
  9
$USERI3
 70
     0
  9
$USERI4
 70
     0
  9
$USERI5
 70
     0
  9
$USERR1
 40
0.0
  9
$USERR2
 40
0.0
  9
$USERR3
 40
0.0
  9
$USERR4
 40
0.0
  9
$USERR5
 40
0.0
  9
$WORLDVIEW
 70
     1
  9
$SHADEDGE
 70
     3
  9
$SHADEDIF
 70
    70
  9
$TILEMODE
 70
     1
  9
$MAXACTVP
 70
    48
  9
$PLIMCHECK
 70
     0
  9
$PEXTMIN
 10
1.0000000000000000E+020
 20
1.0000000000000000E+020
 30
1.0000000000000000E+020
  9
$PEXTMAX
 10
-1.0000000000000000E+020
 20
-1.0000000000000000E+020
 30
-1.0000000000000000E+020
  9
$PLIMMIN
 10
0.0
 20
0.0
  9
$PLIMMAX
 10
12.0
 20
9.0
  9
$UNITMODE
 70
     0
  9
$VISRETAIN
 70
     1
  9
$PLINEGEN
 70
     0
  9
$PSLTSCALE
 70
     1
  0
ENDSEC
  0
SECTION
  2
TABLES
  0
TABLE
  2
VPORT
 70
     1
  0
VPORT
  2
*ACTIVE
 70
     0
 10
0.0
 20
0.0
 11
1.0
 21
1.0
 12
6.2667757001736213
 22
2.7373538783308429
 13
0.0
 23
0.0
 14
1.0
 24
1.0
 15
0.0
 25
0.0
 16
-0.0000000000000071
 26
0.0
 36
32.036843900505843
 17
12.40944366355
 27
13.080597929503289
 37
0.0
 40
29.178029643541102
 41
1.798301486199575
 42
50.0
 43
0.0
 44
0.0
 50
0.0
 51
0.0
 71
     0
 72
   100
 73
     1
 74
     1
 75
     0
 76
     0
 77
     0
 78
     0
  0
ENDTAB
  0
TABLE
  2
LTYPE
 70
     1
  0
LTYPE
  2
CONTINUOUS
 70
     0
  3
Solid line
 72
    65
 73
     0
 40
0.0
  0
ENDTAB
  0
TABLE
  2
LAYER
 70
     2
  0
LAYER
  2
0
 70
     0
 62
     7
  6
CONTINUOUS
  0
LAYER
  2
DEFPOINTS
 70
     0
 62
     7
  6
CONTINUOUS
  0
ENDTAB
  0
TABLE
  2
STYLE
 70
     1
  0
STYLE
  2
STANDARD
 70
     0
 40
0.0
 41
0.8
 50
0.0
 71
     0
 42
0.2
  3
txt
  4

  0
ENDTAB
  0
TABLE
  2
VIEW
 70
     1
  0
ENDTAB
  0
TABLE
  2
UCS
 70
     0
  0
ENDTAB
  0
TABLE
  2
APPID
 70
     6
  0
APPID
  2
ACAD
 70
     0
  0
APPID
  2
ACAD_MLEADERVER
 70
     0
  0
APPID
  2
ACAD_DSTYLE_DIMRADIAL_EXTENSION
 70
     0
  0
APPID
  2
ACAD_NAV_VCDISPLAY
 70
     0
  0
APPID
  2
ACAD_EXEMPT_FROM_CAD_STANDARDS
 70
     0
  0
APPID
  2
ACDBATTR
 70
     0
  0
ENDTAB
  0
TABLE
  2
DIMSTYLE
 70
     1
  0
DIMSTYLE
  2
STANDARD
 70
     0
  3

  4

  5

  6

  7

 40
1.0
 41
0.46875
 42
0.0625
 43
0.38
 44
0.125
 45
0.0
 46
0.0
 47
1.5
 48
1.5
140
0.390625
141
0.09
142
0.0
143
25.399999999999999
144
1.0
145
0.0
146
1.0
147
0.09
 71
     0
 72
     0
 73
     1
 74
     1
 75
     0
 76
     0
 77
     0
 78
     4
170
     0
171
     2
172
     0
173
     0
174
     0
175
     0
176
     0
177
     0
178
     0
  0
ENDTAB
  0
ENDSEC
  0
SECTION
  2
BLOCKS
  0
BLOCK
  8
0
  2
$MODEL_SPACE
 70
     0
 10
0.0
 20
0.0
 30
0.0
  3
$MODEL_SPACE
  1

  0
ENDBLK
  5
21
  8
0
  0
BLOCK
 67
     1
  8
0
  2
$PAPER_SPACE
 70
     0
 10
0.0
 20
0.0
 30
0.0
  3
$PAPER_SPACE
  1

  0
ENDBLK
  5
1D
 67
     1
  8
0
  0
ENDSEC
  0
SECTION
  2
ENTITIES
  0
LINE
  5
223
  8
0
 10
7.4194436636000001
 20
11.293030294199999
 30
0.0
 11
7.4194436636000001
 21
11.143030294200001
 31
0.0
  0
LINE
  5
224
  8
0
 10
7.8650576371999996
 20
13.24985577
 30
0.0
 11
7.8644436636000004
 21
13.2850302942
 31
0.0
  0
LINE
  5
225
  8
0
 10
7.8644436636000004
 20
13.232030294199999
 30
0.0
 11
7.8644436636000004
 21
11.6000302942
 31
0.0
  0
LINE
  5
226
  8
0
 10
7.929443663599999
 20
13.2400302942
 30
0.0
 11
7.929443663599999
 21
13.232030294199999
 31
0.0
  0
LINE
  5
227
  8
0
 10
7.8650576371999996
 20
13.320204818500001
 30
0.0
 11
7.8644436636000004
 21
13.2850302942
 31
0.0
  0
LINE
  5
228
  8
0
 10
8.1888669580537901
 20
14.237859974644479
 30
0.0
 11
8.1859918566999994
 21
13.5789394669
 31
0.0
  0
LINE
  5
229
  8
0
 10
8.9538296899999992
 20
13.320204818500001
 30
0.0
 11
8.9544436635999993
 21
13.2850302942
 31
0.0
  0
LINE
  5
22A
  8
0
 10
8.6300203675969112
 20
14.2378603105937
 30
0.0
 11
8.6328954703999994
 21
13.5789394669
 31
0.0
  0
LINE
  5
22B
  8
0
 10
8.8894436635999998
 20
13.2400302942
 30
0.0
 11
8.8894436635999998
 21
13.232030294199999
 31
0.0
  0
LINE
  5
22C
  8
0
 10
8.9544436635999993
 20
13.232030294199999
 30
0.0
 11
8.9544436635999993
 21
11.6000302942
 31
0.0
  0
LINE
  5
22D
  8
0
 10
8.9538296899999992
 20
13.24985577
 30
0.0
 11
8.9544436635999993
 21
13.2850302942
 31
0.0
  0
LINE
  5
233
  8
0
 10
9.3994436635999996
 20
11.293030294199999
 30
0.0
 11
9.3994436635999996
 21
11.143030294200001
 31
0.0
  0
LINE
  5
235
  8
0
 10
7.4344518655999989
 20
11.1280302942
 30
0.0
 11
9.3844354614999972
 21
11.1280302942
 31
0.0
  0
LINE
  5
236
  8
0
 10
11.4344563283
 20
11.1280302942
 30
0.0
 11
13.384430998799999
 21
11.1280302942
 31
0.0
  0
LINE
  5
239
  8
0
 10
13.384443663600001
 20
11.3080302942
 30
0.0
 11
11.434456278800001
 21
11.3080302942
 31
0.0
  0
LINE
  5
23A
  8
0
 10
9.3844356197999996
 20
11.3080302942
 30
0.0
 11
7.4344517073
 21
11.3080302942
 31
0.0
  0
LINE
  5
240
  8
0
 10
8.9445398472999997
 20
11.5900302942
 30
0.0
 11
7.8743464970000003
 21
11.5900302942
 31
0.0
  0
LINE
  5
241
  8
0
 10
8.9429476950000009
 20
11.5900302942
 30
0.0
 11
7.8798891922000003
 21
11.5900302942
 31
0.0
  0
LINE
  5
244
  8
0
 10
11.419443663599999
 20
11.293030294199999
 30
0.0
 11
11.419443663599999
 21
11.143030294200001
 31
0.0
  0
LINE
  5
246
  8
0
 10
11.864443663599999
 20
13.8215423079
 30
0.0
 11
11.864443663599999
 21
11.608030294200001
 31
0.0
  0
LINE
  5
247
  8
0
 10
12.034443663599999
 20
14.6690397727
 30
0.0
 11
12.034443663599999
 21
14.0631870738
 31
0.0
  0
LINE
  5
248
  8
0
 10
12.034443663599999
 20
14.0631870738
 30
0.0
 11
12.034443663599999
 21
13.48158912240001
 31
0.0
  0
LINE
  5
254
  8
0
 10
12.784443663599999
 20
14.6690397727
 30
0.0
 11
12.784443663599999
 21
14.0631870738
 31
0.0
  0
LINE
  5
255
  8
0
 10
12.784443663599999
 20
14.0631870738
 30
0.0
 11
12.78355302147229
 21
13.47860177902631
 31
0.0
  0
LINE
  5
25A
  8
0
 10
8.9544366649999994
 20
13.232030294199999
 30
0.0
 11
7.8644506621000003
 21
13.232030294199999
 31
0.0
  0
LINE
  5
25C
  8
0
 10
8.9438309095000008
 20
13.2400302942
 30
0.0
 11
7.8750561140999986
 21
13.2400302942
 31
0.0
  0
LINE
  5
25D
  8
0
 10
7.8644436636000004
 20
13.2850302942
 30
0.0
 11
8.9544436635999993
 21
13.2850302942
 31
0.0
  0
LINE
  5
260
  8
0
 10
8.943830804500001
 20
13.3300302942
 30
0.0
 11
7.8750565226999987
 21
13.3300302942
 31
0.0
  0
LINE
  5
266
  8
0
 10
12.954443663599999
 20
13.8215423079
 30
0.0
 11
12.954443663599999
 21
11.608030294200001
 31
0.0
  0
LINE
  5
267
  8
0
 10
12.939443663600001
 20
13.836542308
 30
0.0
 11
12.78409836005191
 21
13.836542308
 31
0.0
  0
LINE
  5
268
  8
0
 10
12.034443663599999
 20
13.836542308
 30
0.0
 11
11.8794436636
 21
13.836542308
 31
0.0
  0
LINE
  5
26B
  8
0
 10
13.3994436636
 20
11.293030294199999
 30
0.0
 11
13.3994436636
 21
11.143030294200001
 31
0.0
  0
ARC
  5
2D4
  8
0
 10
11.564443663600001
 20
11.608030294200001
 30
0.0
 40
0.3
 50
270.0
 51
360.0
  0
ARC
  5
2D5
  8
0
 10
7.5849436635999989
 20
11.5875302942
 30
0.0
 40
0.2795
 50
270.0
 51
358.51548730010001
  0
ARC
  5
2D6
  8
0
 10
9.2339436635999999
 20
11.5875302942
 30
0.0
 40
0.2795
 50
181.48451269989999
 51
270.0
  0
ARC
  5
2D7
  8
0
 10
9.3844436636000008
 20
11.143030294200001
 30
0.0
 40
0.015
 50
270.00000616919999
 51
360.0
  0
ARC
  5
2D8
  8
0
 10
7.4344436635999989
 20
11.143030294200001
 30
0.0
 40
0.015
 50
180.0
 51
269.99999383080001
  0
ARC
  5
2D9
  8
0
 10
7.4344436635999989
 20
11.293030294199999
 30
0.0
 40
0.015
 50
90.000001152400003
 51
180.0
  0
ARC
  5
2DA
  8
0
 10
9.3844436636000008
 20
11.293030294199999
 30
0.0
 40
0.015
 50
0.0
 51
89.999998847599997
  0
ARC
  5
2DB
  8
0
 10
11.4344436636
 20
11.143030294200001
 30
0.0
 40
0.015
 50
180.0
 51
269.99999485519999
  0
ARC
  5
2DC
  8
0
 10
11.4344436636
 20
11.293030294199999
 30
0.0
 40
0.015
 50
89.999989939200006
 51
180.0
  0
ARC
  5
2DD
  8
0
 10
7.8743464970000003
 20
11.5800302942
 30
0.0
 40
0.01
 50
89.9999922473
 51
178.51548705260001
  0
ARC
  5
2DE
  8
0
 10
8.9445408300999993
 20
11.5800302942
 30
0.0
 40
0.01
 50
1.4845129474000001
 51
90.000007752700014
  0
ARC
  5
2DF
  8
0
 10
8.9444436635999995
 20
11.6000302942
 30
0.0
 40
0.01
 50
270.00000313179999
 51
360.0
  0
ARC
  5
2E0
  8
0
 10
7.8744436636000001
 20
11.6000302942
 30
0.0
 40
0.01
 50
180.0
 51
269.99999686820001
  0
ARC
  5
2E2
  8
0
 10
8.8828930904999996
 20
13.5800302942
 30
0.0
 40
0.25
 50
180.25
 51
270.0
  0
ARC
  5
2E3
  8
0
 10
11.8894436636
 20
14.0162857289
 30
0.0
 40
0.18
 50
270.90778917860001
 51
323.66394248538597
  0
ARC
  5
2E4
  8
0
 10
11.8794436636
 20
13.821542308
 30
0.0
 40
0.015
 50
90.0
 51
180.0
  0
ARC
  5
2E5
  8
0
 10
7.8750561140999986
 20
13.2500302942
 30
0.0
 40
0.01
 50
181.00000072500001
 51
270.00003987389999
  0
ARC
  5
2E6
  8
0
 10
7.8750561140999986
 20
13.3200302942
 30
0.0
 40
0.01
 50
89.999934329300004
 51
178.99999880600001
  0
ARC
  5
2E7
  8
0
 10
8.9438312129999993
 20
13.2500302942
 30
0.0
 40
0.01
 50
269.99996012610001
 51
358.99999927499999
  0
ARC
  5
2E8
  8
0
 10
8.9438312129999993
 20
13.3200302942
 30
0.0
 40
0.01
 50
1.0000011939999991
 51
90.000065670699996
  0
ARC
  5
2ED
  8
0
 10
13.2544436636
 20
11.608030294200001
 30
0.0
 40
0.3
 50
180.0
 51
270.0
  0
ARC
  5
2F4
  8
0
 10
13.384443663600001
 20
11.143030294200001
 30
0.0
 40
0.015
 50
270.00000514480001
 51
360.0
  0
ARC
  5
2F5
  8
0
 10
13.384443663600001
 20
11.293030294199999
 30
0.0
 40
0.015
 50
0.0
 51
90.000010060799994
  0
ARC
  5
2FA
  8
0
 10
12.409443663599999
 20
14.6690397727
 30
0.0
 40
0.375
 50
0.0
 51
180.0
  0
ARC
  5
2FD
  8
0
 10
12.929443663600001
 20
14.0162857289
 30
0.0
 40
0.18
 50
216.21045060166719
 51
266.94040728441911
  0
ARC
  5
2FE
  8
0
 10
12.939443663600001
 20
13.821542308
 30
0.0
 40
0.015
 50
0.0
 51
90.0
  0
LINE
  5
611
  8
0
 10
6.9094436635999994
 20
14.230030294300001
 30
0.0
 11
6.9094436636000012
 21
14.6500302943
 31
0.0
  0
LINE
  5
62D
  8
0
 10
9.9094436636000012
 20
14.6500302943
 30
0.0
 11
9.9094436636000012
 21
14.230030294300001
 31
0.0
  0
LINE
  5
6AE
  8
0
 10
9.8994436636000014
 20
14.220030294300001
 30
0.0
 11
8.6519423697000004
 21
14.220030294300001
 31
0.0
  0
LINE
  5
6AF
  8
0
 10
8.1669449085000014
 20
14.220030294300001
 30
0.0
 11
6.9194436636000001
 21
14.220030294300001
 31
0.0
  0
LINE
  5
6BA
  8
0
 10
9.8994436636000014
 20
14.6600302943
 30
0.0
 11
6.9194436636000001
 21
14.6600302943
 31
0.0
  0
ARC
  5
6D7
  8
0
 10
7.9359942366
 20
13.5800302943
 30
0.0
 40
0.25
 50
270.0
 51
359.75
  0
CIRCLE
  5
6DD
  8
0
 10
8.4094436635999994
 20
14.4400302943
 30
0.0
 40
0.22
  0
CIRCLE
  5
6DF
  8
0
 10
8.4094436635999994
 20
14.4400302943
 30
0.0
 40
0.19
  0
ARC
  5
6E2
  8
0
 10
6.9194436636000001
 20
14.230030294300001
 30
0.0
 40
0.01
 50
180.0
 51
270.0
  0
ARC
  5
6E3
  8
0
 10
6.9194436636000001
 20
14.6500302943
 30
0.0
 40
0.01
 50
90.0
 51
180.0
  0
ARC
  5
6E6
  8
0
 10
9.8994436636000014
 20
14.230030294300001
 30
0.0
 40
0.01
 50
270.0
 51
0.0
  0
ARC
  5
6E7
  8
0
 10
9.8994436636000014
 20
14.6500302943
 30
0.0
 40
0.01
 50
0.0
 51
90.0
  0
ARC
  5
70D
  8
0
 10
8.6519514794307089
 20
14.23504926671551
 30
0.0
 40
0.0150189751782551
 50
225.92049755783049
 51
269.96524735223909
  0
ARC
  5
70E
  8
0
 10
8.1669383293917939
 20
14.235043142611151
 30
0.0
 40
0.0150128497527371
 50
270.02510883353438
 51
314.0889775312873
  0
ARC
  5
70F
  8
0
 10
7.2155488912035581
 20
15.048028904951771
 30
0.0
 40
1.2663813623440341
 50
319.4214153285468
 51
322.8657173584989
  0
ARC
  5
710
  8
0
 10
9.6036298340371395
 20
15.048255094717771
 30
0.0
 40
1.2667498171610401
 50
217.1363107290293
 51
220.57778173496411
  0
ARC
  5
711
  8
0
 10
8.5790237690146345
 20
14.272330381123471
 30
0.0
 40
0.0185037569041314
 50
37.136310729028622
 51
133.79891925427279
  0
ARC
  5
712
  8
0
 10
8.2396339232638205
 20
14.27489366720984
 30
0.0
 40
0.0168761014906885
 50
46.120915541903692
 51
149.20640976004569
  0
LINE
  5
713
  8
0
 10
17.399443663500001
 20
11.293030294199999
 30
0.0
 11
17.399443663500001
 21
11.143030294200001
 31
0.0
  0
LINE
  5
714
  8
0
 10
16.953829689900001
 20
13.24985577
 30
0.0
 11
16.954443663500001
 21
13.2850302942
 31
0.0
  0
LINE
  5
715
  8
0
 10
16.954443663500001
 20
13.232030294199999
 30
0.0
 11
16.954443663500001
 21
11.6000302942
 31
0.0
  0
LINE
  5
716
  8
0
 10
16.8894436635
 20
13.2400302942
 30
0.0
 11
16.8894436635
 21
13.232030294199999
 31
0.0
  0
LINE
  5
717
  8
0
 10
16.953829689900001
 20
13.320204818500001
 30
0.0
 11
16.954443663500001
 21
13.2850302942
 31
0.0
  0
LINE
  5
718
  8
0
 10
16.630020369046211
 20
14.237859974644479
 30
0.0
 11
16.632895470400001
 21
13.5789394669
 31
0.0
  0
LINE
  5
719
  8
0
 10
15.8650576371
 20
13.320204818500001
 30
0.0
 11
15.864443663499999
 21
13.2850302942
 31
0.0
  0
LINE
  5
71A
  8
0
 10
16.188866959503081
 20
14.2378603105937
 30
0.0
 11
16.185991856699999
 21
13.5789394669
 31
0.0
  0
LINE
  5
71B
  8
0
 10
15.929443663500001
 20
13.2400302942
 30
0.0
 11
15.929443663500001
 21
13.232030294199999
 31
0.0
  0
LINE
  5
71C
  8
0
 10
15.864443663499999
 20
13.232030294199999
 30
0.0
 11
15.864443663499999
 21
11.6000302942
 31
0.0
  0
LINE
  5
71D
  8
0
 10
15.8650576371
 20
13.24985577
 30
0.0
 11
15.864443663499999
 21
13.2850302942
 31
0.0
  0
LINE
  5
71E
  8
0
 10
15.419443663499999
 20
11.293030294199999
 30
0.0
 11
15.419443663499999
 21
11.143030294200001
 31
0.0
  0
LINE
  5
71F
  8
0
 10
17.384435461500001
 20
11.1280302942
 30
0.0
 11
15.4344518656
 21
11.1280302942
 31
0.0
  0
LINE
  5
720
  8
0
 10
15.434451707299999
 20
11.3080302942
 30
0.0
 11
17.384435619800001
 21
11.3080302942
 31
0.0
  0
LINE
  5
721
  8
0
 10
15.874347479800001
 20
11.5900302942
 30
0.0
 11
16.944540830099999
 21
11.5900302942
 31
0.0
  0
LINE
  5
722
  8
0
 10
15.8759396321
 20
11.5900302942
 30
0.0
 11
16.9389981349
 21
11.5900302942
 31
0.0
  0
LINE
  5
723
  8
0
 10
15.864450662099999
 20
13.232030294199999
 30
0.0
 11
16.954436664999999
 21
13.232030294199999
 31
0.0
  0
LINE
  5
724
  8
0
 10
15.8750564176
 20
13.2400302942
 30
0.0
 11
16.943831212999999
 21
13.2400302942
 31
0.0
  0
LINE
  5
725
  8
0
 10
16.954443663500001
 20
13.2850302942
 30
0.0
 11
15.864443663499999
 21
13.2850302942
 31
0.0
  0
LINE
  5
726
  8
0
 10
15.8750565226
 20
13.3300302942
 30
0.0
 11
16.943830804400001
 21
13.3300302942
 31
0.0
  0
ARC
  5
727
  8
0
 10
17.2339436635
 20
11.5875302942
 30
0.0
 40
0.2795
 50
181.48451269989999
 51
270.0
  0
ARC
  5
728
  8
0
 10
15.584943663500001
 20
11.5875302942
 30
0.0
 40
0.2795
 50
270.0
 51
358.51548730010001
  0
ARC
  5
729
  8
0
 10
15.4344436635
 20
11.143030294200001
 30
0.0
 40
0.015
 50
180.0
 51
269.99999383080012
  0
ARC
  5
72A
  8
0
 10
17.384443663500001
 20
11.143030294200001
 30
0.0
 40
0.015
 50
270.00000616920011
 51
0.000000000000007
  0
ARC
  5
72B
  8
0
 10
17.384443663500001
 20
11.293030294199999
 30
0.0
 40
0.015
 50
0.000000000000007
 51
89.999998847600054
  0
ARC
  5
72C
  8
0
 10
15.4344436635
 20
11.293030294199999
 30
0.0
 40
0.015
 50
90.000001152399975
 51
180.0
  0
ARC
  5
72D
  8
0
 10
16.944540830099999
 20
11.5800302942
 30
0.0
 40
0.01
 50
1.484512947400038
 51
90.000007752700043
  0
ARC
  5
72E
  8
0
 10
15.874346496999999
 20
11.5800302942
 30
0.0
 40
0.01
 50
89.999992247299943
 51
178.51548705260001
  0
ARC
  5
72F
  8
0
 10
15.874443663499999
 20
11.6000302942
 30
0.0
 40
0.01
 50
180.0
 51
269.99999686820013
  0
ARC
  5
730
  8
0
 10
16.9444436635
 20
11.6000302942
 30
0.0
 40
0.01
 50
270.0000031318001
 51
0.000000000000007
  0
ARC
  5
731
  8
0
 10
15.935994236599999
 20
13.5800302942
 30
0.0
 40
0.25
 50
270.0
 51
359.75
  0
ARC
  5
732
  8
0
 10
16.943831212999999
 20
13.2500302942
 30
0.0
 40
0.01
 50
269.99996012610001
 51
358.99999927499999
  0
ARC
  5
733
  8
0
 10
16.943831212999999
 20
13.3200302942
 30
0.0
 40
0.01
 50
1.0000011940000191
 51
90.000065670699925
  0
ARC
  5
734
  8
0
 10
15.8750561141
 20
13.2500302942
 30
0.0
 40
0.01
 50
181.00000072500001
 51
270.00003987389999
  0
ARC
  5
735
  8
0
 10
15.8750561141
 20
13.3200302942
 30
0.0
 40
0.01
 50
89.999934329300075
 51
178.99999880600001
  0
LINE
  5
736
  8
0
 10
17.909443663499999
 20
14.230030294300001
 30
0.0
 11
17.909443663499999
 21
14.6500302943
 31
0.0
  0
LINE
  5
737
  8
0
 10
14.909443663499999
 20
14.6500302943
 30
0.0
 11
14.909443663499999
 21
14.230030294300001
 31
0.0
  0
LINE
  5
738
  8
0
 10
14.919443663499999
 20
14.220030294300001
 30
0.0
 11
16.166944957399998
 21
14.220030294300001
 31
0.0
  0
LINE
  5
739
  8
0
 10
16.651942418600001
 20
14.220030294300001
 30
0.0
 11
17.899443663500001
 21
14.220030294300001
 31
0.0
  0
LINE
  5
73A
  8
0
 10
14.919443663499999
 20
14.6600302943
 30
0.0
 11
17.899443663500001
 21
14.6600302943
 31
0.0
  0
ARC
  5
73B
  8
0
 10
16.882893090500001
 20
13.5800302943
 30
0.0
 40
0.25
 50
180.25
 51
270.0
  0
CIRCLE
  5
73C
  8
0
 10
16.409443663499999
 20
14.4400302943
 30
0.0
 40
0.22
  0
CIRCLE
  5
73D
  8
0
 10
16.409443663499999
 20
14.4400302943
 30
0.0
 40
0.19
  0
ARC
  5
73E
  8
0
 10
17.899443663500001
 20
14.230030294300001
 30
0.0
 40
0.01
 50
270.0
 51
0.000000000000007
  0
ARC
  5
73F
  8
0
 10
17.899443663500001
 20
14.6500302943
 30
0.0
 40
0.01
 50
0.000000000000007
 51
90.0
  0
ARC
  5
740
  8
0
 10
14.919443663499999
 20
14.230030294300001
 30
0.0
 40
0.01
 50
180.0
 51
270.0
  0
ARC
  5
741
  8
0
 10
14.919443663499999
 20
14.6500302943
 30
0.0
 40
0.01
 50
90.0
 51
180.0
  0
ARC
  5
742
  8
0
 10
16.16693584766929
 20
14.23504926671551
 30
0.0
 40
0.0150189751782551
 50
270.03475264776091
 51
314.0795024421696
  0
ARC
  5
743
  8
0
 10
16.65194899770821
 20
14.235043142611151
 30
0.0
 40
0.0150128497527371
 50
225.91102246871279
 51
269.97489116646562
  0
ARC
  5
744
  8
0
 10
17.60333843589644
 20
15.048028904951771
 30
0.0
 40
1.2663813623440341
 50
217.13428264150099
 51
220.5785846714532
  0
ARC
  5
745
  8
0
 10
15.215257493062859
 20
15.048255094717771
 30
0.0
 40
1.2667498171610401
 50
319.42221826503601
 51
322.86368927097089
  0
ARC
  5
746
  8
0
 10
16.239863558085361
 20
14.272330381123471
 30
0.0
 40
0.0185037569041314
 50
46.201080745727161
 51
142.86368927097129
  0
ARC
  5
747
  8
0
 10
16.57925340383618
 20
14.27489366720984
 30
0.0
 40
0.0168761014906885
 50
30.793590239954341
 51
133.87908445809629
  0
ARC
  5
74B
  8
0
 10
12.17412628413814
 20
13.479714876553709
 30
0.0
 40
0.1396951941832467
 50
139.22891224308
 51
220.54038451859989
  0
ARC
  5
74C
  8
0
 10
12.334780823291471
 20
13.32147977483425
 30
0.0
 40
0.3650015984452353
 50
100.48492831105921
 51
136.8859326582714
  0
ARC
  5
74D
  8
0
 10
12.409220142714441
 20
13.06424817561388
 30
0.0
 40
0.6320354125817415
 50
74.732355279085056
 51
102.87760566155561
  0
ARC
  5
74E
  8
0
 10
12.49006007098113
 20
13.32871642111378
 30
0.0
 40
0.3557116901644365
 50
42.918567279173693
 51
76.076607307410995
  0
ARC
  5
74F
  8
0
 10
12.639253327983511
 20
13.479102001455489
 30
0.0
 40
0.1443005605097734
 50
326.95809767257379
 51
39.527162372194368
  0
ARC
  5
750
  8
0
 10
12.50983028684122
 20
13.60056957748044
 30
0.0
 40
0.3205500979313469
 50
288.57788591130952
 51
321.3626844687746
  0
ARC
  5
751
  8
0
 10
12.409642732476019
 20
13.87484249910897
 30
0.0
 40
0.6124971275524223
 50
251.12323075181439
 51
289.28747335713848
  0
ARC
  5
752
  8
0
 10
12.32132430672165
 20
13.62046391410958
 30
0.0
 40
0.3432282316304929
 50
222.42465443597749
 51
251.33494976731379
  0
ARC
  5
75E
  8
0
 10
12.22987595863543
 20
13.472002282783389
 30
0.0
 40
0.1080060229330617
 50
139.22891224308
 51
220.54038451859989
  0
ARC
  5
75F
  8
0
 10
12.354086801689441
 20
13.34966203962006
 30
0.0
 40
0.2822027718474521
 50
100.48492831105921
 51
136.8859326582714
  0
ARC
  5
760
  8
0
 10
12.41163992574446
 20
13.15078217000865
 30
0.0
 40
0.4886612718850238
 50
74.732355279085041
 51
102.87760566155561
  0
ARC
  5
761
  8
0
 10
12.47414171184618
 20
13.35525708810111
 30
0.0
 40
0.2750202338031882
 50
42.918567279173693
 51
76.076607307410981
  0
ARC
  5
762
  8
0
 10
12.58949120852335
 20
13.4715284354023
 30
0.0
 40
0.1115666844431887
 50
326.95809767257379
 51
39.527162372194368
  0
ARC
  5
763
  8
0
 10
12.48942715097715
 20
13.565441686165711
 30
0.0
 40
0.2478348767170424
 50
288.57788591130952
 51
321.3626844687746
  0
ARC
  5
764
  8
0
 10
12.411966653086431
 20
13.777497137582809
 30
0.0
 40
0.473555151210742
 50
251.12323075181439
 51
289.28747335713848
  0
ARC
  5
765
  8
0
 10
12.343682830058659
 20
13.58082308987661
 30
0.0
 40
0.265368586754168
 50
222.42465443597749
 51
251.33494976731379
  0
ARC
  5
767
  8
0
 10
12.247004768179099
 20
13.474432004550231
 30
0.0
 40
0.0962190488031814
 50
139.22891224308
 51
220.54038451859989
  0
ARC
  5
768
  8
0
 10
12.35766016354631
 20
13.3654430657128
 30
0.0
 40
0.2514052599975066
 50
100.48492831105921
 51
136.8859326582714
  0
ARC
  5
769
  8
0
 10
12.40893236764976
 20
13.1882674660523
 30
0.0
 40
0.4353324147197809
 50
74.732355279085027
 51
102.87760566155561
  0
ARC
  5
76A
  8
0
 10
12.464613173626059
 20
13.37042751221156
 30
0.0
 40
0.2450065707407043
 50
42.918567279173701
 51
76.076607307410981
  0
ARC
  5
76B
  8
0
 10
12.56737428406044
 20
13.47400986934843
 30
0.0
 40
0.0993911261958176
 50
326.95809767257379
 51
39.527162372194361
  0
ARC
  5
76C
  8
0
 10
12.47823047360415
 20
13.55767412633223
 30
0.0
 40
0.2207880213564267
 50
288.57788591130952
 51
321.3626844687746
  0
ARC
  5
76D
  8
0
 10
12.40922343839941
 20
13.746587422783559
 30
0.0
 40
0.4218748637155531
 50
251.12323075181439
 51
289.28747335713848
  0
ARC
  5
76E
  8
0
 10
12.34839160400765
 20
13.571376918029671
 30
0.0
 40
0.2364082326737956
 50
222.42465443597749
 51
251.33494976731379
  0
ARC
  5
770
  8
0
 10
12.334780823291471
 20
14.050525094234249
 30
0.0
 40
0.3650015984452353
 50
100.4849283110606
 51
145.3698988252473
  0
ARC
  5
771
  8
0
 10
12.409220142714441
 20
13.793293495013881
 30
0.0
 40
0.6320354125817415
 50
74.732355279085056
 51
102.87760566155561
  0
ARC
  5
772
  8
0
 10
12.49006007098113
 20
14.057761740513779
 30
0.0
 40
0.3557116901644365
 50
34.147992717018042
 51
76.076607307410995
  0
ARC
  5
779
  8
0
 10
12.33021428927433
 20
13.90349257577618
 30
0.0
 40
0.3650015984452353
 50
100.4849283110606
 51
144.127885925572
  0
ARC
  5
77A
  8
0
 10
12.4046536086973
 20
13.64626097655581
 30
0.0
 40
0.6320354125817415
 50
74.732355279085056
 51
102.87760566155561
  0
ARC
  5
77B
  8
0
 10
12.485493536964
 20
13.910729222055711
 30
0.0
 40
0.3557116901644365
 50
32.81463848879676
 51
76.076607307410995
  0
ARC
  5
77C
  8
0
 10
12.33021428927433
 20
13.888292800176179
 30
0.0
 40
0.3650015984452353
 50
100.4849283110606
 51
144.127885925572
  0
ARC
  5
77D
  8
0
 10
12.4046536086973
 20
13.6310612009558
 30
0.0
 40
0.6320354125817415
 50
74.732355279085056
 51
102.87760566155561
  0
ARC
  5
77E
  8
0
 10
12.485493536964
 20
13.895529446455701
 30
0.0
 40
0.3557116901644365
 50
32.81463848879676
 51
76.076607307410995
  0
ATTDEF
  5
88B
  8
DEFPOINTS
 10
12.404443653403391
 20
11.12303029786011
 30
0.0
 40
0.001
  1
K-14410-3
  3

  2
MODELNUMBER
 70
     0
1001
ACDBATTR
1070
     0
1070
     1
  0
ATTDEF
  5
88C
  8
DEFPOINTS
 10
12.404443653403391
 20
11.121363631193439
 30
0.0
 40
0.001
  1
PURIST
  3

  2
TRADENAME
 70
     0
1001
ACDBATTR
1070
     0
1070
     1
  0
ATTDEF
  5
88D
  8
DEFPOINTS
 10
12.404443653403391
 20
11.11969696452678
 30
0.0
 40
0.001
  1
SINK FAUCET
  3

  2
PRODUCT
 70
     0
1001
ACDBATTR
1070
     0
1070
     1
  0
ATTDEF
  5
88E
  8
DEFPOINTS
 10
12.404443653403391
 20
11.11803029786013
 30
0.0
 40
0.001
  1
METAL
  3

  2
MATERIAL
 70
     0
1001
ACDBATTR
1070
     0
1070
     1
  0
ENDSEC
  0
EOF
