  0
SECTION
  2
HEADER
  9
$ACADVER
  1
AC1009
  9
$DWGCODEPAGE
  3
ansi_1252
  9
$INSBASE
 10
0.0
 20
0.0
 30
0.0
  9
$EXTMIN
 10
-1.624193031479024
 20
-0.0279357348138092
 30
-0.0015258207003583
  9
$EXTMAX
 10
32.72426323621812
 20
29.58458836511625
 30
0.0000000349246037
  9
$LIMMIN
 10
0.0
 20
0.0
  9
$LIMMAX
 10
136.6407843534166
 20
93.80340440538194
  9
$ORTHOMODE
 70
     1
  9
$REGENMODE
 70
     1
  9
$FILLMODE
 70
     1
  9
$QTEXTMODE
 70
     0
  9
$MIRRTEXT
 70
     1
  9
$DRAGMODE
 70
     2
  9
$LTSCALE
 40
4.0
  9
$OSMODE
 70
    37
  9
$ATTMODE
 70
     1
  9
$TEXTSIZE
 40
0.003
  9
$TRACEWID
 40
0.05
  9
$TEXTSTYLE
  7
STANDARD
  9
$CLAYER
  8
0
  9
$CELTYPE
  6
BYLAYER
  9
$CECOLOR
 62
   256
  9
$DIMSCALE
 40
1.0
  9
$DIMASZ
 40
0.18
  9
$DIMEXO
 40
0.0625
  9
$DIMDLI
 40
0.38
  9
$DIMRND
 40
0.0
  9
$DIMDLE
 40
0.0
  9
$DIMEXE
 40
0.18
  9
$DIMTP
 40
0.0
  9
$DIMTM
 40
0.0
  9
$DIMTXT
 40
0.18
  9
$DIMCEN
 40
0.09
  9
$DIMTSZ
 40
0.0
  9
$DIMTOL
 70
     0
  9
$DIMLIM
 70
     0
  9
$DIMTIH
 70
     1
  9
$DIMTOH
 70
     1
  9
$DIMSE1
 70
     0
  9
$DIMSE2
 70
     0
  9
$DIMTAD
 70
     0
  9
$DIMZIN
 70
     0
  9
$DIMBLK
  1

  9
$DIMASO
 70
     1
  9
$DIMSHO
 70
     1
  9
$DIMPOST
  1

  9
$DIMAPOST
  1

  9
$DIMALT
 70
     0
  9
$DIMALTD
 70
     2
  9
$DIMALTF
 40
25.4
  9
$DIMLFAC
 40
1.0
  9
$DIMTOFL
 70
     0
  9
$DIMTVP
 40
0.0
  9
$DIMTIX
 70
     0
  9
$DIMSOXD
 70
     0
  9
$DIMSAH
 70
     0
  9
$DIMBLK1
  1

  9
$DIMBLK2
  1

  9
$DIMSTYLE
  2
STANDARD
  9
$DIMCLRD
 70
     0
  9
$DIMCLRE
 70
     0
  9
$DIMCLRT
 70
     0
  9
$DIMTFAC
 40
1.0
  9
$DIMGAP
 40
0.09
  9
$LUNITS
 70
     2
  9
$LUPREC
 70
     4
  9
$SKETCHINC
 40
0.1
  9
$FILLETRAD
 40
0.0
  9
$AUNITS
 70
     0
  9
$AUPREC
 70
     0
  9
$MENU
  1
acad
  9
$ELEVATION
 40
0.0
  9
$PELEVATION
 40
0.0
  9
$THICKNESS
 40
0.0
  9
$LIMCHECK
 70
     0
  9
$CHAMFERA
 40
0.0
  9
$CHAMFERB
 40
0.0
  9
$SKPOLY
 70
     0
  9
$TDCREATE
 40
2444971.75
  9
$TDUPDATE
 40
2453719.556724896
  9
$TDINDWG
 40
0.0757365856
  9
$TDUSRTIMER
 40
0.0757365856
  9
$USRTIMER
 70
     1
  9
$ANGBASE
 50
0.0
  9
$ANGDIR
 70
     0
  9
$PDMODE
 70
     3
  9
$PDSIZE
 40
-2.0
  9
$PLINEWID
 40
0.0
  9
$COORDS
 70
     1
  9
$SPLFRAME
 70
     0
  9
$SPLINETYPE
 70
     6
  9
$SPLINESEGS
 70
     8
  9
$ATTDIA
 70
     0
  9
$ATTREQ
 70
     1
  9
$HANDLING
 70
     1
  9
$HANDSEED
  5
318
  9
$SURFTAB1
 70
     6
  9
$SURFTAB2
 70
     6
  9
$SURFTYPE
 70
     6
  9
$SURFU
 70
     6
  9
$SURFV
 70
     6
  9
$UCSNAME
  2

  9
$UCSORG
 10
0.0
 20
0.0
 30
0.0
  9
$UCSXDIR
 10
1.0
 20
0.0
 30
0.0
  9
$UCSYDIR
 10
0.0
 20
1.0
 30
0.0
  9
$PUCSNAME
  2

  9
$PUCSORG
 10
0.0
 20
0.0
 30
0.0
  9
$PUCSXDIR
 10
1.0
 20
0.0
 30
0.0
  9
$PUCSYDIR
 10
0.0
 20
1.0
 30
0.0
  9
$USERI1
 70
     0
  9
$USERI2
 70
     0
  9
$USERI3
 70
     0
  9
$USERI4
 70
     0
  9
$USERI5
 70
     0
  9
$USERR1
 40
0.0
  9
$USERR2
 40
0.0
  9
$USERR3
 40
0.0
  9
$USERR4
 40
0.0
  9
$USERR5
 40
0.0
  9
$WORLDVIEW
 70
     1
  9
$SHADEDGE
 70
     3
  9
$SHADEDIF
 70
    70
  9
$TILEMODE
 70
     1
  9
$MAXACTVP
 70
    16
  9
$PLIMCHECK
 70
     0
  9
$PEXTMIN
 10
1.000000000000000E+20
 20
1.000000000000000E+20
 30
1.000000000000000E+20
  9
$PEXTMAX
 10
-1.000000000000000E+20
 20
-1.000000000000000E+20
 30
-1.000000000000000E+20
  9
$PLIMMIN
 10
0.0
 20
0.0
  9
$PLIMMAX
 10
12.0
 20
9.0
  9
$UNITMODE
 70
     0
  9
$VISRETAIN
 70
     0
  9
$PLINEGEN
 70
     1
  9
$PSLTSCALE
 70
     0
  0
ENDSEC
  0
SECTION
  2
TABLES
  0
TABLE
  2
VPORT
 70
     1
  0
VPORT
  2
*ACTIVE
 70
     0
 10
0.0
 20
0.0
 11
1.0
 21
1.0
 12
19.22078694113022
 22
23.07828615990283
 13
0.0
 23
0.0
 14
1.0
 24
1.0
 15
0.0
 25
0.0
 16
0.0
 26
0.0
 36
1.0
 17
0.0
 27
0.0
 37
0.0
 40
52.69526557960802
 41
1.927450980392157
 42
50.0
 43
0.0
 44
0.0
 50
0.0
 51
0.0
 71
     0
 72
   100
 73
     1
 74
     1
 75
     0
 76
     0
 77
     0
 78
     0
  0
ENDTAB
  0
TABLE
  2
LTYPE
 70
    10
  0
LTYPE
  2
CONTINUOUS
 70
     0
  3
Solid line
 72
    65
 73
     0
 40
0.0
  0
LTYPE
  2
AMCONSTR
 70
     0
  3
_______________________
 72
    65
 73
     2
 40
9999.0
 49
9999.0
 49
0.0
  0
LTYPE
  2
HIDDEN
 70
     0
  3
Hidden __ __ __ __ __ __ __ __ __ __ __ __ __ _
 72
    65
 73
     2
 40
0.375
 49
0.25
 49
-0.125
  0
LTYPE
  2
CENTER
 70
     0
  3
Center ____ _ ____ _ ____ _ ____ _ ____ _ ____
 72
    65
 73
     4
 40
2.0
 49
1.25
 49
-0.25
 49
0.25
 49
-0.25
  0
LTYPE
  2
PHANTOM2
 70
     0
  3
Phantom (.5x) ___ _ _ ___ _ _ ___ _ _ ___ _ _
 72
    65
 73
     6
 40
1.25
 49
0.625
 49
-0.125
 49
0.125
 49
-0.125
 49
0.125
 49
-0.125
  0
LTYPE
  2
CENTER2
 70
     0
  3
Center (.5x) ___ _ ___ _ ___ _ ___ _ ___ _ ___
 72
    65
 73
     4
 40
1.125
 49
0.75
 49
-0.125
 49
0.125
 49
-0.125
  0
LTYPE
  2
HIDDEN2
 70
     0
  3
Hidden (.5x) _ _ _ _ _ _ _ _ _ _ _ _ _ _ _ _ _
 72
    65
 73
     2
 40
0.1875
 49
0.125
 49
-0.0625
  0
LTYPE
  2
AMZIGZAG2
 70
     0
  3
/\/-/\/-/\/-/\/-/\/-/\/
 72
    65
 73
     2
 40
0.4401
 49
0.0001
 49
-0.44
  0
LTYPE
  2
ACANSTGB
 70
     0
  3
__ . . __ . .
 72
    65
 73
     6
 40
0.35433070866
 49
0.15748031496
 49
-0.03937007874
 49
0.03937007874
 49
-0.03937007874
 49
0.03937007874
 49
-0.03937007874
  0
LTYPE
  2
ACANSTGL
 70
     0
  3
_ _ _ _ _
 72
    65
 73
     2
 40
0.11811023622
 49
0.07874015748
 49
-0.03937007874
  0
ENDTAB
  0
TABLE
  2
LAYER
 70
     1
  0
LAYER
  2
0
 70
     0
 62
     7
  6
CONTINUOUS
  0
ENDTAB
  0
TABLE
  2
STYLE
 70
     4
  0
STYLE
  2
STANDARD
 70
     0
 40
0.0
 41
1.0
 50
0.0
 71
     0
 42
0.003
  3
txt
  4

  0
STYLE
  2

 70
     1
 40
0.0
 41
1.0
 50
0.0
 71
     0
 42
0.2
  3
ltypeshp.shx
  4

  0
STYLE
  2
ACANSTS
 70
     0
 40
1.0
 41
1.0
 50
0.0
 71
     0
 42
0.2
  3
romans.shx
  4

  0
STYLE
  2
ACANSGDT
 70
     0
 40
0.0
 41
1.0
 50
0.0
 71
     0
 42
0.2
  3
amgdtans.shx
  4

  0
ENDTAB
  0
TABLE
  2
VIEW
 70
     0
  0
ENDTAB
  0
TABLE
  2
UCS
 70
     0
  0
ENDTAB
  0
TABLE
  2
APPID
 70
     1
  0
APPID
  2
ACAD
 70
     0
  0
ENDTAB
  0
TABLE
  2
DIMSTYLE
 70
     7
  0
DIMSTYLE
  2
STANDARD
 70
     0
  3

  4

  5

  6

  7

 40
1.0
 41
0.18
 42
0.0625
 43
0.38
 44
0.18
 45
0.0
 46
0.0
 47
0.0
 48
0.0
140
0.18
141
0.09
142
0.0
143
25.4
144
1.0
145
0.0
146
1.0
147
0.09
 71
     0
 72
     0
 73
     1
 74
     1
 75
     0
 76
     0
 77
     0
 78
     0
170
     0
171
     2
172
     0
173
     0
174
     0
175
     0
176
     0
177
     0
178
     0
  0
DIMSTYLE
  2
AM_ANSI
 70
     0
  3

  4
mm
  5

  6

  7

 40
1.0
 41
0.1
 42
0.05
 43
0.5
 44
0.1
 45
0.0
 46
0.0
 47
0.1
 48
0.1
140
0.12
141
0.0
142
0.0
143
25.4
144
1.0
145
0.0
146
0.71
147
0.06
 71
     0
 72
     0
 73
     1
 74
     1
 75
     0
 76
     0
 77
     0
 78
     7
170
     0
171
     2
172
     0
173
     0
174
     0
175
     0
176
   256
177
   256
178
     2
  0
DIMSTYLE
  2
AM_ANSI$3
 70
     0
  3

  4
mm
  5

  6

  7

 40
1.0
 41
0.1
 42
0.05
 43
0.5
 44
0.1
 45
0.0
 46
0.0
 47
0.1
 48
0.1
140
0.12
141
0.0
142
0.0
143
25.4
144
1.0
145
0.0
146
0.71
147
0.06
 71
     0
 72
     0
 73
     1
 74
     1
 75
     0
 76
     0
 77
     0
 78
     7
170
     0
171
     2
172
     0
173
     0
174
     0
175
     0
176
   256
177
   256
178
     2
  0
DIMSTYLE
  2
AM_ANSI$4
 70
     0
  3

  4
mm
  5

  6

  7

 40
1.0
 41
0.1
 42
0.05
 43
0.5
 44
0.1
 45
0.0
 46
0.0
 47
0.1
 48
0.1
140
0.12
141
0.0
142
0.0
143
25.4
144
1.0
145
0.0
146
0.71
147
0.06
 71
     0
 72
     0
 73
     1
 74
     1
 75
     0
 76
     0
 77
     0
 78
     7
170
     0
171
     2
172
     0
173
     0
174
     0
175
     0
176
   256
177
   256
178
     2
  0
DIMSTYLE
  2
AM_ANSI$7
 70
     0
  3

  4
mm
  5

  6

  7

 40
1.0
 41
0.1
 42
0.05
 43
0.5
 44
0.1
 45
0.0
 46
0.0
 47
0.1
 48
0.1
140
0.24
141
0.0
142
0.0
143
25.4
144
1.0
145
0.0
146
0.71
147
0.06
 71
     0
 72
     0
 73
     1
 74
     1
 75
     0
 76
     0
 77
     0
 78
     7
170
     0
171
     2
172
     0
173
     0
174
     0
175
     0
176
   256
177
   256
178
     2
  0
DIMSTYLE
  2
AM_ANSI$SF
 70
     0
  3

  4
mm
  5

  6

  7

 40
1.0
 41
0.1
 42
0.05
 43
0.5
 44
0.1
 45
0.0
 46
0.0
 47
0.1
 48
0.1
140
0.12
141
0.0
142
0.0
143
25.4
144
1.0
145
0.0
146
0.71
147
0.06
 71
     0
 72
     0
 73
     1
 74
     1
 75
     1
 76
     1
 77
     0
 78
     7
170
     0
171
     2
172
     0
173
     0
174
     0
175
     0
176
   256
177
   256
178
     2
  0
DIMSTYLE
  2
AM_ANSI$SH
 70
     0
  3

  4
mm
  5

  6
GENAXEH
  7

 40
1.0
 41
0.1
 42
0.05
 43
0.5
 44
0.1
 45
0.0
 46
0.0
 47
0.1
 48
0.1
140
0.12
141
0.0
142
0.0
143
25.4
144
1.0
145
0.0
146
0.71
147
0.06
 71
     0
 72
     0
 73
     1
 74
     1
 75
     1
 76
     1
 77
     0
 78
     7
170
     0
171
     2
172
     0
173
     1
174
     0
175
     0
176
   256
177
   256
178
     2
  0
ENDTAB
  0
ENDSEC
  0
SECTION
  2
BLOCKS
  0
BLOCK
  8
0
  2
$MODEL_SPACE
 70
     0
 10
0.0
 20
0.0
 30
0.0
  3
$MODEL_SPACE
  1

  0
ENDBLK
  5
5A
  8
0
  0
BLOCK
 67
     1
  8
0
  2
$PAPER_SPACE
 70
     0
 10
0.0
 20
0.0
 30
0.0
  3
$PAPER_SPACE
  1

  0
ENDBLK
  5
5F
 67
     1
  8
0
  0
BLOCK
  8
0
  2
GENAXEH
 70
     0
 10
0.0
 20
0.0
 30
0.0
  3
GENAXEH
  1

  0
LINE
  5
9B
  8
0
 10
-1.0
 20
0.0
 30
0.0
 11
1.0
 21
0.0
 31
0.0
  0
ENDBLK
  5
9D
  8
0
  0
ENDSEC
  0
SECTION
  2
ENTITIES
  0
CIRCLE
  5
3
  8
0
 10
0.0
 20
7.613695706786331
 30
0.0
 40
0.3123993893769124
  0
POLYLINE
  5
9
  8
0
 66
     1
 10
0.0
 20
0.0
 30
0.0
  0
VERTEX
  5
A
  8
0
 10
0.3172246762344031
 20
7.607990336162388
 30
0.0
  0
VERTEX
  5
B
  8
0
 10
0.3626248594972594
 20
7.557066868572107
 30
0.0
  0
VERTEX
  5
C
  8
0
 10
0.3626248594972594
 20
6.191723121917022
 30
0.0
  0
VERTEX
  5
D
  8
0
 10
0.4191930022793144
 20
6.033125957657873
 30
0.0
  0
VERTEX
  5
E
  8
0
 10
0.5437703768074158
 20
5.897228885030145
 30
0.0
  0
VERTEX
  5
F
  8
0
 10
0.7194229575062252
 20
5.897228885030145
 30
0.0
  0
VERTEX
  5
10
  8
0
 10
0.7816964709122374
 20
5.840600046815922
 30
0.0
  0
VERTEX
  5
11
  8
0
 10
0.7816964709122374
 20
0.6288653727091855
 30
0.0
  0
VERTEX
  5
12
  8
0
 10
0.9743741203346161
 20
0.3682998824051111
 30
0.0
  0
VERTEX
  5
13
  8
0
 10
1.235061001503041
 20
0.2378047032404709
 30
0.0
  0
VERTEX
  5
14
  8
0
 10
1.574834030788438
 20
0.2378047032404709
 30
0.0
  0
VERTEX
  5
15
  8
0
 10
1.574834030788438
 20
0.0
 30
0.0
  0
VERTEX
  5
16
  8
0
 10
-1.574834030788423
 20
0.0
 30
0.0
  0
VERTEX
  5
17
  8
0
 10
-1.574834030788423
 20
0.2378047032404709
 30
0.0
  0
VERTEX
  5
18
  8
0
 10
-1.235061001503027
 20
0.2378047032404709
 30
0.0
  0
VERTEX
  5
19
  8
0
 10
-0.9743741203346161
 20
0.3682998824051111
 30
0.0
  0
VERTEX
  5
1A
  8
0
 10
-0.7816964709122232
 20
0.6288653727091855
 30
0.0
  0
VERTEX
  5
1B
  8
0
 10
-0.7816964709122232
 20
5.840600046815922
 30
0.0
  0
VERTEX
  5
1C
  8
0
 10
-0.7194229575062252
 20
5.897228885030145
 30
0.0
  0
VERTEX
  5
1D
  8
0
 10
-0.5437703768074016
 20
5.897228885030145
 30
0.0
  0
VERTEX
  5
1E
  8
0
 10
-0.4191930022793144
 20
6.033125957657873
 30
0.0
  0
VERTEX
  5
1F
  8
0
 10
-0.3626248594972452
 20
6.191723121917022
 30
0.0
  0
VERTEX
  5
20
  8
0
 10
-0.3626248594972452
 20
7.557066868572107
 30
0.0
  0
VERTEX
  5
21
  8
0
 10
-0.3172246762343889
 20
7.607990336162388
 30
0.0
  0
SEQEND
  5
22
  8
0
  0
LINE
  5
23
  8
0
 10
-1.268959400369752
 20
0.7024282364987329
 30
0.0
 11
-1.268959400369752
 21
0.3610164305447512
 31
0.0
  0
LINE
  5
24
  8
0
 10
-0.9970742119660372
 20
0.7024282364987329
 30
0.0
 11
-0.9970742119660372
 21
0.5931764585934616
 31
0.0
  0
ARC
  5
25
  8
0
 10
2.596466096440764
 20
15.25178713565471
 30
0.0
 40
2.131131266335776
 50
104.2099351475968
 51
165.4195057283073
  0
ARC
  5
26
  8
0
 10
2.698795338992852
 20
15.1456602653858
 30
0.0
 40
3.332042230177625
 50
104.5126748553553
 51
165.4851431548318
  0
LINE
  5
27
  8
0
 10
-1.608823472803408
 20
0.0
 30
0.0
 11
-1.608823472803408
 21
0.2436314647287503
 31
0.0
  0
LINE
  5
28
  8
0
 10
-1.608823472803408
 20
0.2436314647287503
 30
0.0
 11
-1.133001632309856
 21
0.4079339996118563
 31
0.0
  0
LINE
  5
29
  8
0
 10
-1.133001632309856
 20
0.4079339996118563
 30
0.0
 11
-0.9459686580792379
 21
0.662854814724156
 31
0.0
  0
LINE
  5
2A
  8
0
 10
-0.9459686580792379
 20
0.662854814724156
 30
0.0
 11
-0.9459686580792379
 21
5.778205142545573
 31
0.0
  0
LINE
  5
2B
  8
0
 10
-0.9459686580792379
 20
5.778205142545573
 30
0.0
 11
-0.877989774049297
 21
5.86888411820695
 31
0.0
  0
LINE
  5
2C
  8
0
 10
-0.877989774049297
 20
5.86888411820695
 30
0.0
 11
-0.52689704666426
 21
5.965147073627932
 31
0.0
  0
LINE
  5
2D
  8
0
 10
-0.52689704666426
 20
5.965147073627932
 30
0.0
 11
-0.52689704666426
 21
15.98077346537778
 31
0.0
  0
LINE
  5
2E
  8
0
 10
1.863804983347876
 20
18.37138445224167
 30
0.0
 11
6.191844512781373
 21
18.37138445224167
 31
0.0
  0
LINE
  5
2F
  8
0
 10
8.582394804213095
 20
15.98077346537778
 30
0.0
 11
8.582394804213095
 21
14.10003445645458
 31
0.0
  0
LINE
  5
30
  8
0
 10
8.582394804213095
 20
14.10003445645458
 30
0.0
 11
7.528722101748912
 21
14.10003445645458
 31
0.0
  0
LINE
  5
31
  8
0
 10
7.528722101748912
 20
14.10003445645458
 30
0.0
 11
7.528722101748912
 21
15.77116179038008
 31
0.0
  0
LINE
  5
32
  8
0
 10
5.982172142351502
 20
17.31771174977749
 30
0.0
 11
2.073325615197334
 21
17.31771174977749
 31
0.0
  0
LINE
  5
33
  8
0
 10
0.5339680645120239
 20
15.78827790225191
 30
0.0
 11
0.5269001125061266
 21
5.96514707362762
 31
0.0
  0
LINE
  5
34
  8
0
 10
0.5269001125061266
 20
5.965147073627932
 30
0.0
 11
0.8724057942897048
 21
5.86888411820695
 31
0.0
  0
LINE
  5
35
  8
0
 10
0.8724057942897048
 20
5.86888411820695
 30
0.0
 11
0.9459686580792521
 21
5.778205142545573
 31
0.0
  0
LINE
  5
36
  8
0
 10
0.9459686580792521
 20
5.778205142545573
 30
0.0
 11
0.9459686580792521
 21
0.662854814724156
 31
0.0
  0
LINE
  5
37
  8
0
 10
0.9459686580792521
 20
0.662854814724156
 30
0.0
 11
1.133062327742024
 21
0.4079339996118563
 31
0.0
  0
LINE
  5
38
  8
0
 10
1.133062327742024
 20
0.4079339996118563
 30
0.0
 11
1.59756447013595
 21
0.2436314647287503
 31
0.0
  0
LINE
  5
39
  8
0
 10
1.59756447013595
 20
0.2436314647287503
 30
0.0
 11
1.59756447013595
 21
0.0
 31
0.0
  0
ARC
  5
3A
  8
0
 10
5.356578647734523
 20
15.14558950163097
 30
0.0
 40
3.332179786370781
 50
14.51550137684281
 51
75.48304391711541
  0
ARC
  5
3B
  8
0
 10
5.45405979084947
 20
15.24304943887803
 30
0.0
 40
2.140823757359682
 50
14.28152344072185
 51
75.71847655927823
  0
LINE
  5
3C
  8
0
 10
-0.5437703768074016
 20
5.897228885030145
 30
0.0
 11
0.5437703768074158
 21
5.897228885030145
 31
0.0
  0
LINE
  5
3D
  8
0
 10
-0.3626248594972452
 20
6.191723121917022
 30
0.0
 11
0.3626248594972594
 21
6.191723121917022
 31
0.0
  0
LINE
  5
3E
  8
0
 10
-0.9459686580792379
 20
5.778205142545573
 30
0.0
 11
-0.7816964709122232
 21
5.778205142545573
 31
0.0
  0
LINE
  5
3F
  8
0
 10
-0.877989774049297
 20
5.86888411820695
 30
0.0
 11
-0.7505930869388067
 21
5.86888411820695
 31
0.0
  0
LINE
  5
40
  8
0
 10
-0.52689704666426
 20
5.965147073627932
 30
0.0
 11
-0.4815095094126178
 21
5.965147073627918
 31
0.0
  0
LINE
  5
41
  8
0
 10
0.5269126862388305
 20
5.982622209465148
 30
0.0
 11
0.5269001125061266
 21
5.965147073627932
 31
0.0
  0
LINE
  5
42
  8
0
 10
0.5269001125061266
 20
5.965147073627932
 30
0.0
 11
0.5268970466642742
 21
5.982627358092771
 31
0.0
  0
LINE
  5
43
  8
0
 10
0.5269001125061266
 20
5.96514707362762
 30
0.0
 11
0.4815095094129163
 21
5.96514707362762
 31
0.0
  0
LINE
  5
44
  8
0
 10
0.7816964709122374
 20
5.778205142545573
 30
0.0
 11
0.9459686580792521
 21
5.778205142545573
 31
0.0
  0
LINE
  5
45
  8
0
 10
0.7505930869388209
 20
5.86888411820695
 30
0.0
 11
0.8724057942897048
 21
5.86888411820695
 31
0.0
  0
LINE
  5
46
  8
0
 10
-0.7816964709122232
 20
5.840600046815922
 30
0.0
 11
0.7816964709122374
 21
5.840600046815922
 31
0.0
  0
LINE
  5
47
  8
0
 10
-0.7816964709122232
 20
0.6288653727091855
 30
0.0
 11
0.7816964709122374
 21
0.6288653727091855
 31
0.0
  0
LINE
  5
48
  8
0
 10
-1.235061001503027
 20
0.2378047032404709
 30
0.0
 11
1.235061001503041
 21
0.2378047032404709
 31
0.0
  0
LINE
  5
49
  8
0
 10
-0.9743741203346161
 20
0.3682998824051111
 30
0.0
 11
0.9743741203346161
 21
0.3682998824051111
 31
0.0
  0
LINE
  5
4A
  8
0
 10
-1.133001632309856
 20
0.4079339996118563
 30
0.0
 11
-0.9450662924583355
 21
0.4079339996118563
 31
0.0
  0
LINE
  5
4B
  8
0
 10
0.9450662924583497
 20
0.4079339996118563
 30
0.0
 11
1.133062327742024
 21
0.4079339996118563
 31
0.0
  0
LINE
  5
4C
  8
0
 10
-1.608823472803408
 20
0.0
 30
0.0
 11
1.59756447013595
 21
0.0
 31
0.0
  0
POLYLINE
  5
4D
  8
0
 66
     1
 10
0.0
 20
0.0
 30
0.0
  0
VERTEX
  5
4E
  8
0
 10
-0.9459686580792379
 20
1.387861751989988
 30
0.0
  0
VERTEX
  5
4F
  8
0
 10
-1.48986042575099
 20
1.387861751989988
 30
0.0
  0
VERTEX
  5
50
  8
0
 10
-1.48986042575099
 20
0.7024282364987329
 30
0.0
  0
VERTEX
  5
51
  8
0
 10
-0.9459686580792379
 20
0.7024282364987329
 30
0.0
  0
SEQEND
  5
52
  8
0
  0
ATTDEF
  5
53
  8
0
 10
-0.0018
 20
-0.0065
 30
0.0
 40
0.003
  1
6630202
  3

  2
MODELNUMBER
 70
     2
  0
ATTDEF
  5
55
  8
0
 10
0.0
 20
-0.0098
 30
0.0
 40
0.003
  1
14408-4
  3

  2
TRADENAME
 70
     2
  0
ATTDEF
  5
56
  8
0
 10
0.0
 20
-0.0132
 30
0.0
 40
0.003
  1
Purist(R) widespread lavatory faucet with high gooseneck spout and high lever handles
  3

  2
PRODUCT
 70
     2
  0
ATTDEF
  5
57
  8
0
 10
0.0
 20
-0.0165
 30
0.0
 40
0.003
  1
http://www.us.kohler.com/onlinecatalog/pdf/1015383_1.pdf
  3

  2
MATERAIL
 70
     2
  0
ENDSEC
  0
EOF
