  0
SECTION
  2
HEADER
  9
$ACADVER
  1
AC1009
  9
$INSBASE
 10
0.0
 20
0.0
 30
0.0
  9
$EXTMIN
 10
1.0000000000000000E+020
 20
1.0000000000000000E+020
 30
1.0000000000000000E+020
  9
$EXTMAX
 10
-1.0000000000000000E+020
 20
-1.0000000000000000E+020
 30
-1.0000000000000000E+020
  9
$LIMMIN
 10
0.0
 20
0.0
  9
$LIMMAX
 10
12.0
 20
9.0
  9
$ORTHOMODE
 70
     0
  9
$REGENMODE
 70
     1
  9
$FILLMODE
 70
     1
  9
$QTEXTMODE
 70
     0
  9
$MIRRTEXT
 70
     1
  9
$DRAGMODE
 70
     2
  9
$LTSCALE
 40
1.0
  9
$OSMODE
 70
     0
  9
$ATTMODE
 70
     1
  9
$TEXTSIZE
 40
0.2
  9
$TRACEWID
 40
0.05
  9
$TEXTSTYLE
  7
STANDARD
  9
$CLAYER
  8
0
  9
$CELTYPE
  6
BYLAYER
  9
$CECOLOR
 62
   256
  9
$DIMSCALE
 40
1.0
  9
$DIMASZ
 40
0.18
  9
$DIMEXO
 40
0.0625
  9
$DIMDLI
 40
0.38
  9
$DIMRND
 40
0.0
  9
$DIMDLE
 40
0.0
  9
$DIMEXE
 40
0.18
  9
$DIMTP
 40
0.0
  9
$DIMTM
 40
0.0
  9
$DIMTXT
 40
0.18
  9
$DIMCEN
 40
0.09
  9
$DIMTSZ
 40
0.0
  9
$DIMTOL
 70
     0
  9
$DIMLIM
 70
     0
  9
$DIMTIH
 70
     1
  9
$DIMTOH
 70
     1
  9
$DIMSE1
 70
     0
  9
$DIMSE2
 70
     0
  9
$DIMTAD
 70
     0
  9
$DIMZIN
 70
     0
  9
$DIMBLK
  1

  9
$DIMASO
 70
     1
  9
$DIMSHO
 70
     1
  9
$DIMPOST
  1

  9
$DIMAPOST
  1

  9
$DIMALT
 70
     0
  9
$DIMALTD
 70
     2
  9
$DIMALTF
 40
25.399999999999999
  9
$DIMLFAC
 40
1.0
  9
$DIMTOFL
 70
     0
  9
$DIMTVP
 40
0.0
  9
$DIMTIX
 70
     0
  9
$DIMSOXD
 70
     0
  9
$DIMSAH
 70
     0
  9
$DIMBLK1
  1

  9
$DIMBLK2
  1

  9
$DIMSTYLE
  2
STANDARD
  9
$DIMCLRD
 70
     0
  9
$DIMCLRE
 70
     0
  9
$DIMCLRT
 70
     0
  9
$DIMTFAC
 40
1.0
  9
$DIMGAP
 40
0.09
  9
$LUNITS
 70
     2
  9
$LUPREC
 70
     4
  9
$SKETCHINC
 40
0.1
  9
$FILLETRAD
 40
0.5
  9
$AUNITS
 70
     0
  9
$AUPREC
 70
     0
  9
$MENU
  1
.
  9
$ELEVATION
 40
0.0
  9
$PELEVATION
 40
0.0
  9
$THICKNESS
 40
0.0
  9
$LIMCHECK
 70
     0
  9
$BLIPMODE
 70
     0
  9
$CHAMFERA
 40
0.5
  9
$CHAMFERB
 40
0.5
  9
$SKPOLY
 70
     0
  9
$TDCREATE
 40
2451380.5970990621
  9
$TDUPDATE
 40
2451380.632847222
  9
$TDINDWG
 40
0.0075613079
  9
$TDUSRTIMER
 40
0.0075522685
  9
$USRTIMER
 70
     1
  9
$ANGBASE
 50
0.0
  9
$ANGDIR
 70
     0
  9
$PDMODE
 70
     0
  9
$PDSIZE
 40
0.0
  9
$PLINEWID
 40
0.0
  9
$COORDS
 70
     0
  9
$SPLFRAME
 70
     0
  9
$SPLINETYPE
 70
     6
  9
$SPLINESEGS
 70
     8
  9
$ATTDIA
 70
     0
  9
$ATTREQ
 70
     1
  9
$HANDLING
 70
     1
  9
$HANDSEED
  5
759
  9
$SURFTAB1
 70
     6
  9
$SURFTAB2
 70
     6
  9
$SURFTYPE
 70
     6
  9
$SURFU
 70
     6
  9
$SURFV
 70
     6
  9
$UCSNAME
  2

  9
$UCSORG
 10
0.0
 20
0.0
 30
0.0
  9
$UCSXDIR
 10
1.0
 20
0.0
 30
0.0
  9
$UCSYDIR
 10
0.0
 20
1.0
 30
0.0
  9
$PUCSNAME
  2

  9
$PUCSORG
 10
0.0
 20
0.0
 30
0.0
  9
$PUCSXDIR
 10
1.0
 20
0.0
 30
0.0
  9
$PUCSYDIR
 10
0.0
 20
1.0
 30
0.0
  9
$USERI1
 70
     0
  9
$USERI2
 70
     0
  9
$USERI3
 70
     0
  9
$USERI4
 70
     0
  9
$USERI5
 70
     0
  9
$USERR1
 40
0.0
  9
$USERR2
 40
0.0
  9
$USERR3
 40
0.0
  9
$USERR4
 40
0.0
  9
$USERR5
 40
0.0
  9
$WORLDVIEW
 70
     1
  9
$SHADEDGE
 70
     3
  9
$SHADEDIF
 70
    70
  9
$TILEMODE
 70
     1
  9
$MAXACTVP
 70
    64
  9
$PLIMCHECK
 70
     0
  9
$PEXTMIN
 10
1.0000000000000000E+020
 20
1.0000000000000000E+020
 30
1.0000000000000000E+020
  9
$PEXTMAX
 10
-1.0000000000000000E+020
 20
-1.0000000000000000E+020
 30
-1.0000000000000000E+020
  9
$PLIMMIN
 10
0.0
 20
0.0
  9
$PLIMMAX
 10
12.0
 20
9.0
  9
$UNITMODE
 70
     0
  9
$VISRETAIN
 70
     1
  9
$PLINEGEN
 70
     0
  9
$PSLTSCALE
 70
     1
  0
ENDSEC
  0
SECTION
  2
TABLES
  0
TABLE
  2
VPORT
 70
     1
  0
VPORT
  2
*ACTIVE
 70
     0
 10
0.0
 20
0.0
 11
1.0
 21
1.0
 12
0.1458373665809631
 22
1.1081113815307611
 13
0.0
 23
0.0
 14
0.5
 24
0.5
 15
0.5
 25
0.5
 16
-1.0
 26
-1.0
 36
1.0
 17
0.0
 27
0.0
 37
0.0
 40
21.808754920690639
 41
0.8236835365439835
 42
50.0
 43
0.0
 44
0.0
 50
0.0
 51
0.0
 71
     0
 72
   100
 73
     1
 74
     3
 75
     0
 76
     0
 77
     0
 78
     0
  0
ENDTAB
  0
TABLE
  2
LTYPE
 70
     1
  0
LTYPE
  2
CONTINUOUS
 70
     0
  3
Solid line
 72
    65
 73
     0
 40
0.0
  0
ENDTAB
  0
TABLE
  2
LAYER
 70
     2
  0
LAYER
  2
0
 70
     0
 62
   151
  6
CONTINUOUS
  0
LAYER
  2
ASHADE
 70
     4
 62
     7
  6
CONTINUOUS
  0
ENDTAB
  0
TABLE
  2
STYLE
 70
     2
  0
STYLE
  2
STANDARD
 70
     0
 40
0.0
 41
1.0
 50
0.0
 71
     0
 42
0.2
  3
txt
  4

  0
STYLE
  2
ASHADE
 70
     0
 40
0.2
 41
1.0
 50
0.0
 71
     0
 42
0.2
  3
simplex
  4

  0
ENDTAB
  0
TABLE
  2
VIEW
 70
     0
  0
ENDTAB
  0
TABLE
  2
UCS
 70
     0
  0
ENDTAB
  0
TABLE
  2
APPID
 70
     6
  0
APPID
  2
ACAD
 70
     0
  0
APPID
  2
AVE_RENDER
 70
     0
  0
APPID
  2
AVE_ENTITY_MATERIAL
 70
     0
  0
APPID
  2
AVE_FINISH
 70
     0
  0
APPID
  2
AVE_MATERIAL
 70
     0
  0
APPID
  2
AVE_GLOBAL
 70
     0
  0
ENDTAB
  0
TABLE
  2
DIMSTYLE
 70
     1
  0
DIMSTYLE
  2
STANDARD
 70
     0
  3

  4

  5

  6

  7

 40
1.0
 41
0.18
 42
0.0625
 43
0.38
 44
0.18
 45
0.0
 46
0.0
 47
0.0
 48
0.0
140
0.18
141
0.09
142
0.0
143
25.399999999999999
144
1.0
145
0.0
146
1.0
147
0.09
 71
     0
 72
     0
 73
     1
 74
     1
 75
     0
 76
     0
 77
     0
 78
     0
170
     0
171
     2
172
     0
173
     0
174
     0
175
     0
176
     0
177
     0
178
     0
  0
ENDTAB
  0
ENDSEC
  0
SECTION
  2
BLOCKS
  0
BLOCK
  8
0
  2
$MODEL_SPACE
 70
     0
 10
0.0
 20
0.0
 30
0.0
  3
$MODEL_SPACE
  1

  0
ENDBLK
  5
21
  8
0
  0
BLOCK
 67
     1
  8
0
  2
$PAPER_SPACE
 70
     0
 10
0.0
 20
0.0
 30
0.0
  3
$PAPER_SPACE
  1

  0
ENDBLK
  5
1D
 67
     1
  8
0
  0
BLOCK
  8
0
  2
DIRECT
 70
     2
 10
0.0
 20
0.0
 30
0.0
  3
DIRECT
  1

  0
ATTDEF
  5
2F
  8
ASHADE
  6
CONTINUOUS
 62
     1
 10
0.0
 20
-0.1
 30
0.0
 40
0.2
  1

  7
ASHADE
 72
     1
 11
0.0
 21
-0.1
 31
0.0
  3
Light Name
  2
SNAME
 70
     0
  0
ARC
  5
30
  8
ASHADE
  6
CONTINUOUS
 62
     7
 10
0.0
 20
0.0
 30
0.0
 40
0.3
 50
205.67928861945691
 51
334.32071138054312
  0
ARC
  5
31
  8
ASHADE
  6
CONTINUOUS
 62
     7
 10
0.0
 20
0.0
 30
0.0
 40
0.3
 50
25.679288619456852
 51
154.32071138054309
  0
LINE
  5
32
  8
ASHADE
  6
CONTINUOUS
 62
     7
 10
-0.21
 20
0.2142428528562855
 30
0.0
 11
-0.21
 21
0.5
 31
0.0
  0
LINE
  5
33
  8
ASHADE
  6
CONTINUOUS
 62
     7
 10
-0.11
 20
0.2791057147390572
 30
0.0
 11
-0.11
 21
0.5
 31
0.0
  0
LINE
  5
34
  8
ASHADE
  6
CONTINUOUS
 62
     7
 10
0.21
 20
0.2142428528562855
 30
0.0
 11
0.21
 21
0.5
 31
0.0
  0
ATTDEF
  5
35
  8
ASHADE
  6
CONTINUOUS
 62
     7
 10
0.0
 20
0.25
 30
0.0
 40
0.01
  1

  3
Look-at Y
  2
LAY
 70
     1
  0
ATTDEF
  5
36
  8
ASHADE
  6
CONTINUOUS
 62
     7
 10
0.0
 20
0.22
 30
0.0
 40
0.01
  1
1
  3
Light Intensity
  2
INTENSITY
 70
     1
  0
ATTDEF
  5
37
  8
ASHADE
  6
CONTINUOUS
 62
     7
 10
0.0
 20
0.16
 30
0.0
 40
0.01
  1
-1
  3
*not used*
  2
BEAMD
 70
     1
  0
ATTDEF
  5
38
  8
ASHADE
  6
CONTINUOUS
 62
     7
 10
0.0
 20
0.175
 30
0.0
 40
0.01
  1
-1
  3
*not used*
  2
CONED
 70
     1
  0
ATTDEF
  5
39
  8
ASHADE
  6
CONTINUOUS
 62
     7
 10
0.0
 20
0.19
 30
0.0
 40
0.01
  1
0
  3
Depth Map Size
  2
CONEA
 70
     1
  0
ATTDEF
  5
3A
  8
ASHADE
  6
CONTINUOUS
 62
     7
 10
0.0
 20
0.2050000000000001
 30
0.0
 40
0.01
  1
1,1,1
  3
Light Color (RGB)
  2
COLOR
 70
     1
  0
ATTDEF
  5
3B
  8
ASHADE
  6
CONTINUOUS
 62
     7
 10
0.0
 20
0.235
 30
0.0
 40
0.01
  1

  3
Look-at Z
  2
LAZ
 70
     1
  0
LINE
  5
3C
  8
ASHADE
  6
CONTINUOUS
 62
     7
 10
0.0
 20
0.3
 30
0.0
 11
0.0
 21
0.5
 31
0.0
  0
LINE
  5
3D
  8
ASHADE
  6
CONTINUOUS
 62
     7
 10
0.11
 20
0.2791057147390572
 30
0.0
 11
0.11
 21
0.5
 31
0.0
  0
ATTDEF
  5
3E
  8
ASHADE
  6
CONTINUOUS
 62
     7
 10
0.0
 20
0.265
 30
0.0
 40
0.01
  1

  3
Look-at X
  2
LAX
 70
     1
  0
ATTDEF
  5
3F
  8
ASHADE
  6
CONTINUOUS
 62
     7
 10
0.0
 20
0.28
 30
0.0
 40
0.01
  1

  3

  2
GNAME
 70
     1
  0
ENDBLK
  5
41
  8
0
  0
BLOCK
  8
0
  2
OVERHEAD
 70
     2
 10
0.0
 20
0.0
 30
0.0
  3
OVERHEAD
  1

  0
ATTDEF
  5
43
  8
ASHADE
  6
CONTINUOUS
 62
     1
 10
0.0
 20
-0.1
 30
0.0
 40
0.2
  1

  7
ASHADE
 72
     1
 11
0.0
 21
-0.1
 31
0.0
  3
Light Name
  2
SNAME
 70
     0
  0
ARC
  5
44
  8
ASHADE
  6
CONTINUOUS
 62
     7
 10
0.0
 20
0.0
 30
0.0
 40
0.3
 50
205.67928861945691
 51
334.32071138054312
  0
LINE
  5
45
  8
ASHADE
  6
CONTINUOUS
 62
     7
 10
-0.2041413561583015
 20
-0.2198324514393848
 30
0.0
 11
-0.2721884748777353
 21
-0.2931099352525131
 31
0.0
  0
LINE
  5
46
  8
ASHADE
  6
CONTINUOUS
 62
     7
 10
-0.1096591641591904
 20
-0.2792398032442862
 30
0.0
 11
-0.1279356915190555
 21
-0.3257797704516673
 31
0.0
  0
LINE
  5
47
  8
ASHADE
  6
CONTINUOUS
 62
     7
 10
0.0
 20
-0.2999999999999999
 30
0.0
 11
0.0
 21
-0.4
 31
0.0
  0
LINE
  5
48
  8
ASHADE
  6
CONTINUOUS
 62
     7
 10
0.1096591641591904
 20
-0.2792398032442862
 30
0.0
 11
0.1279356915190555
 21
-0.3257797704516673
 31
0.0
  0
LINE
  5
49
  8
ASHADE
  6
CONTINUOUS
 62
     7
 10
0.2041413561583015
 20
-0.2198324514393848
 30
0.0
 11
0.2721884748777353
 21
-0.2931099352525131
 31
0.0
  0
ARC
  5
4A
  8
ASHADE
  6
CONTINUOUS
 62
     7
 10
0.0
 20
0.0
 30
0.0
 40
0.3
 50
25.679288619456852
 51
154.32071138054309
  0
LINE
  5
4B
  8
ASHADE
  6
CONTINUOUS
 62
     7
 10
-0.2703701166919155
 20
0.13
 30
0.0
 11
-0.3154318028072347
 21
0.1516666666666666
 31
0.0
  0
LINE
  5
4C
  8
ASHADE
  6
CONTINUOUS
 62
     7
 10
-0.2703701166919155
 20
-0.13
 30
0.0
 11
-0.3154318028072347
 21
-0.1516666666666666
 31
0.0
  0
LINE
  5
4D
  8
ASHADE
  6
CONTINUOUS
 62
     7
 10
-0.2041413561583015
 20
0.2198324514393849
 30
0.0
 11
-0.2721884748777353
 21
0.2931099352525131
 31
0.0
  0
LINE
  5
4E
  8
ASHADE
  6
CONTINUOUS
 62
     7
 10
-0.1096591641591904
 20
0.2792398032442862
 30
0.0
 11
-0.1279356915190555
 21
0.3257797704516674
 31
0.0
  0
LINE
  5
4F
  8
ASHADE
  6
CONTINUOUS
 62
     7
 10
0.2703701166919155
 20
-0.13
 30
0.0
 11
0.3154318028072347
 21
-0.1516666666666666
 31
0.0
  0
LINE
  5
50
  8
ASHADE
  6
CONTINUOUS
 62
     7
 10
0.2703701166919155
 20
0.13
 30
0.0
 11
0.3154318028072347
 21
0.1516666666666666
 31
0.0
  0
LINE
  5
51
  8
ASHADE
  6
CONTINUOUS
 62
     7
 10
0.0
 20
0.3
 30
0.0
 11
0.0
 21
0.4
 31
0.0
  0
ATTDEF
  5
52
  8
ASHADE
  6
CONTINUOUS
 62
     7
 10
0.0
 20
0.22
 30
0.0
 40
0.01
  1
1
  3
Light Intensity
  2
INTENSITY
 70
     1
  0
ATTDEF
  5
53
  8
ASHADE
  6
CONTINUOUS
 62
     7
 10
0.0
 20
0.16
 30
0.0
 40
0.01
  1
-1
  3
*not used*
  2
BEAMD
 70
     1
  0
ATTDEF
  5
54
  8
ASHADE
  6
CONTINUOUS
 62
     7
 10
0.0
 20
0.175
 30
0.0
 40
0.01
  1
-1
  3
*not used*
  2
CONED
 70
     1
  0
ATTDEF
  5
55
  8
ASHADE
  6
CONTINUOUS
 62
     7
 10
0.0
 20
0.19
 30
0.0
 40
0.01
  1
0
  3
Depth Map Size
  2
CONEA
 70
     1
  0
ATTDEF
  5
56
  8
ASHADE
  6
CONTINUOUS
 62
     7
 10
0.0
 20
0.2050000000000001
 30
0.0
 40
0.01
  1
1,1,1
  3
Light Color (RGB)
  2
COLOR
 70
     1
  0
ATTDEF
  5
57
  8
ASHADE
  6
CONTINUOUS
 62
     7
 10
0.0
 20
0.235
 30
0.0
 40
0.01
  1

  3
Look-at Z
  2
LAZ
 70
     1
  0
ATTDEF
  5
58
  8
ASHADE
  6
CONTINUOUS
 62
     7
 10
0.0
 20
0.25
 30
0.0
 40
0.01
  1

  3
Look-at Y
  2
LAY
 70
     1
  0
ATTDEF
  5
59
  8
ASHADE
  6
CONTINUOUS
 62
     7
 10
0.0
 20
0.265
 30
0.0
 40
0.01
  1

  3
Look-at X
  2
LAX
 70
     1
  0
ATTDEF
  5
5A
  8
ASHADE
  6
CONTINUOUS
 62
     7
 10
0.0
 20
0.28
 30
0.0
 40
0.01
  1

  3

  2
GNAME
 70
     1
  0
LINE
  5
5B
  8
ASHADE
  6
CONTINUOUS
 62
     7
 10
0.1096591641591904
 20
0.2792398032442862
 30
0.0
 11
0.1279356915190555
 21
0.3257797704516674
 31
0.0
  0
LINE
  5
5C
  8
ASHADE
  6
CONTINUOUS
 62
     7
 10
0.2041413561583015
 20
0.2198324514393849
 30
0.0
 11
0.2721884748777353
 21
0.2931099352525131
 31
0.0
  0
ENDBLK
  5
5E
  8
0
  0
BLOCK
  8
0
  2
SH_SPOT
 70
     2
 10
0.0
 20
0.0
 30
0.0
  3
SH_SPOT
  1

  0
LINE
  5
60
  8
ASHADE
  6
CONTINUOUS
 62
     7
 10
0.25
 20
0.26
 30
0.0
 11
-0.25
 21
0.26
 31
0.0
  0
LINE
  5
61
  8
ASHADE
  6
CONTINUOUS
 62
     7
 10
-0.25
 20
-0.3399999999999999
 30
0.0
 11
0.25
 21
-0.3399999999999999
 31
0.0
  0
ATTDEF
  5
62
  8
ASHADE
  6
CONTINUOUS
 62
     1
 10
0.0
 20
-0.1
 30
0.0
 40
0.2
  1

  7
ASHADE
 72
     1
 11
0.0
 21
-0.1
 31
0.0
  3
Light Name
  2
SNAME
 70
     0
  0
LINE
  5
63
  8
ASHADE
  6
CONTINUOUS
 62
     7
 10
-0.25
 20
-0.13
 30
0.0
 11
-0.25
 21
-0.3399999999999999
 31
0.0
  0
LINE
  5
64
  8
ASHADE
  6
CONTINUOUS
 62
     7
 10
-0.25
 20
-0.18
 30
0.0
 11
-0.29
 21
-0.18
 31
0.0
  0
LINE
  5
65
  8
ASHADE
  6
CONTINUOUS
 62
     7
 10
-0.29
 20
-0.22
 30
0.0
 11
-0.25
 21
-0.22
 31
0.0
  0
LINE
  5
66
  8
ASHADE
  6
CONTINUOUS
 62
     7
 10
-0.29
 20
-0.18
 30
0.0
 11
-0.29
 21
-0.22
 31
0.0
  0
LINE
  5
67
  8
ASHADE
  6
CONTINUOUS
 62
     7
 10
-0.1045454545454545
 20
0.26
 30
0.0
 11
-0.15
 21
0.46
 31
0.0
  0
LINE
  5
68
  8
ASHADE
  6
CONTINUOUS
 62
     7
 10
-0.21
 20
0.26
 30
0.0
 11
-0.301304347826087
 21
0.46
 31
0.0
  0
LINE
  5
69
  8
ASHADE
  6
CONTINUOUS
 62
     7
 10
-0.25
 20
0.26
 30
0.0
 11
-0.25
 21
0.13
 31
0.0
  0
LINE
  5
6A
  8
ASHADE
  6
CONTINUOUS
 62
     7
 10
-0.25
 20
0.22
 30
0.0
 11
-0.29
 21
0.22
 31
0.0
  0
LINE
  5
6B
  8
ASHADE
  6
CONTINUOUS
 62
     7
 10
-0.29
 20
0.1799999999999999
 30
0.0
 11
-0.25
 21
0.1799999999999999
 31
0.0
  0
LINE
  5
6C
  8
ASHADE
  6
CONTINUOUS
 62
     7
 10
-0.29
 20
0.22
 30
0.0
 11
-0.29
 21
0.1799999999999999
 31
0.0
  0
ATTDEF
  5
6D
  8
ASHADE
  6
CONTINUOUS
 62
     7
 10
0.0
 20
-0.24
 30
0.0
 40
0.01
  1
0
  3
Depth Map Size
  2
ZSIZE
 70
     1
  0
ATTDEF
  5
6E
  8
ASHADE
  6
CONTINUOUS
 62
     7
 10
0.0
 20
-0.3300000000000001
 30
0.0
 40
0.01
  1
0,0,0
  3
Look-from XYZ
  2
LFXYZ
 70
     1
  0
ATTDEF
  5
6F
  8
ASHADE
  6
CONTINUOUS
 62
     7
 10
0.0
 20
-0.315
 30
0.0
 40
0.01
  1
0.0
  3
Beam Distribution
  2
BEAMDI
 70
     1
  0
ATTDEF
  5
70
  8
ASHADE
  6
CONTINUOUS
 62
     7
 10
0.0
 20
-0.3
 30
0.0
 40
0.01
  1
0.0
  3
Cone Delta
  2
CONEDE
 70
     1
  0
ATTDEF
  5
71
  8
ASHADE
  6
CONTINUOUS
 62
     7
 10
0.0
 20
-0.2850000000000001
 30
0.0
 40
0.01
  1
10.0
  3
Cone Angle
  2
CONEAN
 70
     1
  0
ATTDEF
  5
72
  8
ASHADE
  6
CONTINUOUS
 62
     7
 10
0.0
 20
-0.27
 30
0.0
 40
0.01
  1
-1
  3
*not used*
  2
BIASMAX
 70
     1
  0
ATTDEF
  5
73
  8
ASHADE
  6
CONTINUOUS
 62
     7
 10
0.0
 20
-0.255
 30
0.0
 40
0.01
  1
-1
  3
*not used*
  2
BIASMIN
 70
     1
  0
ATTDEF
  5
74
  8
ASHADE
  6
CONTINUOUS
 62
     7
 10
0.0
 20
-0.225
 30
0.0
 40
0.01
  1
1,1,1
  3
Light Color (RGB)
  2
COLOR
 70
     1
  0
ATTDEF
  5
75
  8
ASHADE
  6
CONTINUOUS
 62
     7
 10
0.0
 20
-0.21
 30
0.0
 40
0.01
  1
1
  3
Light Intensity
  2
INTENSITY
 70
     1
  0
ATTDEF
  5
76
  8
ASHADE
  6
CONTINUOUS
 62
     7
 10
0.0
 20
-0.15
 30
0.0
 40
0.01
  1

  3

  2
GNAME
 70
     1
  0
ATTDEF
  5
77
  8
ASHADE
  6
CONTINUOUS
 62
     7
 10
0.0
 20
-0.195
 30
0.0
 40
0.01
  1

  3
Look-at Z
  2
LAZ
 70
     1
  0
ATTDEF
  5
78
  8
ASHADE
  6
CONTINUOUS
 62
     7
 10
0.0
 20
-0.18
 30
0.0
 40
0.01
  1

  3
Look-at Y
  2
LAY
 70
     1
  0
ATTDEF
  5
79
  8
ASHADE
  6
CONTINUOUS
 62
     7
 10
0.0
 20
-0.165
 30
0.0
 40
0.01
  1

  3
Look-at X
  2
LAX
 70
     1
  0
LINE
  5
7A
  8
ASHADE
  6
CONTINUOUS
 62
     7
 10
0.25
 20
-0.3399999999999999
 30
0.0
 11
0.25
 21
-0.13
 31
0.0
  0
LINE
  5
7B
  8
ASHADE
  6
CONTINUOUS
 62
     7
 10
0.25
 20
-0.18
 30
0.0
 11
0.29
 21
-0.18
 31
0.0
  0
LINE
  5
7C
  8
ASHADE
  6
CONTINUOUS
 62
     7
 10
0.29
 20
-0.22
 30
0.0
 11
0.25
 21
-0.22
 31
0.0
  0
LINE
  5
7D
  8
ASHADE
  6
CONTINUOUS
 62
     7
 10
0.29
 20
-0.18
 30
0.0
 11
0.29
 21
-0.22
 31
0.0
  0
LINE
  5
7E
  8
ASHADE
  6
CONTINUOUS
 62
     7
 10
0.21
 20
0.26
 30
0.0
 11
0.301304347826087
 21
0.46
 31
0.0
  0
LINE
  5
7F
  8
ASHADE
  6
CONTINUOUS
 62
     7
 10
0.1045454545454545
 20
0.26
 30
0.0
 11
0.15
 21
0.46
 31
0.0
  0
LINE
  5
80
  8
ASHADE
  6
CONTINUOUS
 62
     7
 10
0.0
 20
0.26
 30
0.0
 11
0.0
 21
0.46
 31
0.0
  0
LINE
  5
81
  8
ASHADE
  6
CONTINUOUS
 62
     7
 10
0.25
 20
0.13
 30
0.0
 11
0.25
 21
0.26
 31
0.0
  0
LINE
  5
82
  8
ASHADE
  6
CONTINUOUS
 62
     7
 10
0.25
 20
0.22
 30
0.0
 11
0.29
 21
0.22
 31
0.0
  0
LINE
  5
83
  8
ASHADE
  6
CONTINUOUS
 62
     7
 10
0.29
 20
0.1799999999999999
 30
0.0
 11
0.25
 21
0.1799999999999999
 31
0.0
  0
LINE
  5
84
  8
ASHADE
  6
CONTINUOUS
 62
     7
 10
0.29
 20
0.22
 30
0.0
 11
0.29
 21
0.1799999999999999
 31
0.0
  0
ENDBLK
  5
86
  8
0
  0
BLOCK
  8
ASHADE
  2
AVE_RENDER
 70
     0
 10
0.0
 20
0.0
 30
0.0
  3
AVE_RENDER
  1
AVE_RENDER
  0
ENDBLK
  5
93
  8
0
  0
BLOCK
  8
ASHADE
  2
AVE_GLOBAL
 70
     0
 10
0.0
 20
0.0
 30
0.0
  3
AVE_GLOBAL
  1
AVE_GLOBAL
  0
ENDBLK
  5
A1
  8
0
  0
ENDSEC
  0
SECTION
  2
ENTITIES
  0
INSERT
  5
94
  8
ASHADE
 62
     1
  2
AVE_RENDER
 10
0.0
 20
0.0
 30
0.0
1001
AVE_RENDER
1002
{
1070
     7
1000
Pref
1070
    30
1070
    20
1070
     1
1070
     0
1000

1070
    10
1070
     1
1070
    10
1040
1.0
1070
     1
1040
0.3
1040
0.7
1040
0.0
1040
10.0
1010
-1.0
1020
-1.0
1030
-1.0
1040
0.3
1070
    49
1070
     0
1070
     0
1010
1.0
1020
1.0
1030
1.0
1040
45.0
1070
     1
1070
     0
1000
WCS
1040
0.0
1070
     0
1040
10.0
1002
}
  0
INSERT
  5
95
  8
ASHADE
 62
     3
  2
AVE_RENDER
 10
0.0
 20
0.0
 30
0.0
1001
AVE_RENDER
1002
{
1070
     0
1000
Full Opt
1070
     0
1070
     1
1070
     1
1070
     1
1070
     0
1070
     0
1070
     0
1070
     1
1070
     1
1040
0.0001
1040
0.0001
1002
}
  0
INSERT
  5
96
  8
ASHADE
 62
     4
  2
AVE_RENDER
 10
0.0
 20
0.0
 30
0.0
1001
AVE_RENDER
1002
{
1070
     0
1000
Quick Opt
1070
     0
1070
     1
1070
     1
1070
     1
1070
     0
1070
     0
1070
     1
1002
}
  0
INSERT
  5
97
  8
ASHADE
 62
     5
  2
AVE_RENDER
 10
0.0
 20
0.0
 30
0.0
1001
AVE_RENDER
1002
{
1070
     1
1000
Scanl Opt
1070
     2
1070
     0
1070
     2
1040
2.0
1040
4.0
1070
     0
1070
     1
1070
     0
1040
0.03
1002
}
  0
INSERT
  5
98
  8
ASHADE
 62
     6
  2
AVE_RENDER
 10
0.0
 20
0.0
 30
0.0
1001
AVE_RENDER
1002
{
1070
     2
1000
Raytr Opt
1070
     2
1070
     0
1070
     2
1040
2.0
1040
4.0
1070
     0
1070
     1
1070
     1
1040
0.03
1070
     3
1040
0.03
1002
}
  0
INSERT
  5
99
  8
ASHADE
 62
     7
  2
AVE_RENDER
 10
0.0
 20
0.0
 30
0.0
1001
AVE_RENDER
1002
{
1070
     0
1000
RFile Opt
1070
     1
1070
   640
1070
   480
1070
 10000
1070
     1
1070
     8
1070
     8
1070
     0
1070
     0
1070
     0
1070
     0
1070
     0
1070
     0
1070
     0
1002
}
  0
INSERT
  5
9A
  8
ASHADE
 62
     8
  2
AVE_RENDER
 10
0.0
 20
0.0
 30
0.0
1001
AVE_RENDER
1002
{
1070
     0
1000
Fog Opt
1070
     0
1070
     0
1040
0.0
1040
1.0
1040
0.0
1040
1.0
1010
0.5
1020
0.5
1030
0.5
1002
}
  0
INSERT
  5
9B
  8
ASHADE
 62
     9
  2
AVE_RENDER
 10
0.0
 20
0.0
 30
0.0
1001
AVE_RENDER
1002
{
1070
     0
1000
BG Opt
1070
     0
1070
     1
1010
0.0
1020
0.0
1030
0.0
1010
1.0
1020
0.0
1030
0.0
1010
0.0
1020
1.0
1030
0.0
1010
0.0
1020
0.0
1030
1.0
1040
0.5
1040
0.33
1040
0.0
1000

1070
     1
1000

1070
     1
1070
     1
1040
1.0
1040
1.0
1040
0.0
1040
0.0
1070
     0
1002
}
  0
INSERT
  5
A2
  8
ASHADE
 62
     1
  2
AVE_GLOBAL
 10
0.0
 20
0.0
 30
0.0
1001
AVE_MATERIAL
1002
{
1000
*GLOBAL*
1000
2
1000
Global finish.
1002
{
1002
}
1002
{
1070
    63
1002
{
1002
{
1010
-1.0
1020
-1.0
1030
-1.0
1002
}
1040
0.1000000014901161
1000

1040
0.0
1002
{
1002
}
1040
0.0
1002
{
1002
}
1040
0.0
1002
}
1002
{
1002
{
1010
-1.0
1020
-1.0
1030
-1.0
1002
}
1040
0.699999988079071
1000

1040
0.0
1002
{
1002
}
1040
0.0
1002
{
1002
}
1040
0.0
1002
}
1002
{
1002
{
1010
-1.0
1020
-1.0
1030
-1.0
1002
}
1040
0.2000000029802322
1000

1040
0.0
1002
{
1002
}
1040
0.0
1002
{
1002
}
1040
0.0
1002
}
1002
{
1070
     0
1002
{
1070
     1
1002
{
1040
1.0
1040
1.0
1000

1040
0.0
1002
{
1002
}
1040
0.0
1002
{
1002
}
1040
0.0
1002
}
1002
}
1040
1.0
1040
0.0
1040
0.0
1002
}
1002
{
1040
1.0
1040
1.0
1000

1040
0.0
1002
{
1002
}
1040
0.0
1002
{
1002
}
1040
0.0
1002
}
1002
{
1040
0.5
1040
1.0
1000

1040
0.0
1002
{
1002
}
1040
0.0
1002
{
1002
}
1040
0.0
1002
}
1002
{
1070
     0
1040
0.0
1002
{
1002
}
1040
1.0
1002
{
1002
}
1040
0.0
1002
}
1002
{
1040
0.0
1002
{
1002
{
1010
0.0
1020
0.0
1030
0.0
1002
}
1040
1.0
1000

1040
0.0
1002
{
1002
}
1040
0.0
1002
{
1002
}
1040
0.0
1002
}
1002
}
1002
{
1002
{
1070
     1
1002
{
1040
0.0
1040
1.0
1000

1040
0.0
1002
{
1002
}
1040
0.0
1002
{
1002
}
1040
0.0
1002
}
1002
}
1040
0.0
1002
{
1002
}
1010
1.0
1020
0.0
1030
0.0
1010
0.0
1020
1.0
1030
0.0
1010
0.0
1020
0.0
1030
1.0
1070
     0
1002
}
1002
{
1002
{
1040
1.0
1040
1.0
1002
{
1070
     1
1002
{
1040
1.0
1040
1.0
1000

1040
0.0
1002
{
1002
}
1040
0.0
1002
{
1002
}
1040
0.0
1002
}
1002
}
1002
}
1070
     0
1040
0.0
1002
{
1002
}
1002
}
1002
{
1002
}
1002
}
1002
{
1071
        3
1070
     3
1070
     0
1002
{
1070
     2
1070
     0
1070
     0
1040
0.0
1002
}
1070
     0
1070
     2
1002
{
1002
}
1002
}
1002
{
1040
8030.0
1040
190.30000305175781
1040
0.3050000071525574
1040
228.0
1040
545.0
1040
14.0
1040
17.39999961853027
1040
0.4560000002384186
1002
}
1002
}
  0
POLYLINE
  5
AE
  8
0
 62
    33
 66
     1
 10
0.0
 20
0.0
 30
0.0
 70
    64
 71
   583
 72
  1106
  0
VERTEX
  5
AF
  8
0
 62
    33
 10
-0.004744662437588
 20
-3.3838460445404048
 30
4.5262022018432608
 70
   192
  0
VERTEX
  5
B0
  8
0
 62
    33
 10
0.1605011075735092
 20
-3.33908987045288
 30
4.5262022018432608
 70
   192
  0
VERTEX
  5
B1
  8
0
 62
    33
 10
0.278044730424881
 20
-3.2215464115142818
 30
4.5262022018432608
 70
   192
  0
VERTEX
  5
B2
  8
0
 62
    33
 10
0.322800487279892
 20
-3.0563006401062012
 30
4.5262022018432608
 70
   192
  0
VERTEX
  5
B3
  8
0
 62
    33
 10
0.2780445516109466
 20
-2.8910551071166992
 30
4.5262022018432608
 70
   192
  0
VERTEX
  5
B4
  8
0
 62
    33
 10
0.1605008393526077
 20
-2.7735111713409419
 30
4.5262022018432608
 70
   192
  0
VERTEX
  5
B5
  8
0
 62
    33
 10
-0.0047449846751988
 20
-2.7287557125091548
 30
4.5262022018432608
 70
   192
  0
VERTEX
  5
B6
  8
0
 62
    33
 10
-0.169990748167038
 20
-2.7735118865966788
 30
4.5262022018432608
 70
   192
  0
VERTEX
  5
B7
  8
0
 62
    33
 10
-0.2875344157218933
 20
-2.8910553455352779
 30
4.5262022018432608
 70
   192
  0
VERTEX
  5
B8
  8
0
 62
    33
 10
-0.3322901129722595
 20
-3.056301355361938
 30
4.5262017250061026
 70
   192
  0
VERTEX
  5
B9
  8
0
 62
    33
 10
-0.2875341773033142
 20
-3.22154688835144
 30
4.5262022018432608
 70
   192
  0
VERTEX
  5
BA
  8
0
 62
    33
 10
-0.1699904799461365
 20
-3.3390908241271968
 30
4.5262022018432608
 70
   192
  0
VERTEX
  5
BB
  8
0
 62
    33
 10
-0.0047445390373468
 20
-3.3838458061218262
 30
5.6955475807189941
 70
   192
  0
VERTEX
  5
BC
  8
0
 62
    33
 10
0.16050124168396
 20
-3.3390905857086182
 30
5.6866445541381827
 70
   192
  0
VERTEX
  5
BD
  8
0
 62
    33
 10
0.2780448794364929
 20
-3.2215464115142818
 30
5.6632628440856934
 70
   192
  0
VERTEX
  5
BE
  8
0
 62
    33
 10
0.3228006064891815
 20
-3.0563008785247798
 30
5.6303915977478018
 70
   192
  0
VERTEX
  5
BF
  8
0
 62
    33
 10
0.2780446410179138
 20
-2.8910553455352779
 30
5.5975208282470703
 70
   192
  0
VERTEX
  5
C0
  8
0
 62
    33
 10
0.1605009436607361
 20
-2.7735118865966788
 30
5.5741391181945801
 70
   192
  0
VERTEX
  5
C1
  8
0
 62
    33
 10
-0.004744874779135
 20
-2.728756189346313
 30
5.5652360916137686
 70
   192
  0
VERTEX
  5
C2
  8
0
 62
    33
 10
-0.1699906587600708
 20
-2.773512363433837
 30
5.5741391181945801
 70
   192
  0
VERTEX
  5
C3
  8
0
 62
    33
 10
-0.2875343263149261
 20
-2.891055583953857
 30
5.5975208282470703
 70
   192
  0
VERTEX
  5
C4
  8
0
 62
    33
 10
-0.33228999376297
 20
-3.0563008785247798
 30
5.63039207458496
 70
   192
  0
VERTEX
  5
C5
  8
0
 62
    33
 10
-0.2875340580940246
 20
-3.2215471267700191
 30
5.6632623672485352
 70
   192
  0
VERTEX
  5
C6
  8
0
 62
    33
 10
-0.1699903458356857
 20
-3.3390901088714591
 30
5.6866445541381827
 70
   192
  0
VERTEX
  5
C7
  8
0
 62
    33
 10
-0.0047445949167013
 20
-3.0974345207214351
 30
6.3870043754577628
 70
   192
  0
VERTEX
  5
C8
  8
0
 62
    33
 10
0.160501167178154
 20
-3.0594923496246329
 30
6.3616538047790518
 70
   192
  0
VERTEX
  5
C9
  8
0
 62
    33
 10
0.2780448198318481
 20
-2.9598424434661861
 30
6.2950716018676749
 70
   192
  0
VERTEX
  5
CA
  8
0
 62
    33
 10
0.3228005170822143
 20
-2.8197526931762691
 30
6.2014694213867179
 70
   192
  0
VERTEX
  5
CB
  8
0
 62
    33
 10
0.2780446112155914
 20
-2.6796629428863521
 30
6.1078667640686026
 70
   192
  0
VERTEX
  5
CC
  8
0
 62
    33
 10
0.1605009138584137
 20
-2.5800132751464839
 30
6.0412850379943839
 70
   192
  0
VERTEX
  5
CD
  8
0
 62
    33
 10
-0.004744912032038
 20
-2.542070627212524
 30
6.0159335136413574
 70
   192
  0
VERTEX
  5
CE
  8
0
 62
    33
 10
-0.1699907034635544
 20
-2.5800132751464839
 30
6.0412850379943839
 70
   192
  0
VERTEX
  5
CF
  8
0
 62
    33
 10
-0.2875343263149261
 20
-2.6796629428863521
 30
6.1078667640686026
 70
   192
  0
VERTEX
  5
D0
  8
0
 62
    33
 10
-0.3322900235652924
 20
-2.8197529315948482
 30
6.2014694213867179
 70
   192
  0
VERTEX
  5
D1
  8
0
 62
    33
 10
-0.2875341176986694
 20
-2.9598431587219229
 30
6.2950716018676749
 70
   192
  0
VERTEX
  5
D2
  8
0
 62
    33
 10
-0.1699904203414917
 20
-3.059492588043212
 30
6.3616538047790518
 70
   192
  0
VERTEX
  5
D3
  8
0
 62
    33
 10
-0.0047447695396841
 20
-2.586306095123291
 30
6.8981332778930664
 70
   192
  0
VERTEX
  5
D4
  8
0
 62
    33
 10
0.160501018166542
 20
-2.5609543323516841
 30
6.8601918220520011
 70
   192
  0
VERTEX
  5
D5
  8
0
 62
    33
 10
0.2780446410179138
 20
-2.4943726062774649
 30
6.7605414390563956
 70
   192
  0
VERTEX
  5
D6
  8
0
 62
    33
 10
0.3228004276752472
 20
-2.4007701873779288
 30
6.6204519271850577
 70
   192
  0
VERTEX
  5
D7
  8
0
 62
    33
 10
0.2780444622039795
 20
-2.3071680068969722
 30
6.4803614616394043
 70
   192
  0
VERTEX
  5
D8
  8
0
 62
    33
 10
0.1605007946491241
 20
-2.240586280822753
 30
6.3807125091552734
 70
   192
  0
VERTEX
  5
D9
  8
0
 62
    33
 10
-0.0047450233250856
 20
-2.2152347564697261
 30
6.3427700996398917
 70
   192
  0
VERTEX
  5
DA
  8
0
 62
    33
 10
-0.1699908226728439
 20
-2.240586519241333
 30
6.3807125091552734
 70
   192
  0
VERTEX
  5
DB
  8
0
 62
    33
 10
-0.2875344753265381
 20
-2.3071682453155509
 30
6.4803619384765616
 70
   192
  0
VERTEX
  5
DC
  8
0
 62
    33
 10
-0.3322901725769043
 20
-2.4007704257965079
 30
6.6204524040222159
 70
   192
  0
VERTEX
  5
DD
  8
0
 62
    33
 10
-0.2875342667102814
 20
-2.494373083114624
 30
6.7605414390563956
 70
   192
  0
VERTEX
  5
DE
  8
0
 62
    33
 10
-0.1699905842542648
 20
-2.5609548091888419
 30
6.8601918220520011
 70
   192
  0
VERTEX
  5
DF
  8
0
 62
    33
 10
-0.0047450484707952
 20
-1.8948515653610221
 30
7.184544563293457
 70
   192
  0
VERTEX
  5
E0
  8
0
 62
    33
 10
0.1605007350444794
 20
-1.885948061943054
 30
7.139789104461669
 70
   192
  0
VERTEX
  5
E1
  8
0
 62
    33
 10
0.2780444025993347
 20
-1.862565040588378
 30
7.0222458839416504
 70
   192
  0
VERTEX
  5
E2
  8
0
 62
    33
 10
0.3228001892566681
 20
-1.829692482948303
 30
6.8570003509521484
 70
   192
  0
VERTEX
  5
E3
  8
0
 62
    33
 10
0.2780442833900452
 20
-1.796820163726806
 30
6.6917552947998038
 70
   192
  0
VERTEX
  5
E4
  8
0
 62
    33
 10
0.1605005860328674
 20
-1.7734370231628409
 30
6.5742120742797852
 70
   192
  0
VERTEX
  5
E5
  8
0
 62
    33
 10
-0.0047452049329877
 20
-1.764533877372741
 30
6.529456615447998
 70
   192
  0
VERTEX
  5
E6
  8
0
 62
    33
 10
-0.1699909865856171
 20
-1.77343726158142
 30
6.5742120742797852
 70
   192
  0
VERTEX
  5
E7
  8
0
 62
    33
 10
-0.2875346839427948
 20
-1.796820282936096
 30
6.6917552947998038
 70
   192
  0
VERTEX
  5
E8
  8
0
 62
    33
 10
-0.332290381193161
 20
-1.829692840576171
 30
6.8570008277893058
 70
   192
  0
VERTEX
  5
E9
  8
0
 62
    33
 10
-0.2875345051288605
 20
-1.862565040588378
 30
7.0222458839416504
 70
   192
  0
VERTEX
  5
EA
  8
0
 62
    33
 10
-0.1699908822774887
 20
-1.885947942733764
 30
7.139789104461669
 70
   192
  0
VERTEX
  5
EB
  8
0
 62
    33
 10
-0.0047462526708841
 20
0.7978815436363221
 30
7.184546470642089
 70
   192
  0
VERTEX
  5
EC
  8
0
 62
    33
 10
0.1604995280504227
 20
0.7889794707298279
 30
7.13979148864746
 70
   192
  0
VERTEX
  5
ED
  8
0
 62
    33
 10
0.2780432403087616
 20
0.7655997276306154
 30
7.0222468376159659
 70
   192
  0
VERTEX
  5
EE
  8
0
 62
    33
 10
0.3227990865707397
 20
0.7327316403388977
 30
6.8570003509521484
 70
   192
  0
VERTEX
  5
EF
  8
0
 62
    33
 10
0.2780432105064392
 20
0.6998637914657593
 30
6.6917548179626456
 70
   192
  0
VERTEX
  5
F0
  8
0
 62
    33
 10
0.1604995131492615
 20
0.6764839291572571
 30
6.5742101669311523
 70
   192
  0
VERTEX
  5
F1
  8
0
 62
    33
 10
-0.0047462922520936
 20
0.6675816774368287
 30
6.5294556617736808
 70
   192
  0
VERTEX
  5
F2
  8
0
 62
    33
 10
-0.1699921190738678
 20
0.6764837503433228
 30
6.5742101669311523
 70
   192
  0
VERTEX
  5
F3
  8
0
 62
    33
 10
-0.2875357568264007
 20
0.6998634934425354
 30
6.6917552947998038
 70
   192
  0
VERTEX
  5
F4
  8
0
 62
    33
 10
-0.3322915732860565
 20
0.7327313423156739
 30
6.857001304626464
 70
   192
  0
VERTEX
  5
F5
  8
0
 62
    33
 10
-0.287535697221756
 20
0.7655994296073914
 30
7.022247314453125
 70
   192
  0
VERTEX
  5
F6
  8
0
 62
    33
 10
-0.169992059469223
 20
0.7889792919158936
 30
7.13979148864746
 70
   192
  0
VERTEX
  5
F7
  8
0
 62
    33
 10
-0.0047465921379626
 20
1.4893507957458489
 30
6.8981308937072754
 70
   192
  0
VERTEX
  5
F8
  8
0
 62
    33
 10
0.1604992002248764
 20
1.463998317718505
 30
6.8601884841918936
 70
   192
  0
VERTEX
  5
F9
  8
0
 62
    33
 10
0.2780429422855377
 20
1.3974146842956541
 30
6.7605404853820801
 70
   192
  0
VERTEX
  5
FA
  8
0
 62
    33
 10
0.3227987289428711
 20
1.303809165954589
 30
6.6204533576965332
 70
   192
  0
VERTEX
  5
FB
  8
0
 62
    33
 10
0.2780429422855377
 20
1.2102041244506829
 30
6.4803647994995108
 70
   192
  0
VERTEX
  5
FC
  8
0
 62
    33
 10
0.1604993045330048
 20
1.1436201333999629
 30
6.3807163238525391
 70
   192
  0
VERTEX
  5
FD
  8
0
 62
    33
 10
-0.004746513441205
 20
1.1182675361633301
 30
6.3427748680114737
 70
   192
  0
VERTEX
  5
FE
  8
0
 62
    33
 10
-0.1699923425912857
 20
1.1436198949813841
 30
6.3807168006896973
 70
   192
  0
VERTEX
  5
FF
  8
0
 62
    33
 10
-0.2875360548496246
 20
1.210203886032104
 30
6.4803647994995108
 70
   192
  0
VERTEX
  5
100
  8
0
 62
    33
 10
-0.332291841506958
 20
1.3038089275360101
 30
6.6204533576965332
 70
   192
  0
VERTEX
  5
101
  8
0
 62
    33
 10
-0.2875359952449798
 20
1.397414445877075
 30
6.7605409622192383
 70
   192
  0
VERTEX
  5
102
  8
0
 62
    33
 10
-0.1699923872947693
 20
1.463998317718505
 30
6.8601884841918936
 70
   192
  0
VERTEX
  5
103
  8
0
 62
    33
 10
-0.0047468738630414
 20
2.000470638275146
 30
6.3870105743408203
 70
   192
  0
VERTEX
  5
104
  8
0
 62
    33
 10
0.1604989171028137
 20
1.962529063224792
 30
6.3616580963134757
 70
   192
  0
VERTEX
  5
105
  8
0
 62
    33
 10
0.2780426442623138
 20
1.862880110740661
 30
6.2950749397277832
 70
   192
  0
VERTEX
  5
106
  8
0
 62
    33
 10
0.322798490524292
 20
1.722791790962219
 30
6.2014703750610352
 70
   192
  0
VERTEX
  5
107
  8
0
 62
    33
 10
0.2780427038669586
 20
1.582703471183776
 30
6.1078658103942871
 70
   192
  0
VERTEX
  5
108
  8
0
 62
    33
 10
0.1604991108179092
 20
1.4830547571182251
 30
6.0412826538085929
 70
   192
  0
VERTEX
  5
109
  8
0
 62
    33
 10
-0.0047466945834458
 20
1.4451124668121329
 30
6.0159306526184082
 70
   192
  0
VERTEX
  5
10A
  8
0
 62
    33
 10
-0.1699924916028976
 20
1.4830547571182251
 30
6.0412826538085929
 70
   192
  0
VERTEX
  5
10B
  8
0
 62
    33
 10
-0.2875362634658813
 20
1.5827032327651971
 30
6.1078658103942871
 70
   192
  0
VERTEX
  5
10C
  8
0
 62
    33
 10
-0.3322921097278595
 20
1.722791194915771
 30
6.2014698982238761
 70
   192
  0
VERTEX
  5
10D
  8
0
 62
    33
 10
-0.2875362336635589
 20
1.8628798723220821
 30
6.2950749397277832
 70
   192
  0
VERTEX
  5
10E
  8
0
 62
    33
 10
-0.1699926555156708
 20
1.9625285863876341
 30
6.3616585731506339
 70
   192
  0
VERTEX
  5
10F
  8
0
 62
    33
 10
-0.0047470745630562
 20
2.2868859767913809
 30
5.695542335510253
 70
   192
  0
VERTEX
  5
110
  8
0
 62
    33
 10
0.1604987382888794
 20
2.2421295642852779
 30
5.6866402626037589
 70
   192
  0
VERTEX
  5
111
  8
0
 62
    33
 10
0.2780424952507019
 20
2.124585628509521
 30
5.6632599830627441
 70
   192
  0
VERTEX
  5
112
  8
0
 62
    33
 10
0.3227983117103577
 20
1.95933973789215
 30
5.63039207458496
 70
   192
  0
VERTEX
  5
113
  8
0
 62
    33
 10
0.2780425548553467
 20
1.7940936088562009
 30
5.5975241661071768
 70
   192
  0
VERTEX
  5
114
  8
0
 62
    33
 10
0.1604989469051361
 20
1.676549792289733
 30
5.5741443634033203
 70
   192
  0
VERTEX
  5
115
  8
0
 62
    33
 10
-0.0047468249686062
 20
1.631793618202209
 30
5.5652422904968262
 70
   192
  0
VERTEX
  5
116
  8
0
 62
    33
 10
-0.1699926555156708
 20
1.676549792289733
 30
5.5741443634033203
 70
   192
  0
VERTEX
  5
117
  8
0
 62
    33
 10
-0.2875364124774933
 20
1.7940937280654901
 30
5.5975241661071768
 70
   192
  0
VERTEX
  5
118
  8
0
 62
    33
 10
-0.332292228937149
 20
1.9593391418457029
 30
5.6303925514221191
 70
   192
  0
VERTEX
  5
119
  8
0
 62
    33
 10
-0.2875364422798157
 20
2.1245853900909419
 30
5.6632604598999023
 70
   192
  0
VERTEX
  5
11A
  8
0
 62
    33
 10
-0.1699928641319275
 20
2.2421293258666992
 30
5.6866402626037589
 70
   192
  0
VERTEX
  5
11B
  8
0
 62
    33
 10
-0.0047475988976657
 20
2.2868871688842769
 30
-0.5398086309432985
 70
   192
  0
VERTEX
  5
11C
  8
0
 62
    33
 10
0.1604992300271988
 20
2.2421314716339111
 30
-0.5398087501525879
 70
   192
  0
VERTEX
  5
11D
  8
0
 62
    33
 10
0.278043657541275
 20
2.1245872974395752
 30
-0.5398092269897461
 70
   192
  0
VERTEX
  5
11E
  8
0
 62
    33
 10
0.322799801826477
 20
1.9593408107757559
 30
-0.53980952501297
 70
   192
  0
VERTEX
  5
11F
  8
0
 62
    33
 10
0.2780437469482422
 20
1.7940938472747801
 30
-0.5398097038269043
 70
   192
  0
VERTEX
  5
120
  8
0
 62
    33
 10
0.1604994535446167
 20
1.6765491962432859
 30
-0.5398099422454834
 70
   192
  0
VERTEX
  5
121
  8
0
 62
    33
 10
-0.0047473353333771
 20
1.631793141365051
 30
-0.539810061454773
 70
   192
  0
VERTEX
  5
122
  8
0
 62
    33
 10
-0.1699941456317902
 20
1.6765490770339959
 30
-0.5398099422454834
 70
   192
  0
VERTEX
  5
123
  8
0
 62
    33
 10
-0.28753861784935
 20
1.7940936088562009
 30
-0.5398094654083252
 70
   192
  0
VERTEX
  5
124
  8
0
 62
    33
 10
-0.3322947025299072
 20
1.9593402147293091
 30
-0.5398092865943909
 70
   192
  0
VERTEX
  5
125
  8
0
 62
    33
 10
-0.2875386774539947
 20
2.1245870590209961
 30
-0.539808988571167
 70
   192
  0
VERTEX
  5
126
  8
0
 62
    33
 10
-0.1699943691492081
 20
2.242130994796752
 30
-0.5398085713386536
 70
   192
  0
VERTEX
  5
127
  8
0
 62
    33
 10
-0.004747727420181
 20
2.5489213466644278
 30
-0.6557624936103821
 70
   192
  0
VERTEX
  5
128
  8
0
 62
    33
 10
0.2926947176456451
 20
2.4683616161346431
 30
-0.6557629704475403
 70
   192
  0
VERTEX
  5
129
  8
0
 62
    33
 10
0.5042734742164612
 20
2.256783008575439
 30
-0.6557634472846985
 70
   192
  0
VERTEX
  5
12A
  8
0
 62
    33
 10
0.5848340392112732
 20
1.9593406915664671
 30
-0.655763864517212
 70
   192
  0
VERTEX
  5
12B
  8
0
 62
    33
 10
0.5042735934257508
 20
1.661898136138916
 30
-0.6557644605636597
 70
   192
  0
VERTEX
  5
12C
  8
0
 62
    33
 10
0.2926951646804809
 20
1.450319647789001
 30
-0.6557650566101075
 70
   192
  0
VERTEX
  5
12D
  8
0
 62
    33
 10
-0.004747252445668
 20
1.369759082794189
 30
-0.6557652950286866
 70
   192
  0
VERTEX
  5
12E
  8
0
 62
    33
 10
-0.3021897673606873
 20
1.450319528579711
 30
-0.6557648181915284
 70
   192
  0
VERTEX
  5
12F
  8
0
 62
    33
 10
-0.5137684345245362
 20
1.661897897720336
 30
-0.6557645201683046
 70
   192
  0
VERTEX
  5
130
  8
0
 62
    33
 10
-0.5943289995193481
 20
1.9593400955200191
 30
-0.6557637453079224
 70
   192
  0
VERTEX
  5
131
  8
0
 62
    33
 10
-0.5137685537338257
 20
2.256783008575439
 30
-0.6557633280754091
 70
   192
  0
VERTEX
  5
132
  8
0
 62
    33
 10
-0.3021900951862335
 20
2.4683616161346431
 30
-0.6557626128196717
 70
   192
  0
VERTEX
  5
133
  8
0
 62
    33
 10
-0.0042682308703661
 20
2.6648375988006592
 30
-3.9999642372131339
 70
   192
  0
VERTEX
  5
134
  8
0
 62
    33
 10
0.35113325715065
 20
2.5683655738830562
 30
-3.9998905658721919
 70
   192
  0
VERTEX
  5
135
  8
0
 62
    33
 10
0.6039403080940247
 20
2.315558910369873
 30
-3.9998910427093501
 70
   192
  0
VERTEX
  5
136
  8
0
 62
    33
 10
0.7006291747093201
 20
1.96015977859497
 30
-4.0000410079956046
 70
   192
  0
VERTEX
  5
137
  8
0
 62
    33
 10
0.6046521663665772
 20
1.604346394538879
 30
-4.0001783370971671
 70
   192
  0
VERTEX
  5
138
  8
0
 62
    33
 10
0.3516720831394196
 20
1.351041078567504
 30
-4.0002613067626953
 70
   192
  0
VERTEX
  5
139
  8
0
 62
    33
 10
-0.0042615979909897
 20
1.2540343999862671
 30
-4.0004725456237793
 70
   192
  0
VERTEX
  5
13A
  8
0
 62
    33
 10
-0.3605156540870666
 20
1.350501537322998
 30
-4.0004801750183097
 70
   192
  0
VERTEX
  5
13B
  8
0
 62
    33
 10
-0.6139204502105713
 20
1.603919029235839
 30
-4.000476360321044
 70
   192
  0
VERTEX
  5
13C
  8
0
 62
    33
 10
-0.7100127339363099
 20
1.96016502380371
 30
-4.0003371238708487
 70
   192
  0
VERTEX
  5
13D
  8
0
 62
    33
 10
-0.6130102276802063
 20
2.3158752918243399
 30
-4.0001063346862793
 70
   192
  0
VERTEX
  5
13E
  8
0
 62
    33
 10
-0.359891951084137
 20
2.5687494277954102
 30
-4.0000433921813956
 70
   192
  0
VERTEX
  5
13F
  8
0
 62
    33
 10
-0.0030450017657131
 20
2.9603288173675528
 30
-4.1019797325134268
 70
   192
  0
VERTEX
  5
140
  8
0
 62
    33
 10
0.5004880428314209
 20
2.8239502906799312
 30
-4.1019797325134268
 70
   192
  0
VERTEX
  5
141
  8
0
 62
    33
 10
0.8586643934249877
 20
2.4657745361328121
 30
-4.1019797325134268
 70
   192
  0
VERTEX
  5
142
  8
0
 62
    33
 10
0.9950435161590576
 20
1.962241411209106
 30
-4.1019816398620597
 70
   192
  0
VERTEX
  5
143
  8
0
 62
    33
 10
0.8586648106575012
 20
1.458708643913269
 30
-4.1019840240478507
 70
   192
  0
VERTEX
  5
144
  8
0
 62
    33
 10
0.5004886984825135
 20
1.1005322933197019
 30
-4.1019845008850089
 70
   192
  0
VERTEX
  5
145
  8
0
 62
    33
 10
-0.0030441964045167
 20
0.9641533493995667
 30
-4.1019845008850089
 70
   192
  0
VERTEX
  5
146
  8
0
 62
    33
 10
-0.5065771937370301
 20
1.1005318164825431
 30
-4.1019840240478507
 70
   192
  0
VERTEX
  5
147
  8
0
 62
    33
 10
-0.8647536039352416
 20
1.4587080478668211
 30
-4.1019830703735352
 70
   192
  0
VERTEX
  5
148
  8
0
 62
    33
 10
-1.0011326074600211
 20
1.96224045753479
 30
-4.1019811630249023
 70
   192
  0
VERTEX
  5
149
  8
0
 62
    33
 10
-0.8647539019584655
 20
2.4657738208770752
 30
-4.101980209350585
 70
   192
  0
VERTEX
  5
14A
  8
0
 62
    33
 10
-0.5065779089927675
 20
2.8239493370056148
 30
-4.1019797325134268
 70
   192
  0
VERTEX
  5
14B
  8
0
 62
    33
 10
-0.0030450164340436
 20
2.960331678390502
 30
-4.2529659271240234
 70
   192
  0
VERTEX
  5
14C
  8
0
 62
    33
 10
0.5004894137382508
 20
2.82395315170288
 30
-4.2529659271240234
 70
   192
  0
VERTEX
  5
14D
  8
0
 62
    33
 10
0.858666718006134
 20
2.465775489807128
 30
-4.252967357635498
 70
   192
  0
VERTEX
  5
14E
  8
0
 62
    33
 10
0.9950461983680725
 20
1.962241411209106
 30
-4.2529683113098136
 70
   192
  0
VERTEX
  5
14F
  8
0
 62
    33
 10
0.8586671352386474
 20
1.4587073326110831
 30
-4.25296926498413
 70
   192
  0
VERTEX
  5
150
  8
0
 62
    33
 10
0.5004900693893433
 20
1.1005297899246209
 30
-4.2529697418212891
 70
   192
  0
VERTEX
  5
151
  8
0
 62
    33
 10
-0.0030442115385085
 20
0.9641503691673278
 30
-4.2529697418212891
 70
   192
  0
VERTEX
  5
152
  8
0
 62
    33
 10
-0.5065786838531495
 20
1.100529551506042
 30
-4.2529697418212891
 70
   192
  0
VERTEX
  5
153
  8
0
 62
    33
 10
-0.864756166934967
 20
1.458706617355346
 30
-4.2529687881469718
 70
   192
  0
VERTEX
  5
154
  8
0
 62
    33
 10
-1.0011352300643921
 20
1.96224045753479
 30
-4.2529678344726563
 70
   192
  0
VERTEX
  5
155
  8
0
 62
    33
 10
-0.864756166934967
 20
2.4657752513885489
 30
-4.2529664039611808
 70
   192
  0
VERTEX
  5
156
  8
0
 62
    33
 10
-0.5065792798995972
 20
2.823952198028564
 30
-4.2529659271240234
 70
   192
  0
VERTEX
  5
157
  8
0
 62
    33
 10
-0.2271299362182617
 20
2.6637847423553458
 30
-3.8173136711120601
 70
   192
  0
VERTEX
  5
158
  8
0
 62
    33
 10
-0.1619957983493805
 20
2.5065367221832271
 30
-3.8173136711120601
 70
   192
  0
VERTEX
  5
159
  8
0
 62
    33
 10
-0.0047479183413088
 20
2.4414029121398921
 30
-3.8173136711120601
 70
   192
  0
VERTEX
  5
15A
  8
0
 62
    33
 10
0.1524999141693115
 20
2.5065369606018062
 30
-3.8173139095306392
 70
   192
  0
VERTEX
  5
15B
  8
0
 62
    33
 10
0.2176341265439987
 20
2.6637849807739249
 30
-3.8173136711120601
 70
   192
  0
VERTEX
  5
15C
  8
0
 62
    33
 10
0.1524999290704727
 20
2.8210327625274649
 30
-3.8173136711120601
 70
   192
  0
VERTEX
  5
15D
  8
0
 62
    33
 10
-0.0047479383647442
 20
2.886166810989379
 30
-3.8173136711120601
 70
   192
  0
VERTEX
  5
15E
  8
0
 62
    33
 10
-0.1619957685470581
 20
2.8210325241088858
 30
-3.8173136711120601
 70
   192
  0
VERTEX
  5
15F
  8
0
 62
    33
 10
-0.2271299064159393
 20
2.6637847423553458
 30
-3.389508724212646
 70
   192
  0
VERTEX
  5
160
  8
0
 62
    33
 10
-0.1619957685470581
 20
2.5065367221832271
 30
-3.389508724212646
 70
   192
  0
VERTEX
  5
161
  8
0
 62
    33
 10
-0.004747892729938
 20
2.4414029121398921
 30
-3.389508724212646
 70
   192
  0
VERTEX
  5
162
  8
0
 62
    33
 10
0.1524999439716339
 20
2.5065369606018062
 30
-3.389508724212646
 70
   192
  0
VERTEX
  5
163
  8
0
 62
    33
 10
0.2176341414451599
 20
2.6637849807739249
 30
-3.389508724212646
 70
   192
  0
VERTEX
  5
164
  8
0
 62
    33
 10
0.1524999439716339
 20
2.8210327625274649
 30
-3.389508724212646
 70
   192
  0
VERTEX
  5
165
  8
0
 62
    33
 10
-0.0047479132190347
 20
2.886166810989379
 30
-3.389508724212646
 70
   192
  0
VERTEX
  5
166
  8
0
 62
    33
 10
-0.1619957536458969
 20
2.8210325241088858
 30
-3.389508724212646
 70
   192
  0
VERTEX
  5
167
  8
0
 62
    33
 10
-0.004747892729938
 20
2.6637847423553458
 30
-3.389508724212646
 70
   192
  0
VERTEX
  5
168
  8
0
 62
    33
 10
-0.0903396084904671
 20
2.6637847423553458
 30
-3.817314386367797
 70
   192
  0
VERTEX
  5
169
  8
0
 62
    33
 10
-0.065270371735096
 20
2.603262186050415
 30
-3.817314386367797
 70
   192
  0
VERTEX
  5
16A
  8
0
 62
    33
 10
-0.0047479229979217
 20
2.578193187713623
 30
-3.817314386367797
 70
   192
  0
VERTEX
  5
16B
  8
0
 62
    33
 10
0.0557745359838009
 20
2.6032624244689941
 30
-3.817314386367797
 70
   192
  0
VERTEX
  5
16C
  8
0
 62
    33
 10
0.0808437690138817
 20
2.6637849807739249
 30
-3.817314386367797
 70
   192
  0
VERTEX
  5
16D
  8
0
 62
    33
 10
0.0557745322585106
 20
2.724307537078857
 30
-3.817314386367797
 70
   192
  0
VERTEX
  5
16E
  8
0
 62
    33
 10
-0.0047479160130024
 20
2.749376535415649
 30
-3.817314386367797
 70
   192
  0
VERTEX
  5
16F
  8
0
 62
    33
 10
-0.0652703866362572
 20
2.7243072986602779
 30
-3.817314386367797
 70
   192
  0
VERTEX
  5
170
  8
0
 62
    33
 10
-0.0903396233916283
 20
2.6637847423553458
 30
-4.159277915954589
 70
   192
  0
VERTEX
  5
171
  8
0
 62
    33
 10
-0.0652704015374184
 20
2.603262186050415
 30
-4.159277915954589
 70
   192
  0
VERTEX
  5
172
  8
0
 62
    33
 10
-0.0047479439526796
 20
2.578193187713623
 30
-4.159277915954589
 70
   192
  0
VERTEX
  5
173
  8
0
 62
    33
 10
0.0557745099067688
 20
2.6032624244689941
 30
-4.159277915954589
 70
   192
  0
VERTEX
  5
174
  8
0
 62
    33
 10
0.0808437541127205
 20
2.6637849807739249
 30
-4.159277915954589
 70
   192
  0
VERTEX
  5
175
  8
0
 62
    33
 10
0.0557745136320591
 20
2.724307537078857
 30
-4.159277915954589
 70
   192
  0
VERTEX
  5
176
  8
0
 62
    33
 10
-0.004747936502099
 20
2.7493767738342281
 30
-4.159277915954589
 70
   192
  0
VERTEX
  5
177
  8
0
 62
    33
 10
-0.0652704015374184
 20
2.7243072986602779
 30
-4.159277915954589
 70
   192
  0
VERTEX
  5
178
  8
0
 62
    33
 10
4.0136561393737793
 20
1.9582221508026121
 30
-4.2527136802673331
 70
   192
  0
VERTEX
  5
179
  8
0
 62
    33
 10
4.0136561393737793
 20
1.9582221508026121
 30
-4.1068611145019531
 70
   192
  0
VERTEX
  5
17A
  8
0
 62
    33
 10
4.2110319137573242
 20
1.9582216739654541
 30
-4.1121954917907706
 70
   192
  0
VERTEX
  5
17B
  8
0
 62
    33
 10
4.3894481658935538
 20
1.958221435546875
 30
-4.022986412048339
 70
   192
  0
VERTEX
  5
17C
  8
0
 62
    33
 10
4.510303020477294
 20
1.958221793174743
 30
-3.861846685409545
 70
   192
  0
VERTEX
  5
17D
  8
0
 62
    33
 10
4.5103034973144531
 20
1.958221435546875
 30
-0.6176219582557679
 70
   192
  0
VERTEX
  5
17E
  8
0
 62
    33
 10
4.547473430633544
 20
1.958221435546875
 30
-0.5804519653320313
 70
   192
  0
VERTEX
  5
17F
  8
0
 62
    33
 10
4.6563396453857422
 20
1.9582215547561641
 30
-0.5804519653320313
 70
   192
  0
VERTEX
  5
180
  8
0
 62
    33
 10
4.733407497406005
 20
1.9582215547561641
 30
-0.4963779151439667
 70
   192
  0
VERTEX
  5
181
  8
0
 62
    33
 10
4.7710828781127921
 20
1.9582215547561641
 30
-0.3995231091976166
 70
   192
  0
VERTEX
  5
182
  8
0
 62
    33
 10
4.7710828781127921
 20
1.958221435546875
 30
0.453514188528061
 70
   192
  0
VERTEX
  5
183
  8
0
 62
    33
 10
4.9934096336364737
 20
1.9582215547561641
 30
0.6758410334587098
 70
   192
  0
VERTEX
  5
184
  8
0
 62
    33
 10
4.9956555366516113
 20
1.9582215547561641
 30
0.6758410334587098
 70
   192
  0
VERTEX
  5
185
  8
0
 62
    33
 10
4.1452193260192871
 20
1.467222571372985
 30
-4.2527136802673331
 70
   192
  0
VERTEX
  5
186
  8
0
 62
    33
 10
4.1452193260192871
 20
1.467222571372985
 30
-4.1068611145019531
 70
   192
  0
VERTEX
  5
187
  8
0
 62
    33
 10
4.3161520957946768
 20
1.565910220146179
 30
-4.1121945381164551
 70
   192
  0
VERTEX
  5
188
  8
0
 62
    33
 10
4.4706640243530273
 20
1.6551181077957151
 30
-4.022986412048339
 70
   192
  0
VERTEX
  5
189
  8
0
 62
    33
 10
4.5753278732299796
 20
1.715546011924743
 30
-3.861846685409545
 70
   192
  0
VERTEX
  5
18A
  8
0
 62
    33
 10
4.5753283500671378
 20
1.715545654296875
 30
-0.6176219582557679
 70
   192
  0
VERTEX
  5
18B
  8
0
 62
    33
 10
4.607518196105957
 20
1.7341305017471309
 30
-0.5804520249366761
 70
   192
  0
VERTEX
  5
18C
  8
0
 62
    33
 10
4.7017993927001953
 20
1.7885638475418091
 30
-0.5804520249366761
 70
   192
  0
VERTEX
  5
18D
  8
0
 62
    33
 10
4.7685422897338858
 20
1.82709777355194
 30
-0.4963779449462891
 70
   192
  0
VERTEX
  5
18E
  8
0
 62
    33
 10
4.8011698722839347
 20
1.8459352254867549
 30
-0.399523138999939
 70
   192
  0
VERTEX
  5
18F
  8
0
 62
    33
 10
4.8011693954467773
 20
1.8459352254867549
 30
0.453514188528061
 70
   192
  0
VERTEX
  5
190
  8
0
 62
    33
 10
4.9937100410461417
 20
1.957098603248596
 30
0.6758410334587098
 70
   192
  0
VERTEX
  5
191
  8
0
 62
    33
 10
4.5046558380126953
 20
1.107786059379577
 30
-4.2527136802673331
 70
   192
  0
VERTEX
  5
192
  8
0
 62
    33
 10
4.5046558380126953
 20
1.107786059379577
 30
-4.1068611145019531
 70
   192
  0
VERTEX
  5
193
  8
0
 62
    33
 10
4.603343963623046
 20
1.2787183523178101
 30
-4.1121959686279288
 70
   192
  0
VERTEX
  5
194
  8
0
 62
    33
 10
4.6925511360168448
 20
1.4332312345504761
 30
-4.022986888885498
 70
   192
  0
VERTEX
  5
195
  8
0
 62
    33
 10
4.7529792785644531
 20
1.5378948450088501
 30
-3.861846685409545
 70
   192
  0
VERTEX
  5
196
  8
0
 62
    33
 10
4.7529792785644531
 20
1.5378946065902701
 30
-0.6176220178604126
 70
   192
  0
VERTEX
  5
197
  8
0
 62
    33
 10
4.7715644836425781
 20
1.570084571838378
 30
-0.5804520249366761
 70
   192
  0
VERTEX
  5
198
  8
0
 62
    33
 10
4.825997829437255
 20
1.664365649223327
 30
-0.5804520249366761
 70
   192
  0
VERTEX
  5
199
  8
0
 62
    33
 10
4.8645310401916504
 20
1.73110806941986
 30
-0.496378242969513
 70
   192
  0
VERTEX
  5
19A
  8
0
 62
    33
 10
4.883368968963623
 20
1.7637358903884881
 30
-0.3995231688022613
 70
   192
  0
VERTEX
  5
19B
  8
0
 62
    33
 10
4.883368492126464
 20
1.7637355327606199
 30
0.4535141587257386
 70
   192
  0
VERTEX
  5
19C
  8
0
 62
    33
 10
4.9945325851440421
 20
1.956276416778564
 30
0.6758410334587098
 70
   192
  0
VERTEX
  5
19D
  8
0
 62
    33
 10
4.9956555366516113
 20
0.9762231707572937
 30
-4.2527136802673331
 70
   192
  0
VERTEX
  5
19E
  8
0
 62
    33
 10
4.9956555366516113
 20
0.9762231707572937
 30
-4.1068615913391113
 70
   192
  0
VERTEX
  5
19F
  8
0
 62
    33
 10
4.9956555366516113
 20
1.1735992431640621
 30
-4.1121954917907706
 70
   192
  0
VERTEX
  5
1A0
  8
0
 62
    33
 10
4.9956550598144531
 20
1.3520151376724241
 30
-4.022986888885498
 70
   192
  0
VERTEX
  5
1A1
  8
0
 62
    33
 10
4.9956550598144531
 20
1.4728701114654541
 30
-3.861846685409545
 70
   192
  0
VERTEX
  5
1A2
  8
0
 62
    33
 10
4.9956550598144531
 20
1.4728695154190059
 30
-0.617622196674347
 70
   192
  0
VERTEX
  5
1A3
  8
0
 62
    33
 10
4.9956550598144531
 20
1.5100394487380979
 30
-0.5804520845413208
 70
   192
  0
VERTEX
  5
1A4
  8
0
 62
    33
 10
4.9956555366516113
 20
1.6189059019088741
 30
-0.5804520845413208
 70
   192
  0
VERTEX
  5
1A5
  8
0
 62
    33
 10
4.9956555366516113
 20
1.695973753929138
 30
-0.4963782727718354
 70
   192
  0
VERTEX
  5
1A6
  8
0
 62
    33
 10
4.9956555366516113
 20
1.7336486577987671
 30
-0.3995231688022613
 70
   192
  0
VERTEX
  5
1A7
  8
0
 62
    33
 10
4.9956550598144531
 20
1.7336484193801871
 30
0.4535141587257386
 70
   192
  0
VERTEX
  5
1A8
  8
0
 62
    33
 10
4.9956550598144531
 20
1.955975294113159
 30
0.6758410334587098
 70
   192
  0
VERTEX
  5
1A9
  8
0
 62
    33
 10
5.48665428161621
 20
1.1077864170074461
 30
-4.2527132034301749
 70
   192
  0
VERTEX
  5
1AA
  8
0
 62
    33
 10
5.48665428161621
 20
1.1077864170074461
 30
-4.1068615913391113
 70
   192
  0
VERTEX
  5
1AB
  8
0
 62
    33
 10
5.3879671096801749
 20
1.278718829154968
 30
-4.1121954917907706
 70
   192
  0
VERTEX
  5
1AC
  8
0
 62
    33
 10
5.2987580299377441
 20
1.433231472969055
 30
-4.022986888885498
 70
   192
  0
VERTEX
  5
1AD
  8
0
 62
    33
 10
5.2383313179016113
 20
1.537894964218139
 30
-3.861847877502441
 70
   192
  0
VERTEX
  5
1AE
  8
0
 62
    33
 10
5.238330364227294
 20
1.537894368171691
 30
-0.617622196674347
 70
   192
  0
VERTEX
  5
1AF
  8
0
 62
    33
 10
5.2197461128234863
 20
1.570084571838378
 30
-0.5804520845413208
 70
   192
  0
VERTEX
  5
1B0
  8
0
 62
    33
 10
5.1653132438659659
 20
1.664365649223327
 30
-0.5804520845413208
 70
   192
  0
VERTEX
  5
1B1
  8
0
 62
    33
 10
5.126779079437255
 20
1.73110806941986
 30
-0.4963782727718354
 70
   192
  0
VERTEX
  5
1B2
  8
0
 62
    33
 10
5.1079416275024414
 20
1.7637354135513299
 30
-0.3995231688022613
 70
   192
  0
VERTEX
  5
1B3
  8
0
 62
    33
 10
5.1079411506652832
 20
1.763735294342041
 30
0.4535141587257386
 70
   192
  0
VERTEX
  5
1B4
  8
0
 62
    33
 10
4.9967780113220206
 20
1.9562761783599849
 30
0.6758410334587098
 70
   192
  0
VERTEX
  5
1B5
  8
0
 62
    33
 10
5.8460917472839347
 20
1.4672228097915641
 30
-4.2527132034301749
 70
   192
  0
VERTEX
  5
1B6
  8
0
 62
    33
 10
5.8460917472839347
 20
1.4672228097915641
 30
-4.106860637664794
 70
   192
  0
VERTEX
  5
1B7
  8
0
 62
    33
 10
5.6751580238342276
 20
1.5659108161926261
 30
-4.1121954917907706
 70
   192
  0
VERTEX
  5
1B8
  8
0
 62
    33
 10
5.5206456184387198
 20
1.6551187038421631
 30
-4.0229878425598136
 70
   192
  0
VERTEX
  5
1B9
  8
0
 62
    33
 10
5.4159822463989249
 20
1.715546131134033
 30
-3.861847877502441
 70
   192
  0
VERTEX
  5
1BA
  8
0
 62
    33
 10
5.4159822463989249
 20
1.715545415878295
 30
-0.617622196674347
 70
   192
  0
VERTEX
  5
1BB
  8
0
 62
    33
 10
5.383791446685791
 20
1.734130263328552
 30
-0.5804522633552552
 70
   192
  0
VERTEX
  5
1BC
  8
0
 62
    33
 10
5.2895112037658691
 20
1.7885637283325191
 30
-0.5804520845413208
 70
   192
  0
VERTEX
  5
1BD
  8
0
 62
    33
 10
5.2227683067321768
 20
1.8270975351333609
 30
-0.4963779747486115
 70
   192
  0
VERTEX
  5
1BE
  8
0
 62
    33
 10
5.190140724182128
 20
1.8459348678588861
 30
-0.3995231688022613
 70
   192
  0
VERTEX
  5
1BF
  8
0
 62
    33
 10
5.1901402473449698
 20
1.8459347486495969
 30
0.4535142779350281
 70
   192
  0
VERTEX
  5
1C0
  8
0
 62
    33
 10
4.997600555419921
 20
1.957098007202148
 30
0.6758410334587098
 70
   192
  0
VERTEX
  5
1C1
  8
0
 62
    33
 10
5.9776535034179679
 20
1.9582227468490601
 30
-4.2527136802673331
 70
   192
  0
VERTEX
  5
1C2
  8
0
 62
    33
 10
5.9776535034179679
 20
1.9582227468490601
 30
-4.106860637664794
 70
   192
  0
VERTEX
  5
1C3
  8
0
 62
    33
 10
5.7802777290344229
 20
1.9582220315933221
 30
-4.1121954917907706
 70
   192
  0
VERTEX
  5
1C4
  8
0
 62
    33
 10
5.6018619537353507
 20
1.958222270011901
 30
-4.0229878425598136
 70
   192
  0
VERTEX
  5
1C5
  8
0
 62
    33
 10
5.481006145477294
 20
1.9582221508026121
 30
-3.861847877502441
 70
   192
  0
VERTEX
  5
1C6
  8
0
 62
    33
 10
5.4810070991516113
 20
1.958221316337585
 30
-0.6176217794418335
 70
   192
  0
VERTEX
  5
1C7
  8
0
 62
    33
 10
5.4438371658325186
 20
1.9582210779190059
 30
-0.5804522037506104
 70
   192
  0
VERTEX
  5
1C8
  8
0
 62
    33
 10
5.334969997406005
 20
1.9582209587097159
 30
-0.5804522037506104
 70
   192
  0
VERTEX
  5
1C9
  8
0
 62
    33
 10
5.2579026222229004
 20
1.958221197128295
 30
-0.4963779747486115
 70
   192
  0
VERTEX
  5
1CA
  8
0
 62
    33
 10
5.2202281951904288
 20
1.958221197128295
 30
-0.3995231688022613
 70
   192
  0
VERTEX
  5
1CB
  8
0
 62
    33
 10
5.2202281951904288
 20
1.9582210779190059
 30
0.4535143077373505
 70
   192
  0
VERTEX
  5
1CC
  8
0
 62
    33
 10
4.997900962829589
 20
1.9582209587097159
 30
0.6758410334587098
 70
   192
  0
VERTEX
  5
1CD
  8
0
 62
    33
 10
5.84609031677246
 20
2.4492218494415279
 30
-4.2527136802673331
 70
   192
  0
VERTEX
  5
1CE
  8
0
 62
    33
 10
5.84609031677246
 20
2.4492218494415279
 30
-4.106860637664794
 70
   192
  0
VERTEX
  5
1CF
  8
0
 62
    33
 10
5.6751580238342276
 20
2.3505337238311759
 30
-4.1121954917907706
 70
   192
  0
VERTEX
  5
1D0
  8
0
 62
    33
 10
5.5206451416015616
 20
2.2613255977630611
 30
-4.0229878425598136
 70
   192
  0
VERTEX
  5
1D1
  8
0
 62
    33
 10
5.4159812927246094
 20
2.2008979320526119
 30
-3.861847877502441
 70
   192
  0
VERTEX
  5
1D2
  8
0
 62
    33
 10
5.4159822463989249
 20
2.2008974552154541
 30
-0.6176217198371888
 70
   192
  0
VERTEX
  5
1D3
  8
0
 62
    33
 10
5.3837919235229492
 20
2.1823124885559082
 30
-0.5804522037506104
 70
   192
  0
VERTEX
  5
1D4
  8
0
 62
    33
 10
5.2895102500915518
 20
2.1278789043426509
 30
-0.5804520249366761
 70
   192
  0
VERTEX
  5
1D5
  8
0
 62
    33
 10
5.2227683067321768
 20
2.0893452167510982
 30
-0.4963779449462891
 70
   192
  0
VERTEX
  5
1D6
  8
0
 62
    33
 10
5.190140724182128
 20
2.0705077648162842
 30
-0.3995231688022613
 70
   192
  0
VERTEX
  5
1D7
  8
0
 62
    33
 10
5.190140724182128
 20
2.0705075263977051
 30
0.4535143077373505
 70
   192
  0
VERTEX
  5
1D8
  8
0
 62
    33
 10
4.997600555419921
 20
1.9593436717987061
 30
0.6758410334587098
 70
   192
  0
VERTEX
  5
1D9
  8
0
 62
    33
 10
5.48665428161621
 20
2.8086583614349361
 30
-4.2527136802673331
 70
   192
  0
VERTEX
  5
1DA
  8
0
 62
    33
 10
5.48665428161621
 20
2.8086578845977779
 30
-4.106860637664794
 70
   192
  0
VERTEX
  5
1DB
  8
0
 62
    33
 10
5.3879661560058594
 20
2.6377251148223868
 30
-4.1121954917907706
 70
   192
  0
VERTEX
  5
1DC
  8
0
 62
    33
 10
5.2987580299377441
 20
2.483212709426879
 30
-4.0229878425598136
 70
   192
  0
VERTEX
  5
1DD
  8
0
 62
    33
 10
5.2383308410644531
 20
2.3785486221313472
 30
-3.861847877502441
 70
   192
  0
VERTEX
  5
1DE
  8
0
 62
    33
 10
5.2383313179016113
 20
2.378548145294189
 30
-0.617621660232544
 70
   192
  0
VERTEX
  5
1DF
  8
0
 62
    33
 10
5.2197456359863281
 20
2.3463580608367911
 30
-0.5804520249366761
 70
   192
  0
VERTEX
  5
1E0
  8
0
 62
    33
 10
5.1653122901916504
 20
2.2520768642425528
 30
-0.5804520249366761
 70
   192
  0
VERTEX
  5
1E1
  8
0
 62
    33
 10
5.126779079437255
 20
2.1853344440460201
 30
-0.4963779449462891
 70
   192
  0
VERTEX
  5
1E2
  8
0
 62
    33
 10
5.1079416275024414
 20
2.1527066230773921
 30
-0.399523138999939
 70
   192
  0
VERTEX
  5
1E3
  8
0
 62
    33
 10
5.1079416275024414
 20
2.1527066230773921
 30
0.4535143375396729
 70
   192
  0
VERTEX
  5
1E4
  8
0
 62
    33
 10
4.9967784881591788
 20
1.9601658582687369
 30
0.6758410334587098
 70
   192
  0
VERTEX
  5
1E5
  8
0
 62
    33
 10
4.995654582977294
 20
2.9402203559875479
 30
-4.2527136802673331
 70
   192
  0
VERTEX
  5
1E6
  8
0
 62
    33
 10
4.995654582977294
 20
2.9402203559875479
 30
-4.106860637664794
 70
   192
  0
VERTEX
  5
1E7
  8
0
 62
    33
 10
4.995654582977294
 20
2.742844581604003
 30
-4.1121954917907706
 70
   192
  0
VERTEX
  5
1E8
  8
0
 62
    33
 10
4.995654582977294
 20
2.5644288063049312
 30
-4.0229878425598136
 70
   192
  0
VERTEX
  5
1E9
  8
0
 62
    33
 10
4.9956550598144531
 20
2.4435732364654541
 30
-3.861847877502441
 70
   192
  0
VERTEX
  5
1EA
  8
0
 62
    33
 10
4.9956550598144531
 20
2.443572759628295
 30
-0.617621660232544
 70
   192
  0
VERTEX
  5
1EB
  8
0
 62
    33
 10
4.9956550598144531
 20
2.4064030647277832
 30
-0.5804519653320313
 70
   192
  0
VERTEX
  5
1EC
  8
0
 62
    33
 10
4.995654582977294
 20
2.297536849975585
 30
-0.5804519653320313
 70
   192
  0
VERTEX
  5
1ED
  8
0
 62
    33
 10
4.995654582977294
 20
2.2204687595367432
 30
-0.4963779151439667
 70
   192
  0
VERTEX
  5
1EE
  8
0
 62
    33
 10
4.995654582977294
 20
2.1827940940856929
 30
-0.3995231091976166
 70
   192
  0
VERTEX
  5
1EF
  8
0
 62
    33
 10
4.9956555366516113
 20
2.1827938556671138
 30
0.4535143375396729
 70
   192
  0
VERTEX
  5
1F0
  8
0
 62
    33
 10
4.9956555366516113
 20
1.9604669809341431
 30
0.6758410334587098
 70
   192
  0
VERTEX
  5
1F1
  8
0
 62
    33
 10
4.5046553611755371
 20
2.808658123016357
 30
-4.2527132034301749
 70
   192
  0
VERTEX
  5
1F2
  8
0
 62
    33
 10
4.5046553611755371
 20
2.808658123016357
 30
-4.1068601608276358
 70
   192
  0
VERTEX
  5
1F3
  8
0
 62
    33
 10
4.6033430099487296
 20
2.6377248764038081
 30
-4.1121954917907706
 70
   192
  0
VERTEX
  5
1F4
  8
0
 62
    33
 10
4.6925511360168448
 20
2.4832119941711421
 30
-4.0229878425598136
 70
   192
  0
VERTEX
  5
1F5
  8
0
 62
    33
 10
4.7529792785644531
 20
2.3785488605499259
 30
-3.861847877502441
 70
   192
  0
VERTEX
  5
1F6
  8
0
 62
    33
 10
4.7529792785644531
 20
2.3785483837127681
 30
-0.6176217794418335
 70
   192
  0
VERTEX
  5
1F7
  8
0
 62
    33
 10
4.771564006805419
 20
2.3463582992553711
 30
-0.5804519653320313
 70
   192
  0
VERTEX
  5
1F8
  8
0
 62
    33
 10
4.8259968757629386
 20
2.252077341079711
 30
-0.5804519653320313
 70
   192
  0
VERTEX
  5
1F9
  8
0
 62
    33
 10
4.8645315170288077
 20
2.1853346824645992
 30
-0.4963779151439667
 70
   192
  0
VERTEX
  5
1FA
  8
0
 62
    33
 10
4.883368968963623
 20
2.1527068614959708
 30
-0.3995231091976166
 70
   192
  0
VERTEX
  5
1FB
  8
0
 62
    33
 10
4.883368968963623
 20
2.1527068614959708
 30
0.4535143375396729
 70
   192
  0
VERTEX
  5
1FC
  8
0
 62
    33
 10
4.9945325851440421
 20
1.960166096687316
 30
0.6758410334587098
 70
   192
  0
VERTEX
  5
1FD
  8
0
 62
    33
 10
4.145218849182128
 20
2.449220895767211
 30
-4.2527132034301749
 70
   192
  0
VERTEX
  5
1FE
  8
0
 62
    33
 10
4.145218849182128
 20
2.449221134185791
 30
-4.1068592071533203
 70
   192
  0
VERTEX
  5
1FF
  8
0
 62
    33
 10
4.3161511421203613
 20
2.350533008575439
 30
-4.1121954917907706
 70
   192
  0
VERTEX
  5
200
  8
0
 62
    33
 10
4.4706640243530273
 20
2.2613251209259029
 30
-4.022986412048339
 70
   192
  0
VERTEX
  5
201
  8
0
 62
    33
 10
4.5753273963928223
 20
2.2008976936340332
 30
-3.861847877502441
 70
   192
  0
VERTEX
  5
202
  8
0
 62
    33
 10
4.5753278732299796
 20
2.200897216796875
 30
-0.6176217794418335
 70
   192
  0
VERTEX
  5
203
  8
0
 62
    33
 10
4.607518196105957
 20
2.1823122501373291
 30
-0.5804519653320313
 70
   192
  0
VERTEX
  5
204
  8
0
 62
    33
 10
4.7017993927001953
 20
2.12787914276123
 30
-0.5804519653320313
 70
   192
  0
VERTEX
  5
205
  8
0
 62
    33
 10
4.7685422897338858
 20
2.0893452167510982
 30
-0.4963779151439667
 70
   192
  0
VERTEX
  5
206
  8
0
 62
    33
 10
4.8011698722839347
 20
2.0705080032348628
 30
-0.3995231091976166
 70
   192
  0
VERTEX
  5
207
  8
0
 62
    33
 10
4.8011698722839347
 20
2.0705077648162842
 30
0.4535142183303833
 70
   192
  0
VERTEX
  5
208
  8
0
 62
    33
 10
4.9937105178832999
 20
1.9593442678451529
 30
0.6758410334587098
 70
   192
  0
VERTEX
  5
209
  8
0
 62
    33
 10
4.3646950721740723
 20
1.9582221508026121
 30
0.4851541519165039
 70
   192
  0
VERTEX
  5
20A
  8
0
 62
    33
 10
4.342392921447753
 20
2.1548447608947749
 30
0.4851541817188263
 70
   192
  0
VERTEX
  5
20B
  8
0
 62
    33
 10
4.342392921447753
 20
2.0972552299499512
 30
0.6241875290870667
 70
   192
  0
VERTEX
  5
20C
  8
0
 62
    33
 10
4.342392921447753
 20
1.9582221508026121
 30
0.6817770004272461
 70
   192
  0
VERTEX
  5
20D
  8
0
 62
    33
 10
4.342392921447753
 20
1.8191887140274039
 30
0.6241875290870667
 70
   192
  0
VERTEX
  5
20E
  8
0
 62
    33
 10
4.342392921447753
 20
1.761599540710449
 30
0.4851544201374054
 70
   192
  0
VERTEX
  5
20F
  8
0
 62
    33
 10
4.342392921447753
 20
1.8191887140274039
 30
0.3461214303970337
 70
   192
  0
VERTEX
  5
210
  8
0
 62
    33
 10
4.3423924446105948
 20
1.9582221508026121
 30
0.288532018661499
 70
   192
  0
VERTEX
  5
211
  8
0
 62
    33
 10
4.342392921447753
 20
2.0972552299499512
 30
0.3461214601993561
 70
   192
  0
VERTEX
  5
212
  8
0
 62
    33
 10
7.1936368942260742
 20
2.1548445224761958
 30
0.4851538836956025
 70
   192
  0
VERTEX
  5
213
  8
0
 62
    33
 10
7.1936368942260742
 20
2.0972552299499512
 30
0.6241872906684876
 70
   192
  0
VERTEX
  5
214
  8
0
 62
    33
 10
7.1936368942260742
 20
1.9582220315933221
 30
0.6817765831947327
 70
   192
  0
VERTEX
  5
215
  8
0
 62
    33
 10
7.1936373710632324
 20
1.819188594818115
 30
0.6241872906684876
 70
   192
  0
VERTEX
  5
216
  8
0
 62
    33
 10
7.1936378479003897
 20
1.7615993022918699
 30
0.4851538538932801
 70
   192
  0
VERTEX
  5
217
  8
0
 62
    33
 10
7.1936373710632324
 20
1.819188594818115
 30
0.3461211323738098
 70
   192
  0
VERTEX
  5
218
  8
0
 62
    33
 10
7.1936368942260742
 20
1.9582220315933221
 30
0.2885317206382751
 70
   192
  0
VERTEX
  5
219
  8
0
 62
    33
 10
7.1936368942260742
 20
2.0972552299499512
 30
0.3461211621761322
 70
   192
  0
VERTEX
  5
21A
  8
0
 62
    33
 10
7.171334743499755
 20
1.9582220315933221
 30
0.4851538836956025
 70
   192
  0
VERTEX
  5
21B
  8
0
 62
    33
 10
4.3646950721740723
 20
2.0502405166625972
 30
0.4851541817188263
 70
   192
  0
VERTEX
  5
21C
  8
0
 62
    33
 10
4.3646950721740723
 20
2.0232884883880611
 30
0.5502208471298218
 70
   192
  0
VERTEX
  5
21D
  8
0
 62
    33
 10
4.3646950721740723
 20
1.9582221508026121
 30
0.5771725177764893
 70
   192
  0
VERTEX
  5
21E
  8
0
 62
    33
 10
4.3646945953369141
 20
1.8931556940078731
 30
0.5502207279205323
 70
   192
  0
VERTEX
  5
21F
  8
0
 62
    33
 10
4.3646945953369141
 20
1.8662041425704949
 30
0.4851541519165039
 70
   192
  0
VERTEX
  5
220
  8
0
 62
    33
 10
4.3646945953369141
 20
1.8931556940078731
 30
0.4200878739356995
 70
   192
  0
VERTEX
  5
221
  8
0
 62
    33
 10
4.3646950721740723
 20
1.9582221508026121
 30
0.3931363224983215
 70
   192
  0
VERTEX
  5
222
  8
0
 62
    33
 10
4.3646950721740723
 20
2.0232884883880611
 30
0.4200879037380219
 70
   192
  0
VERTEX
  5
223
  8
0
 62
    33
 10
7.171334743499755
 20
2.0502398014068599
 30
0.4851538836956025
 70
   192
  0
VERTEX
  5
224
  8
0
 62
    33
 10
7.171334743499755
 20
2.0232884883880611
 30
0.5502206087112427
 70
   192
  0
VERTEX
  5
225
  8
0
 62
    33
 10
7.171334743499755
 20
1.9582220315933221
 30
0.5771723985671997
 70
   192
  0
VERTEX
  5
226
  8
0
 62
    33
 10
7.171334743499755
 20
1.893154978752136
 30
0.5502208471298218
 70
   192
  0
VERTEX
  5
227
  8
0
 62
    33
 10
7.171334743499755
 20
1.8662040233612061
 30
0.4851538538932801
 70
   192
  0
VERTEX
  5
228
  8
0
 62
    33
 10
7.171334743499755
 20
1.8931550979614249
 30
0.4200875759124756
 70
   192
  0
VERTEX
  5
229
  8
0
 62
    33
 10
7.171334743499755
 20
1.9582220315933221
 30
0.3931360244750976
 70
   192
  0
VERTEX
  5
22A
  8
0
 62
    33
 10
7.171334743499755
 20
2.0232884883880611
 30
0.420087605714798
 70
   192
  0
VERTEX
  5
22B
  8
0
 62
    33
 10
-0.0047480659559369
 20
2.5489215850830069
 30
-3.8410015106201172
 70
   192
  0
VERTEX
  5
22C
  8
0
 62
    33
 10
0.2926944196224213
 20
2.4683618545532222
 30
-3.8410015106201172
 70
   192
  0
VERTEX
  5
22D
  8
0
 62
    33
 10
0.5042730569839478
 20
2.2567832469940181
 30
-3.841002225875854
 70
   192
  0
VERTEX
  5
22E
  8
0
 62
    33
 10
0.5848336815834047
 20
1.9593409299850459
 30
-3.8410027027130118
 70
   192
  0
VERTEX
  5
22F
  8
0
 62
    33
 10
0.5042732954025269
 20
1.661898493766784
 30
-3.84100341796875
 70
   192
  0
VERTEX
  5
230
  8
0
 62
    33
 10
0.2926948070526123
 20
1.4503200054168699
 30
-3.8410046100616451
 70
   192
  0
VERTEX
  5
231
  8
0
 62
    33
 10
-0.0047475909814239
 20
1.369759082794189
 30
-3.8410038948059082
 70
   192
  0
VERTEX
  5
232
  8
0
 62
    33
 10
-0.3021900653839111
 20
1.4503198862075799
 30
-3.8410038948059082
 70
   192
  0
VERTEX
  5
233
  8
0
 62
    33
 10
-0.5137687921524048
 20
1.661898136138916
 30
-3.84100341796875
 70
   192
  0
VERTEX
  5
234
  8
0
 62
    33
 10
-0.5943292379379273
 20
1.959340453147888
 30
-3.8410027027130118
 70
   192
  0
VERTEX
  5
235
  8
0
 62
    33
 10
-0.5137689113616945
 20
2.2567825317382808
 30
-3.841002225875854
 70
   192
  0
VERTEX
  5
236
  8
0
 62
    33
 10
-0.3021904826164246
 20
2.4683611392974849
 30
-3.8410015106201172
 70
   192
  0
VERTEX
  5
237
  8
0
 62
    33
 10
-0.0047477022744715
 20
2.5044465065002441
 30
-0.5990481972694397
 70
   192
  0
VERTEX
  5
238
  8
0
 62
    33
 10
0.2703000903129578
 20
2.4300367832183829
 30
-0.5990719199180603
 70
   192
  0
VERTEX
  5
239
  8
0
 62
    33
 10
0.4659489095211029
 20
2.2343883514404288
 30
-0.5990720987319947
 70
   192
  0
VERTEX
  5
23A
  8
0
 62
    33
 10
0.5403589010238648
 20
1.9593406915664671
 30
-0.5990495681762696
 70
   192
  0
VERTEX
  5
23B
  8
0
 62
    33
 10
0.4659490287303925
 20
1.6842927932739249
 30
-0.5990732908248903
 70
   192
  0
VERTEX
  5
23C
  8
0
 62
    33
 10
0.2703005075454712
 20
1.4886441230773919
 30
-0.5990737080574036
 70
   192
  0
VERTEX
  5
23D
  8
0
 62
    33
 10
-0.0047472631558776
 20
1.4142341613769529
 30
-0.5990508794784546
 70
   192
  0
VERTEX
  5
23E
  8
0
 62
    33
 10
-0.2797950804233551
 20
1.4886441230773919
 30
-0.5990736484527588
 70
   192
  0
VERTEX
  5
23F
  8
0
 62
    33
 10
-0.4759804606437683
 20
1.684292554855346
 30
-0.599073350429535
 70
   192
  0
VERTEX
  5
240
  8
0
 62
    33
 10
-0.550390362739563
 20
1.9593400955200191
 30
-0.59904944896698
 70
   192
  0
VERTEX
  5
241
  8
0
 62
    33
 10
-0.4759805202484131
 20
2.2343876361846919
 30
-0.5990721583366394
 70
   192
  0
VERTEX
  5
242
  8
0
 62
    33
 10
-0.2803319692611694
 20
2.4300365447998038
 30
-0.599071741104126
 70
   192
  0
VERTEX
  5
243
  8
0
 62
    33
 10
-4.0246801376342773
 20
1.9582229852676389
 30
-4.2527146339416504
 70
   192
  0
VERTEX
  5
244
  8
0
 62
    33
 10
-4.1562438011169434
 20
2.4492225646972652
 30
-4.106860637664794
 70
   192
  0
VERTEX
  5
245
  8
0
 62
    33
 10
-4.0246801376342773
 20
1.9582229852676389
 30
-4.1068615913391113
 70
   192
  0
VERTEX
  5
246
  8
0
 62
    33
 10
-4.1562438011169434
 20
2.4492225646972652
 30
-4.2527132034301749
 70
   192
  0
VERTEX
  5
247
  8
0
 62
    33
 10
-4.3271751403808594
 20
2.3505349159240718
 30
-4.1121950149536133
 70
   192
  0
VERTEX
  5
248
  8
0
 62
    33
 10
-4.2220559120178223
 20
1.9582234621047969
 30
-4.1121954917907706
 70
   192
  0
VERTEX
  5
249
  8
0
 62
    33
 10
-4.4816880226135254
 20
2.261326551437377
 30
-4.0229873657226562
 70
   192
  0
VERTEX
  5
24A
  8
0
 62
    33
 10
-4.4004721641540518
 20
1.9582233428955069
 30
-4.0229873657226562
 70
   192
  0
VERTEX
  5
24B
  8
0
 62
    33
 10
-4.5863518714904776
 20
2.2008991241455069
 30
-3.8618474006652832
 70
   192
  0
VERTEX
  5
24C
  8
0
 62
    33
 10
-4.5213270187377921
 20
1.958223223686218
 30
-3.8618474006652832
 70
   192
  0
VERTEX
  5
24D
  8
0
 62
    33
 10
-4.5863513946533203
 20
2.2008986473083492
 30
-0.6176218390464783
 70
   192
  0
VERTEX
  5
24E
  8
0
 62
    33
 10
-4.5213274955749512
 20
1.958222389221191
 30
-0.6176218390464783
 70
   192
  0
VERTEX
  5
24F
  8
0
 62
    33
 10
-4.6185421943664551
 20
2.1823134422302242
 30
-0.5804520249366761
 70
   192
  0
VERTEX
  5
250
  8
0
 62
    33
 10
-4.5584964752197257
 20
1.9582226276397701
 30
-0.5804520249366761
 70
   192
  0
VERTEX
  5
251
  8
0
 62
    33
 10
-4.7128238677978507
 20
2.1278803348541251
 30
-0.5804519653320313
 70
   192
  0
VERTEX
  5
252
  8
0
 62
    33
 10
-4.6673636436462402
 20
1.9582226276397701
 30
-0.5804520249366761
 70
   192
  0
VERTEX
  5
253
  8
0
 62
    33
 10
-4.7795667648315421
 20
2.0893464088439941
 30
-0.4963776171207428
 70
   192
  0
VERTEX
  5
254
  8
0
 62
    33
 10
-4.7444305419921866
 20
1.9582225084304801
 30
-0.4963776469230652
 70
   192
  0
VERTEX
  5
255
  8
0
 62
    33
 10
-4.8121929168701172
 20
2.0705089569091788
 30
-0.3995229601860046
 70
   192
  0
VERTEX
  5
256
  8
0
 62
    33
 10
-4.7821073532104492
 20
1.9582225084304801
 30
-0.399522989988327
 70
   192
  0
VERTEX
  5
257
  8
0
 62
    33
 10
-4.8121933937072754
 20
2.0705087184906001
 30
0.453514575958252
 70
   192
  0
VERTEX
  5
258
  8
0
 62
    33
 10
-4.7821073532104492
 20
1.9582225084304801
 30
0.4535145461559296
 70
   192
  0
VERTEX
  5
259
  8
0
 62
    33
 10
-5.0047335624694824
 20
1.95934510231018
 30
0.675841510295868
 70
   192
  0
VERTEX
  5
25A
  8
0
 62
    33
 10
-5.0044326782226563
 20
1.958221793174743
 30
0.675841510295868
 70
   192
  0
VERTEX
  5
25B
  8
0
 62
    33
 10
-5.0066790580749512
 20
1.958221793174743
 30
0.675841510295868
 70
   192
  0
VERTEX
  5
25C
  8
0
 62
    33
 10
-4.5156788825988761
 20
2.808659315109252
 30
-4.106860637664794
 70
   192
  0
VERTEX
  5
25D
  8
0
 62
    33
 10
-4.5156788825988761
 20
2.808659315109252
 30
-4.2527132034301749
 70
   192
  0
VERTEX
  5
25E
  8
0
 62
    33
 10
-4.6143674850463858
 20
2.637726783752441
 30
-4.1121954917907706
 70
   192
  0
VERTEX
  5
25F
  8
0
 62
    33
 10
-4.7035751342773429
 20
2.4832136631011958
 30
-4.0229873657226562
 70
   192
  0
VERTEX
  5
260
  8
0
 62
    33
 10
-4.7640032768249512
 20
2.3785502910614009
 30
-3.8618474006652832
 70
   192
  0
VERTEX
  5
261
  8
0
 62
    33
 10
-4.7640042304992667
 20
2.3785493373870841
 30
-0.6176218986511231
 70
   192
  0
VERTEX
  5
262
  8
0
 62
    33
 10
-4.7825884819030762
 20
2.3463592529296871
 30
-0.5804519653320313
 70
   192
  0
VERTEX
  5
263
  8
0
 62
    33
 10
-4.8370213508605948
 20
2.252078533172607
 30
-0.5804519653320313
 70
   192
  0
VERTEX
  5
264
  8
0
 62
    33
 10
-4.8755545616149902
 20
2.1853361129760742
 30
-0.4963781833648682
 70
   192
  0
VERTEX
  5
265
  8
0
 62
    33
 10
-4.894392490386962
 20
2.1527082920074458
 30
-0.3995229601860046
 70
   192
  0
VERTEX
  5
266
  8
0
 62
    33
 10
-4.8943920135498038
 20
2.1527082920074458
 30
0.4535146653652192
 70
   192
  0
VERTEX
  5
267
  8
0
 62
    33
 10
-5.0055570602416992
 20
1.960167169570922
 30
0.675841510295868
 70
   192
  0
VERTEX
  5
268
  8
0
 62
    33
 10
-5.0066790580749512
 20
2.9402220249176021
 30
-4.106860637664794
 70
   192
  0
VERTEX
  5
269
  8
0
 62
    33
 10
-5.0066790580749512
 20
2.9402220249176021
 30
-4.2527136802673331
 70
   192
  0
VERTEX
  5
26A
  8
0
 62
    33
 10
-5.0066790580749512
 20
2.7428460121154781
 30
-4.1121959686279288
 70
   192
  0
VERTEX
  5
26B
  8
0
 62
    33
 10
-5.0066785812377921
 20
2.564429759979248
 30
-4.0229873657226562
 70
   192
  0
VERTEX
  5
26C
  8
0
 62
    33
 10
-5.0066785812377921
 20
2.4435746669769278
 30
-3.8618474006652832
 70
   192
  0
VERTEX
  5
26D
  8
0
 62
    33
 10
-5.0066790580749512
 20
2.4435744285583492
 30
-0.6176218986511231
 70
   192
  0
VERTEX
  5
26E
  8
0
 62
    33
 10
-5.0066790580749512
 20
2.406404733657836
 30
-0.5804519057273865
 70
   192
  0
VERTEX
  5
26F
  8
0
 62
    33
 10
-5.0066790580749512
 20
2.2975382804870601
 30
-0.5804519653320313
 70
   192
  0
VERTEX
  5
270
  8
0
 62
    33
 10
-5.0066790580749512
 20
2.220470428466796
 30
-0.4963781535625458
 70
   192
  0
VERTEX
  5
271
  8
0
 62
    33
 10
-5.0066790580749512
 20
2.1827957630157471
 30
-0.3995229303836822
 70
   192
  0
VERTEX
  5
272
  8
0
 62
    33
 10
-5.0066795349121094
 20
2.1827955245971671
 30
0.4535146653652192
 70
   192
  0
VERTEX
  5
273
  8
0
 62
    33
 10
-5.0066795349121094
 20
1.9604682922363279
 30
0.675841510295868
 70
   192
  0
VERTEX
  5
274
  8
0
 62
    33
 10
-5.4976787567138672
 20
2.8086585998535152
 30
-4.106860637664794
 70
   192
  0
VERTEX
  5
275
  8
0
 62
    33
 10
-5.4976787567138672
 20
2.8086585998535152
 30
-4.2527136802673331
 70
   192
  0
VERTEX
  5
276
  8
0
 62
    33
 10
-5.3989906311035147
 20
2.6377263069152832
 30
-4.1121959686279288
 70
   192
  0
VERTEX
  5
277
  8
0
 62
    33
 10
-5.3097825050354004
 20
2.4832136631011958
 30
-4.0229873657226562
 70
   192
  0
VERTEX
  5
278
  8
0
 62
    33
 10
-5.2493557929992667
 20
2.3785498142242432
 30
-3.8618483543395992
 70
   192
  0
VERTEX
  5
279
  8
0
 62
    33
 10
-5.2493548393249512
 20
2.3785495758056641
 30
-0.6176218390464783
 70
   192
  0
VERTEX
  5
27A
  8
0
 62
    33
 10
-5.2307696342468262
 20
2.3463594913482662
 30
-0.5804519057273865
 70
   192
  0
VERTEX
  5
27B
  8
0
 62
    33
 10
-5.1763367652893058
 20
2.252078533172607
 30
-0.5804519057273865
 70
   192
  0
VERTEX
  5
27C
  8
0
 62
    33
 10
-5.137803077697753
 20
2.1853358745574951
 30
-0.4963781535625458
 70
   192
  0
VERTEX
  5
27D
  8
0
 62
    33
 10
-5.1189661026000968
 20
2.1527085304260249
 30
-0.3995229303836822
 70
   192
  0
VERTEX
  5
27E
  8
0
 62
    33
 10
-5.118964672088623
 20
2.1527082920074458
 30
0.4535146057605744
 70
   192
  0
VERTEX
  5
27F
  8
0
 62
    33
 10
-5.0078010559082031
 20
1.9601674079895011
 30
0.675841510295868
 70
   192
  0
VERTEX
  5
280
  8
0
 62
    33
 10
-5.8571152687072754
 20
2.449222087860107
 30
-4.106860637664794
 70
   192
  0
VERTEX
  5
281
  8
0
 62
    33
 10
-5.8571152687072754
 20
2.449222087860107
 30
-4.2527132034301749
 70
   192
  0
VERTEX
  5
282
  8
0
 62
    33
 10
-5.6861815452575684
 20
2.350533962249755
 30
-4.1121959686279288
 70
   192
  0
VERTEX
  5
283
  8
0
 62
    33
 10
-5.5316700935363761
 20
2.261326551437377
 30
-4.0229878425598136
 70
   192
  0
VERTEX
  5
284
  8
0
 62
    33
 10
-5.4270057678222647
 20
2.2008988857269278
 30
-3.8618483543395992
 70
   192
  0
VERTEX
  5
285
  8
0
 62
    33
 10
-5.427006721496582
 20
2.2008986473083492
 30
-0.6176220178604126
 70
   192
  0
VERTEX
  5
286
  8
0
 62
    33
 10
-5.3948163986206046
 20
2.1823136806488028
 30
-0.5804519057273865
 70
   192
  0
VERTEX
  5
287
  8
0
 62
    33
 10
-5.3005347251892081
 20
2.1278805732727051
 30
-0.5804519057273865
 70
   192
  0
VERTEX
  5
288
  8
0
 62
    33
 10
-5.2337927818298331
 20
2.0893464088439941
 30
-0.49637770652771
 70
   192
  0
VERTEX
  5
289
  8
0
 62
    33
 10
-5.2011651992797852
 20
2.0705091953277579
 30
-0.3995229303836822
 70
   192
  0
VERTEX
  5
28A
  8
0
 62
    33
 10
-5.2011642456054679
 20
2.0705089569091788
 30
0.4535146057605744
 70
   192
  0
VERTEX
  5
28B
  8
0
 62
    33
 10
-5.0086240768432608
 20
1.959345579147338
 30
0.675841510295868
 70
   192
  0
VERTEX
  5
28C
  8
0
 62
    33
 10
-5.9886775016784659
 20
1.9582220315933221
 30
-4.1068615913391113
 70
   192
  0
VERTEX
  5
28D
  8
0
 62
    33
 10
-5.9886775016784659
 20
1.9582220315933221
 30
-4.2527146339416504
 70
   192
  0
VERTEX
  5
28E
  8
0
 62
    33
 10
-5.791301727294921
 20
1.958222389221191
 30
-4.1121959686279288
 70
   192
  0
VERTEX
  5
28F
  8
0
 62
    33
 10
-5.6128854751586914
 20
1.9582225084304801
 30
-4.0229878425598136
 70
   192
  0
VERTEX
  5
290
  8
0
 62
    33
 10
-5.4920301437377921
 20
1.9582225084304801
 30
-3.8618483543395992
 70
   192
  0
VERTEX
  5
291
  8
0
 62
    33
 10
-5.4920306205749512
 20
1.9582225084304801
 30
-0.6176217198371888
 70
   192
  0
VERTEX
  5
292
  8
0
 62
    33
 10
-5.4548606872558594
 20
1.9582225084304801
 30
-0.5804520845413208
 70
   192
  0
VERTEX
  5
293
  8
0
 62
    33
 10
-5.3459944725036621
 20
1.9582228660583489
 30
-0.5804520845413208
 70
   192
  0
VERTEX
  5
294
  8
0
 62
    33
 10
-5.2689270973205558
 20
1.9582228660583489
 30
-0.4963778555393219
 70
   192
  0
VERTEX
  5
295
  8
0
 62
    33
 10
-5.2312517166137686
 20
1.9582228660583489
 30
-0.3995229303836822
 70
   192
  0
VERTEX
  5
296
  8
0
 62
    33
 10
-5.2312517166137686
 20
1.9582225084304801
 30
0.4535143077373505
 70
   192
  0
VERTEX
  5
297
  8
0
 62
    33
 10
-5.0089244842529288
 20
1.9582226276397701
 30
0.675841510295868
 70
   192
  0
VERTEX
  5
298
  8
0
 62
    33
 10
-5.8571143150329581
 20
1.4672226905822749
 30
-4.1068620681762686
 70
   192
  0
VERTEX
  5
299
  8
0
 62
    33
 10
-5.8571143150329581
 20
1.4672228097915641
 30
-4.2527151107788077
 70
   192
  0
VERTEX
  5
29A
  8
0
 62
    33
 10
-5.6861820220947257
 20
1.5659111738204949
 30
-4.1121959686279288
 70
   192
  0
VERTEX
  5
29B
  8
0
 62
    33
 10
-5.5316691398620597
 20
1.6551190614700311
 30
-4.0229883193969718
 70
   192
  0
VERTEX
  5
29C
  8
0
 62
    33
 10
-5.4270052909851074
 20
1.7155467271804801
 30
-3.8618485927581778
 70
   192
  0
VERTEX
  5
29D
  8
0
 62
    33
 10
-5.4270057678222647
 20
1.715546488761901
 30
-0.6176217794418335
 70
   192
  0
VERTEX
  5
29E
  8
0
 62
    33
 10
-5.3948159217834473
 20
1.734131336212158
 30
-0.5804522633552552
 70
   192
  0
VERTEX
  5
29F
  8
0
 62
    33
 10
-5.3005347251892081
 20
1.7885644435882559
 30
-0.5804520845413208
 70
   192
  0
VERTEX
  5
2A0
  8
0
 62
    33
 10
-5.2337918281555167
 20
1.8270986080169671
 30
-0.4963778853416443
 70
   192
  0
VERTEX
  5
2A1
  8
0
 62
    33
 10
-5.2011647224426261
 20
1.8459362983703611
 30
-0.3995229601860046
 70
   192
  0
VERTEX
  5
2A2
  8
0
 62
    33
 10
-5.2011647224426261
 20
1.8459361791610709
 30
0.4535146057605744
 70
   192
  0
VERTEX
  5
2A3
  8
0
 62
    33
 10
-5.0086240768432608
 20
1.957099914550781
 30
0.675841510295868
 70
   192
  0
VERTEX
  5
2A4
  8
0
 62
    33
 10
-5.4976782798767081
 20
1.1077867746353141
 30
-4.1068620681762686
 70
   192
  0
VERTEX
  5
2A5
  8
0
 62
    33
 10
-5.4976782798767081
 20
1.107786536216735
 30
-4.2527151107788077
 70
   192
  0
VERTEX
  5
2A6
  8
0
 62
    33
 10
-5.3989901542663574
 20
1.2787195444107049
 30
-4.1121959686279288
 70
   192
  0
VERTEX
  5
2A7
  8
0
 62
    33
 10
-5.3097810745239249
 20
1.433232069015502
 30
-4.0229883193969718
 70
   192
  0
VERTEX
  5
2A8
  8
0
 62
    33
 10
-5.2493538856506339
 20
1.5378957986831661
 30
-3.8618485927581778
 70
   192
  0
VERTEX
  5
2A9
  8
0
 62
    33
 10
-5.2493548393249512
 20
1.5378957986831661
 30
-0.6176218390464783
 70
   192
  0
VERTEX
  5
2AA
  8
0
 62
    33
 10
-5.2307701110839844
 20
1.5700855255126951
 30
-0.5804522633552552
 70
   192
  0
VERTEX
  5
2AB
  8
0
 62
    33
 10
-5.176337242126464
 20
1.664366602897644
 30
-0.5804521441459656
 70
   192
  0
VERTEX
  5
2AC
  8
0
 62
    33
 10
-5.1378026008605948
 20
1.731109380722045
 30
-0.4963779151439667
 70
   192
  0
VERTEX
  5
2AD
  8
0
 62
    33
 10
-5.1189651489257812
 20
1.763736724853515
 30
-0.3995229601860046
 70
   192
  0
VERTEX
  5
2AE
  8
0
 62
    33
 10
-5.1189651489257812
 20
1.763736724853515
 30
0.453514575958252
 70
   192
  0
VERTEX
  5
2AF
  8
0
 62
    33
 10
-5.0078020095825186
 20
1.9562778472900391
 30
0.675841510295868
 70
   192
  0
VERTEX
  5
2B0
  8
0
 62
    33
 10
-5.0066776275634757
 20
0.9762239456176757
 30
-4.1068620681762686
 70
   192
  0
VERTEX
  5
2B1
  8
0
 62
    33
 10
-5.0066776275634757
 20
0.9762239456176757
 30
-4.2527151107788077
 70
   192
  0
VERTEX
  5
2B2
  8
0
 62
    33
 10
-5.0066795349121094
 20
1.173600316047668
 30
-4.112196445465087
 70
   192
  0
VERTEX
  5
2B3
  8
0
 62
    33
 10
-5.0066795349121094
 20
1.3520162105560301
 30
-4.0229878425598136
 70
   192
  0
VERTEX
  5
2B4
  8
0
 62
    33
 10
-5.0066790580749512
 20
1.4728709459304801
 30
-3.8618485927581778
 70
   192
  0
VERTEX
  5
2B5
  8
0
 62
    33
 10
-5.0066795349121094
 20
1.472870707511901
 30
-0.6176218390464783
 70
   192
  0
VERTEX
  5
2B6
  8
0
 62
    33
 10
-5.0066795349121094
 20
1.510040760040283
 30
-0.5804521441459656
 70
   192
  0
VERTEX
  5
2B7
  8
0
 62
    33
 10
-5.0066795349121094
 20
1.61890709400177
 30
-0.5804521441459656
 70
   192
  0
VERTEX
  5
2B8
  8
0
 62
    33
 10
-5.0066790580749512
 20
1.695974588394165
 30
-0.4963780641555787
 70
   192
  0
VERTEX
  5
2B9
  8
0
 62
    33
 10
-5.0066790580749512
 20
1.7336498498916619
 30
-0.399522989988327
 70
   192
  0
VERTEX
  5
2BA
  8
0
 62
    33
 10
-5.0066785812377921
 20
1.733649730682373
 30
0.4535142779350281
 70
   192
  0
VERTEX
  5
2BB
  8
0
 62
    33
 10
-5.0066790580749512
 20
1.955976605415344
 30
0.675841510295868
 70
   192
  0
VERTEX
  5
2BC
  8
0
 62
    33
 10
-4.5156798362731934
 20
1.1077866554260249
 30
-4.1068601608276358
 70
   192
  0
VERTEX
  5
2BD
  8
0
 62
    33
 10
-4.5156798362731934
 20
1.1077867746353141
 30
-4.2527132034301749
 70
   192
  0
VERTEX
  5
2BE
  8
0
 62
    33
 10
-4.6143670082092276
 20
1.2787200212478631
 30
-4.1121954917907706
 70
   192
  0
VERTEX
  5
2BF
  8
0
 62
    33
 10
-4.7035751342773429
 20
1.4332324266433709
 30
-4.0229878425598136
 70
   192
  0
VERTEX
  5
2C0
  8
0
 62
    33
 10
-4.7640027999877921
 20
1.5378961563110349
 30
-3.8618485927581778
 70
   192
  0
VERTEX
  5
2C1
  8
0
 62
    33
 10
-4.7640037536621094
 20
1.537895560264587
 30
-0.6176217198371888
 70
   192
  0
VERTEX
  5
2C2
  8
0
 62
    33
 10
-4.7825889587402344
 20
1.570085644721984
 30
-0.5804520249366761
 70
   192
  0
VERTEX
  5
2C3
  8
0
 62
    33
 10
-4.8370213508605948
 20
1.664366602897644
 30
-0.5804520249366761
 70
   192
  0
VERTEX
  5
2C4
  8
0
 62
    33
 10
-4.8755555152893058
 20
1.7311092615127559
 30
-0.4963777959346772
 70
   192
  0
VERTEX
  5
2C5
  8
0
 62
    33
 10
-4.894392490386962
 20
1.7637366056442261
 30
-0.399522989988327
 70
   192
  0
VERTEX
  5
2C6
  8
0
 62
    33
 10
-4.894392490386962
 20
1.7637364864349361
 30
0.4535144865512848
 70
   192
  0
VERTEX
  5
2C7
  8
0
 62
    33
 10
-5.0055570602416992
 20
1.95627748966217
 30
0.675841510295868
 70
   192
  0
VERTEX
  5
2C8
  8
0
 62
    33
 10
-4.1562423706054679
 20
1.4672236442565909
 30
-4.1068601608276358
 70
   192
  0
VERTEX
  5
2C9
  8
0
 62
    33
 10
-4.1562423706054679
 20
1.46722412109375
 30
-4.2527132034301749
 70
   192
  0
VERTEX
  5
2CA
  8
0
 62
    33
 10
-4.3271751403808594
 20
1.5659117698669429
 30
-4.1121954917907706
 70
   192
  0
VERTEX
  5
2CB
  8
0
 62
    33
 10
-4.4816875457763672
 20
1.655119657516479
 30
-4.0229873657226562
 70
   192
  0
VERTEX
  5
2CC
  8
0
 62
    33
 10
-4.5863518714904776
 20
1.715547323226928
 30
-3.8618481159210201
 70
   192
  0
VERTEX
  5
2CD
  8
0
 62
    33
 10
-4.5863509178161621
 20
1.7155467271804801
 30
-0.6176217198371888
 70
   192
  0
VERTEX
  5
2CE
  8
0
 62
    33
 10
-4.618541717529296
 20
1.734131693840026
 30
-0.5804520249366761
 70
   192
  0
VERTEX
  5
2CF
  8
0
 62
    33
 10
-4.7128233909606934
 20
1.788564801216125
 30
-0.5804520249366761
 70
   192
  0
VERTEX
  5
2D0
  8
0
 62
    33
 10
-4.7795662879943839
 20
1.8270987272262571
 30
-0.4963777959346772
 70
   192
  0
VERTEX
  5
2D1
  8
0
 62
    33
 10
-4.8121933937072754
 20
1.8459361791610709
 30
-0.399522989988327
 70
   192
  0
VERTEX
  5
2D2
  8
0
 62
    33
 10
-4.8121933937072754
 20
1.8459358215332029
 30
0.4535144865512848
 70
   192
  0
VERTEX
  5
2D3
  8
0
 62
    33
 10
-5.0047340393066397
 20
1.957099080085754
 30
0.675841510295868
 70
   192
  0
VERTEX
  5
2D4
  8
0
 62
    33
 10
-4.375718116760253
 20
1.958221793174743
 30
0.4851545095443726
 70
   192
  0
VERTEX
  5
2D5
  8
0
 62
    33
 10
-4.375718116760253
 20
1.893154859542846
 30
0.5502212047576905
 70
   192
  0
VERTEX
  5
2D6
  8
0
 62
    33
 10
-4.375718116760253
 20
1.866203188896179
 30
0.4851545095443726
 70
   192
  0
VERTEX
  5
2D7
  8
0
 62
    33
 10
-4.375718116760253
 20
1.958221793174743
 30
0.5771728754043579
 70
   192
  0
VERTEX
  5
2D8
  8
0
 62
    33
 10
-4.3757176399230948
 20
2.0232880115509029
 30
0.5502210855484009
 70
   192
  0
VERTEX
  5
2D9
  8
0
 62
    33
 10
-4.3757176399230948
 20
2.0502395629882808
 30
0.4851545095443726
 70
   192
  0
VERTEX
  5
2DA
  8
0
 62
    33
 10
-4.3757176399230948
 20
2.0232880115509029
 30
0.4200881719589234
 70
   192
  0
VERTEX
  5
2DB
  8
0
 62
    33
 10
-4.375718116760253
 20
1.958221793174743
 30
0.3931366503238678
 70
   192
  0
VERTEX
  5
2DC
  8
0
 62
    33
 10
-4.375718116760253
 20
1.893154859542846
 30
0.420088142156601
 70
   192
  0
VERTEX
  5
2DD
  8
0
 62
    33
 10
-4.3534159660339347
 20
1.761598944664001
 30
0.4851544797420502
 70
   192
  0
VERTEX
  5
2DE
  8
0
 62
    33
 10
-7.2046613693237296
 20
1.819187998771667
 30
0.6241880059242249
 70
   192
  0
VERTEX
  5
2DF
  8
0
 62
    33
 10
-7.2046604156494141
 20
1.761598467826843
 30
0.4851545095443726
 70
   192
  0
VERTEX
  5
2E0
  8
0
 62
    33
 10
-4.3534159660339347
 20
1.8191883563995359
 30
0.6241878867149353
 70
   192
  0
VERTEX
  5
2E1
  8
0
 62
    33
 10
-7.2046613693237296
 20
1.958221316337585
 30
0.68177729845047
 70
   192
  0
VERTEX
  5
2E2
  8
0
 62
    33
 10
-4.3534159660339347
 20
1.958221793174743
 30
0.6817773580551148
 70
   192
  0
VERTEX
  5
2E3
  8
0
 62
    33
 10
-7.2046618461608878
 20
2.097254514694213
 30
0.6241880059242249
 70
   192
  0
VERTEX
  5
2E4
  8
0
 62
    33
 10
-4.3534169197082511
 20
2.0972549915313721
 30
0.6241879463195801
 70
   192
  0
VERTEX
  5
2E5
  8
0
 62
    33
 10
-7.2046618461608878
 20
2.154843568801879
 30
0.4851546883583069
 70
   192
  0
VERTEX
  5
2E6
  8
0
 62
    33
 10
-4.3534169197082511
 20
2.1548440456390381
 30
0.4851548075675965
 70
   192
  0
VERTEX
  5
2E7
  8
0
 62
    33
 10
-7.2046618461608878
 20
2.097254514694213
 30
0.3461219072341919
 70
   192
  0
VERTEX
  5
2E8
  8
0
 62
    33
 10
-4.3534164428710929
 20
2.0972549915313721
 30
0.3461218178272247
 70
   192
  0
VERTEX
  5
2E9
  8
0
 62
    33
 10
-7.204659938812255
 20
1.958221316337585
 30
0.2885323762893677
 70
   192
  0
VERTEX
  5
2EA
  8
0
 62
    33
 10
-4.3534159660339347
 20
1.958221793174743
 30
0.2885323464870453
 70
   192
  0
VERTEX
  5
2EB
  8
0
 62
    33
 10
-7.2046613693237296
 20
1.819188117980957
 30
0.3461218774318695
 70
   192
  0
VERTEX
  5
2EC
  8
0
 62
    33
 10
-4.3534159660339347
 20
1.8191883563995359
 30
0.3461217880249023
 70
   192
  0
VERTEX
  5
2ED
  8
0
 62
    33
 10
-7.1823592185974121
 20
1.958221316337585
 30
0.4851546585559845
 70
   192
  0
VERTEX
  5
2EE
  8
0
 62
    33
 10
-7.1823582649230948
 20
1.8662033081054681
 30
0.4851546585559845
 70
   192
  0
VERTEX
  5
2EF
  8
0
 62
    33
 10
-7.1823582649230948
 20
1.8931546211242669
 30
0.5502212643623352
 70
   192
  0
VERTEX
  5
2F0
  8
0
 62
    33
 10
-7.1823592185974121
 20
1.958221316337585
 30
0.5771731138229371
 70
   192
  0
VERTEX
  5
2F1
  8
0
 62
    33
 10
-7.1823592185974121
 20
2.0232880115509029
 30
0.5502215027809143
 70
   192
  0
VERTEX
  5
2F2
  8
0
 62
    33
 10
-7.1823592185974121
 20
2.0502393245697021
 30
0.4851546585559845
 70
   192
  0
VERTEX
  5
2F3
  8
0
 62
    33
 10
-7.1823592185974121
 20
2.0232880115509029
 30
0.4200882315635682
 70
   192
  0
VERTEX
  5
2F4
  8
0
 62
    33
 10
-7.1823592185974121
 20
1.958221316337585
 30
0.3931366801261902
 70
   192
  0
VERTEX
  5
2F5
  8
0
 62
    33
 10
-7.1823582649230948
 20
1.8931546211242669
 30
0.4200882315635682
 70
   192
  0
VERTEX
  5
2F6
  8
0
 62
    33
 10
0.0
 20
0.0
 30
0.0
 70
   128
 71
     1
 72
     2
 73
   -14
 74
    -1
  0
VERTEX
  5
2F7
  8
0
 62
    33
 10
0.0
 20
0.0
 30
0.0
 70
   128
 71
    14
 72
    13
 73
    -1
 74
   -14
  0
VERTEX
  5
2F8
  8
0
 62
    33
 10
0.0
 20
0.0
 30
0.0
 70
   128
 71
     2
 72
     3
 73
   -15
 74
    -2
  0
VERTEX
  5
2F9
  8
0
 62
    33
 10
0.0
 20
0.0
 30
0.0
 70
   128
 71
    15
 72
    14
 73
    -2
 74
   -15
  0
VERTEX
  5
2FA
  8
0
 62
    33
 10
0.0
 20
0.0
 30
0.0
 70
   128
 71
     3
 72
     4
 73
   -16
 74
    -3
  0
VERTEX
  5
2FB
  8
0
 62
    33
 10
0.0
 20
0.0
 30
0.0
 70
   128
 71
    16
 72
    15
 73
    -3
 74
   -16
  0
VERTEX
  5
2FC
  8
0
 62
    33
 10
0.0
 20
0.0
 30
0.0
 70
   128
 71
     4
 72
     5
 73
   -17
 74
    -4
  0
VERTEX
  5
2FD
  8
0
 62
    33
 10
0.0
 20
0.0
 30
0.0
 70
   128
 71
    17
 72
    16
 73
    -4
 74
   -17
  0
VERTEX
  5
2FE
  8
0
 62
    33
 10
0.0
 20
0.0
 30
0.0
 70
   128
 71
     5
 72
     6
 73
   -18
 74
    -5
  0
VERTEX
  5
2FF
  8
0
 62
    33
 10
0.0
 20
0.0
 30
0.0
 70
   128
 71
    18
 72
    17
 73
    -5
 74
   -18
  0
VERTEX
  5
300
  8
0
 62
    33
 10
0.0
 20
0.0
 30
0.0
 70
   128
 71
     6
 72
     7
 73
   -19
 74
    -6
  0
VERTEX
  5
301
  8
0
 62
    33
 10
0.0
 20
0.0
 30
0.0
 70
   128
 71
    19
 72
    18
 73
    -6
 74
   -19
  0
VERTEX
  5
302
  8
0
 62
    33
 10
0.0
 20
0.0
 30
0.0
 70
   128
 71
     7
 72
     8
 73
   -20
 74
    -7
  0
VERTEX
  5
303
  8
0
 62
    33
 10
0.0
 20
0.0
 30
0.0
 70
   128
 71
    20
 72
    19
 73
    -7
 74
   -20
  0
VERTEX
  5
304
  8
0
 62
    33
 10
0.0
 20
0.0
 30
0.0
 70
   128
 71
     8
 72
     9
 73
   -21
 74
    -8
  0
VERTEX
  5
305
  8
0
 62
    33
 10
0.0
 20
0.0
 30
0.0
 70
   128
 71
    21
 72
    20
 73
    -8
 74
   -21
  0
VERTEX
  5
306
  8
0
 62
    33
 10
0.0
 20
0.0
 30
0.0
 70
   128
 71
     9
 72
    10
 73
   -22
 74
    -9
  0
VERTEX
  5
307
  8
0
 62
    33
 10
0.0
 20
0.0
 30
0.0
 70
   128
 71
    22
 72
    21
 73
    -9
 74
   -22
  0
VERTEX
  5
308
  8
0
 62
    33
 10
0.0
 20
0.0
 30
0.0
 70
   128
 71
    10
 72
    11
 73
   -23
 74
   -10
  0
VERTEX
  5
309
  8
0
 62
    33
 10
0.0
 20
0.0
 30
0.0
 70
   128
 71
    23
 72
    22
 73
   -10
 74
   -23
  0
VERTEX
  5
30A
  8
0
 62
    33
 10
0.0
 20
0.0
 30
0.0
 70
   128
 71
    11
 72
    12
 73
   -24
 74
   -11
  0
VERTEX
  5
30B
  8
0
 62
    33
 10
0.0
 20
0.0
 30
0.0
 70
   128
 71
    24
 72
    23
 73
   -11
 74
   -24
  0
VERTEX
  5
30C
  8
0
 62
    33
 10
0.0
 20
0.0
 30
0.0
 70
   128
 71
    12
 72
     1
 73
   -13
 74
   -12
  0
VERTEX
  5
30D
  8
0
 62
    33
 10
0.0
 20
0.0
 30
0.0
 70
   128
 71
    13
 72
    24
 73
   -12
 74
   -13
  0
VERTEX
  5
30E
  8
0
 62
    33
 10
0.0
 20
0.0
 30
0.0
 70
   128
 71
    13
 72
    14
 73
   -26
 74
   -13
  0
VERTEX
  5
30F
  8
0
 62
    33
 10
0.0
 20
0.0
 30
0.0
 70
   128
 71
    26
 72
    25
 73
   -13
 74
   -26
  0
VERTEX
  5
310
  8
0
 62
    33
 10
0.0
 20
0.0
 30
0.0
 70
   128
 71
    14
 72
    15
 73
   -27
 74
   -14
  0
VERTEX
  5
311
  8
0
 62
    33
 10
0.0
 20
0.0
 30
0.0
 70
   128
 71
    27
 72
    26
 73
   -14
 74
   -27
  0
VERTEX
  5
312
  8
0
 62
    33
 10
0.0
 20
0.0
 30
0.0
 70
   128
 71
    15
 72
    16
 73
   -28
 74
   -15
  0
VERTEX
  5
313
  8
0
 62
    33
 10
0.0
 20
0.0
 30
0.0
 70
   128
 71
    28
 72
    27
 73
   -15
 74
   -28
  0
VERTEX
  5
314
  8
0
 62
    33
 10
0.0
 20
0.0
 30
0.0
 70
   128
 71
    16
 72
    17
 73
   -29
 74
   -16
  0
VERTEX
  5
315
  8
0
 62
    33
 10
0.0
 20
0.0
 30
0.0
 70
   128
 71
    29
 72
    28
 73
   -16
 74
   -29
  0
VERTEX
  5
316
  8
0
 62
    33
 10
0.0
 20
0.0
 30
0.0
 70
   128
 71
    17
 72
    18
 73
   -30
 74
   -17
  0
VERTEX
  5
317
  8
0
 62
    33
 10
0.0
 20
0.0
 30
0.0
 70
   128
 71
    30
 72
    29
 73
   -17
 74
   -30
  0
VERTEX
  5
318
  8
0
 62
    33
 10
0.0
 20
0.0
 30
0.0
 70
   128
 71
    18
 72
    19
 73
   -31
 74
   -18
  0
VERTEX
  5
319
  8
0
 62
    33
 10
0.0
 20
0.0
 30
0.0
 70
   128
 71
    31
 72
    30
 73
   -18
 74
   -31
  0
VERTEX
  5
31A
  8
0
 62
    33
 10
0.0
 20
0.0
 30
0.0
 70
   128
 71
    19
 72
    20
 73
   -32
 74
   -19
  0
VERTEX
  5
31B
  8
0
 62
    33
 10
0.0
 20
0.0
 30
0.0
 70
   128
 71
    32
 72
    31
 73
   -19
 74
   -32
  0
VERTEX
  5
31C
  8
0
 62
    33
 10
0.0
 20
0.0
 30
0.0
 70
   128
 71
    20
 72
    21
 73
   -33
 74
   -20
  0
VERTEX
  5
31D
  8
0
 62
    33
 10
0.0
 20
0.0
 30
0.0
 70
   128
 71
    33
 72
    32
 73
   -20
 74
   -33
  0
VERTEX
  5
31E
  8
0
 62
    33
 10
0.0
 20
0.0
 30
0.0
 70
   128
 71
    21
 72
    22
 73
   -34
 74
   -21
  0
VERTEX
  5
31F
  8
0
 62
    33
 10
0.0
 20
0.0
 30
0.0
 70
   128
 71
    34
 72
    33
 73
   -21
 74
   -34
  0
VERTEX
  5
320
  8
0
 62
    33
 10
0.0
 20
0.0
 30
0.0
 70
   128
 71
    22
 72
    23
 73
   -35
 74
   -22
  0
VERTEX
  5
321
  8
0
 62
    33
 10
0.0
 20
0.0
 30
0.0
 70
   128
 71
    35
 72
    34
 73
   -22
 74
   -35
  0
VERTEX
  5
322
  8
0
 62
    33
 10
0.0
 20
0.0
 30
0.0
 70
   128
 71
    23
 72
    24
 73
   -36
 74
   -23
  0
VERTEX
  5
323
  8
0
 62
    33
 10
0.0
 20
0.0
 30
0.0
 70
   128
 71
    36
 72
    35
 73
   -23
 74
   -36
  0
VERTEX
  5
324
  8
0
 62
    33
 10
0.0
 20
0.0
 30
0.0
 70
   128
 71
    24
 72
    13
 73
   -25
 74
   -24
  0
VERTEX
  5
325
  8
0
 62
    33
 10
0.0
 20
0.0
 30
0.0
 70
   128
 71
    25
 72
    36
 73
   -24
 74
   -25
  0
VERTEX
  5
326
  8
0
 62
    33
 10
0.0
 20
0.0
 30
0.0
 70
   128
 71
    25
 72
    26
 73
   -38
 74
   -25
  0
VERTEX
  5
327
  8
0
 62
    33
 10
0.0
 20
0.0
 30
0.0
 70
   128
 71
    38
 72
    37
 73
   -25
 74
   -38
  0
VERTEX
  5
328
  8
0
 62
    33
 10
0.0
 20
0.0
 30
0.0
 70
   128
 71
    26
 72
    27
 73
   -39
 74
   -26
  0
VERTEX
  5
329
  8
0
 62
    33
 10
0.0
 20
0.0
 30
0.0
 70
   128
 71
    39
 72
    38
 73
   -26
 74
   -39
  0
VERTEX
  5
32A
  8
0
 62
    33
 10
0.0
 20
0.0
 30
0.0
 70
   128
 71
    27
 72
    28
 73
   -40
 74
   -27
  0
VERTEX
  5
32B
  8
0
 62
    33
 10
0.0
 20
0.0
 30
0.0
 70
   128
 71
    40
 72
    39
 73
   -27
 74
   -40
  0
VERTEX
  5
32C
  8
0
 62
    33
 10
0.0
 20
0.0
 30
0.0
 70
   128
 71
    28
 72
    29
 73
   -41
 74
   -28
  0
VERTEX
  5
32D
  8
0
 62
    33
 10
0.0
 20
0.0
 30
0.0
 70
   128
 71
    41
 72
    40
 73
   -28
 74
   -41
  0
VERTEX
  5
32E
  8
0
 62
    33
 10
0.0
 20
0.0
 30
0.0
 70
   128
 71
    29
 72
    30
 73
   -42
 74
   -29
  0
VERTEX
  5
32F
  8
0
 62
    33
 10
0.0
 20
0.0
 30
0.0
 70
   128
 71
    42
 72
    41
 73
   -29
 74
   -42
  0
VERTEX
  5
330
  8
0
 62
    33
 10
0.0
 20
0.0
 30
0.0
 70
   128
 71
    30
 72
    31
 73
   -43
 74
   -30
  0
VERTEX
  5
331
  8
0
 62
    33
 10
0.0
 20
0.0
 30
0.0
 70
   128
 71
    43
 72
    42
 73
   -30
 74
   -43
  0
VERTEX
  5
332
  8
0
 62
    33
 10
0.0
 20
0.0
 30
0.0
 70
   128
 71
    31
 72
    32
 73
   -44
 74
   -31
  0
VERTEX
  5
333
  8
0
 62
    33
 10
0.0
 20
0.0
 30
0.0
 70
   128
 71
    44
 72
    43
 73
   -31
 74
   -44
  0
VERTEX
  5
334
  8
0
 62
    33
 10
0.0
 20
0.0
 30
0.0
 70
   128
 71
    32
 72
    33
 73
   -45
 74
   -32
  0
VERTEX
  5
335
  8
0
 62
    33
 10
0.0
 20
0.0
 30
0.0
 70
   128
 71
    45
 72
    44
 73
   -32
 74
   -45
  0
VERTEX
  5
336
  8
0
 62
    33
 10
0.0
 20
0.0
 30
0.0
 70
   128
 71
    33
 72
    34
 73
   -46
 74
   -33
  0
VERTEX
  5
337
  8
0
 62
    33
 10
0.0
 20
0.0
 30
0.0
 70
   128
 71
    46
 72
    45
 73
   -33
 74
   -46
  0
VERTEX
  5
338
  8
0
 62
    33
 10
0.0
 20
0.0
 30
0.0
 70
   128
 71
    34
 72
    35
 73
   -47
 74
   -34
  0
VERTEX
  5
339
  8
0
 62
    33
 10
0.0
 20
0.0
 30
0.0
 70
   128
 71
    47
 72
    46
 73
   -34
 74
   -47
  0
VERTEX
  5
33A
  8
0
 62
    33
 10
0.0
 20
0.0
 30
0.0
 70
   128
 71
    35
 72
    36
 73
   -48
 74
   -35
  0
VERTEX
  5
33B
  8
0
 62
    33
 10
0.0
 20
0.0
 30
0.0
 70
   128
 71
    48
 72
    47
 73
   -35
 74
   -48
  0
VERTEX
  5
33C
  8
0
 62
    33
 10
0.0
 20
0.0
 30
0.0
 70
   128
 71
    36
 72
    25
 73
   -37
 74
   -36
  0
VERTEX
  5
33D
  8
0
 62
    33
 10
0.0
 20
0.0
 30
0.0
 70
   128
 71
    37
 72
    48
 73
   -36
 74
   -37
  0
VERTEX
  5
33E
  8
0
 62
    33
 10
0.0
 20
0.0
 30
0.0
 70
   128
 71
    37
 72
    38
 73
   -50
 74
   -37
  0
VERTEX
  5
33F
  8
0
 62
    33
 10
0.0
 20
0.0
 30
0.0
 70
   128
 71
    50
 72
    49
 73
   -37
 74
   -50
  0
VERTEX
  5
340
  8
0
 62
    33
 10
0.0
 20
0.0
 30
0.0
 70
   128
 71
    38
 72
    39
 73
   -51
 74
   -38
  0
VERTEX
  5
341
  8
0
 62
    33
 10
0.0
 20
0.0
 30
0.0
 70
   128
 71
    51
 72
    50
 73
   -38
 74
   -51
  0
VERTEX
  5
342
  8
0
 62
    33
 10
0.0
 20
0.0
 30
0.0
 70
   128
 71
    39
 72
    40
 73
   -52
 74
   -39
  0
VERTEX
  5
343
  8
0
 62
    33
 10
0.0
 20
0.0
 30
0.0
 70
   128
 71
    52
 72
    51
 73
   -39
 74
   -52
  0
VERTEX
  5
344
  8
0
 62
    33
 10
0.0
 20
0.0
 30
0.0
 70
   128
 71
    40
 72
    41
 73
   -53
 74
   -40
  0
VERTEX
  5
345
  8
0
 62
    33
 10
0.0
 20
0.0
 30
0.0
 70
   128
 71
    53
 72
    52
 73
   -40
 74
   -53
  0
VERTEX
  5
346
  8
0
 62
    33
 10
0.0
 20
0.0
 30
0.0
 70
   128
 71
    41
 72
    42
 73
   -54
 74
   -41
  0
VERTEX
  5
347
  8
0
 62
    33
 10
0.0
 20
0.0
 30
0.0
 70
   128
 71
    54
 72
    53
 73
   -41
 74
   -54
  0
VERTEX
  5
348
  8
0
 62
    33
 10
0.0
 20
0.0
 30
0.0
 70
   128
 71
    42
 72
    43
 73
   -55
 74
   -42
  0
VERTEX
  5
349
  8
0
 62
    33
 10
0.0
 20
0.0
 30
0.0
 70
   128
 71
    55
 72
    54
 73
   -42
 74
   -55
  0
VERTEX
  5
34A
  8
0
 62
    33
 10
0.0
 20
0.0
 30
0.0
 70
   128
 71
    43
 72
    44
 73
   -56
 74
   -43
  0
VERTEX
  5
34B
  8
0
 62
    33
 10
0.0
 20
0.0
 30
0.0
 70
   128
 71
    56
 72
    55
 73
   -43
 74
   -56
  0
VERTEX
  5
34C
  8
0
 62
    33
 10
0.0
 20
0.0
 30
0.0
 70
   128
 71
    44
 72
    45
 73
   -57
 74
   -44
  0
VERTEX
  5
34D
  8
0
 62
    33
 10
0.0
 20
0.0
 30
0.0
 70
   128
 71
    57
 72
    56
 73
   -44
 74
   -57
  0
VERTEX
  5
34E
  8
0
 62
    33
 10
0.0
 20
0.0
 30
0.0
 70
   128
 71
    45
 72
    46
 73
   -58
 74
   -45
  0
VERTEX
  5
34F
  8
0
 62
    33
 10
0.0
 20
0.0
 30
0.0
 70
   128
 71
    58
 72
    57
 73
   -45
 74
   -58
  0
VERTEX
  5
350
  8
0
 62
    33
 10
0.0
 20
0.0
 30
0.0
 70
   128
 71
    46
 72
    47
 73
   -59
 74
   -46
  0
VERTEX
  5
351
  8
0
 62
    33
 10
0.0
 20
0.0
 30
0.0
 70
   128
 71
    59
 72
    58
 73
   -46
 74
   -59
  0
VERTEX
  5
352
  8
0
 62
    33
 10
0.0
 20
0.0
 30
0.0
 70
   128
 71
    47
 72
    48
 73
   -60
 74
   -47
  0
VERTEX
  5
353
  8
0
 62
    33
 10
0.0
 20
0.0
 30
0.0
 70
   128
 71
    60
 72
    59
 73
   -47
 74
   -60
  0
VERTEX
  5
354
  8
0
 62
    33
 10
0.0
 20
0.0
 30
0.0
 70
   128
 71
    48
 72
    37
 73
   -49
 74
   -48
  0
VERTEX
  5
355
  8
0
 62
    33
 10
0.0
 20
0.0
 30
0.0
 70
   128
 71
    49
 72
    60
 73
   -48
 74
   -49
  0
VERTEX
  5
356
  8
0
 62
    33
 10
0.0
 20
0.0
 30
0.0
 70
   128
 71
    49
 72
    50
 73
   -62
 74
   -49
  0
VERTEX
  5
357
  8
0
 62
    33
 10
0.0
 20
0.0
 30
0.0
 70
   128
 71
    62
 72
    61
 73
   -49
 74
   -62
  0
VERTEX
  5
358
  8
0
 62
    33
 10
0.0
 20
0.0
 30
0.0
 70
   128
 71
    50
 72
    51
 73
   -63
 74
   -50
  0
VERTEX
  5
359
  8
0
 62
    33
 10
0.0
 20
0.0
 30
0.0
 70
   128
 71
    63
 72
    62
 73
   -50
 74
   -63
  0
VERTEX
  5
35A
  8
0
 62
    33
 10
0.0
 20
0.0
 30
0.0
 70
   128
 71
    51
 72
    52
 73
   -64
 74
   -51
  0
VERTEX
  5
35B
  8
0
 62
    33
 10
0.0
 20
0.0
 30
0.0
 70
   128
 71
    64
 72
    63
 73
   -51
 74
   -64
  0
VERTEX
  5
35C
  8
0
 62
    33
 10
0.0
 20
0.0
 30
0.0
 70
   128
 71
    52
 72
    53
 73
   -65
 74
   -52
  0
VERTEX
  5
35D
  8
0
 62
    33
 10
0.0
 20
0.0
 30
0.0
 70
   128
 71
    65
 72
    64
 73
   -52
 74
   -65
  0
VERTEX
  5
35E
  8
0
 62
    33
 10
0.0
 20
0.0
 30
0.0
 70
   128
 71
    53
 72
    54
 73
   -66
 74
   -53
  0
VERTEX
  5
35F
  8
0
 62
    33
 10
0.0
 20
0.0
 30
0.0
 70
   128
 71
    66
 72
    65
 73
   -53
 74
   -66
  0
VERTEX
  5
360
  8
0
 62
    33
 10
0.0
 20
0.0
 30
0.0
 70
   128
 71
    54
 72
    55
 73
   -67
 74
   -54
  0
VERTEX
  5
361
  8
0
 62
    33
 10
0.0
 20
0.0
 30
0.0
 70
   128
 71
    67
 72
    66
 73
   -54
 74
   -67
  0
VERTEX
  5
362
  8
0
 62
    33
 10
0.0
 20
0.0
 30
0.0
 70
   128
 71
    55
 72
    56
 73
   -68
 74
   -55
  0
VERTEX
  5
363
  8
0
 62
    33
 10
0.0
 20
0.0
 30
0.0
 70
   128
 71
    68
 72
    67
 73
   -55
 74
   -68
  0
VERTEX
  5
364
  8
0
 62
    33
 10
0.0
 20
0.0
 30
0.0
 70
   128
 71
    56
 72
    57
 73
   -69
 74
   -56
  0
VERTEX
  5
365
  8
0
 62
    33
 10
0.0
 20
0.0
 30
0.0
 70
   128
 71
    69
 72
    68
 73
   -56
 74
   -69
  0
VERTEX
  5
366
  8
0
 62
    33
 10
0.0
 20
0.0
 30
0.0
 70
   128
 71
    57
 72
    58
 73
   -70
 74
   -57
  0
VERTEX
  5
367
  8
0
 62
    33
 10
0.0
 20
0.0
 30
0.0
 70
   128
 71
    70
 72
    69
 73
   -57
 74
   -70
  0
VERTEX
  5
368
  8
0
 62
    33
 10
0.0
 20
0.0
 30
0.0
 70
   128
 71
    58
 72
    59
 73
   -71
 74
   -58
  0
VERTEX
  5
369
  8
0
 62
    33
 10
0.0
 20
0.0
 30
0.0
 70
   128
 71
    71
 72
    70
 73
   -58
 74
   -71
  0
VERTEX
  5
36A
  8
0
 62
    33
 10
0.0
 20
0.0
 30
0.0
 70
   128
 71
    59
 72
    60
 73
   -72
 74
   -59
  0
VERTEX
  5
36B
  8
0
 62
    33
 10
0.0
 20
0.0
 30
0.0
 70
   128
 71
    72
 72
    71
 73
   -59
 74
   -72
  0
VERTEX
  5
36C
  8
0
 62
    33
 10
0.0
 20
0.0
 30
0.0
 70
   128
 71
    60
 72
    49
 73
   -61
 74
   -60
  0
VERTEX
  5
36D
  8
0
 62
    33
 10
0.0
 20
0.0
 30
0.0
 70
   128
 71
    61
 72
    72
 73
   -60
 74
   -61
  0
VERTEX
  5
36E
  8
0
 62
    33
 10
0.0
 20
0.0
 30
0.0
 70
   128
 71
    61
 72
    62
 73
   -74
 74
   -61
  0
VERTEX
  5
36F
  8
0
 62
    33
 10
0.0
 20
0.0
 30
0.0
 70
   128
 71
    74
 72
    73
 73
   -61
 74
   -74
  0
VERTEX
  5
370
  8
0
 62
    33
 10
0.0
 20
0.0
 30
0.0
 70
   128
 71
    62
 72
    63
 73
   -75
 74
   -62
  0
VERTEX
  5
371
  8
0
 62
    33
 10
0.0
 20
0.0
 30
0.0
 70
   128
 71
    75
 72
    74
 73
   -62
 74
   -75
  0
VERTEX
  5
372
  8
0
 62
    33
 10
0.0
 20
0.0
 30
0.0
 70
   128
 71
    63
 72
    64
 73
   -76
 74
   -63
  0
VERTEX
  5
373
  8
0
 62
    33
 10
0.0
 20
0.0
 30
0.0
 70
   128
 71
    76
 72
    75
 73
   -63
 74
   -76
  0
VERTEX
  5
374
  8
0
 62
    33
 10
0.0
 20
0.0
 30
0.0
 70
   128
 71
    64
 72
    65
 73
   -77
 74
   -64
  0
VERTEX
  5
375
  8
0
 62
    33
 10
0.0
 20
0.0
 30
0.0
 70
   128
 71
    77
 72
    76
 73
   -64
 74
   -77
  0
VERTEX
  5
376
  8
0
 62
    33
 10
0.0
 20
0.0
 30
0.0
 70
   128
 71
    65
 72
    66
 73
   -78
 74
   -65
  0
VERTEX
  5
377
  8
0
 62
    33
 10
0.0
 20
0.0
 30
0.0
 70
   128
 71
    78
 72
    77
 73
   -65
 74
   -78
  0
VERTEX
  5
378
  8
0
 62
    33
 10
0.0
 20
0.0
 30
0.0
 70
   128
 71
    66
 72
    67
 73
   -79
 74
   -66
  0
VERTEX
  5
379
  8
0
 62
    33
 10
0.0
 20
0.0
 30
0.0
 70
   128
 71
    79
 72
    78
 73
   -66
 74
   -79
  0
VERTEX
  5
37A
  8
0
 62
    33
 10
0.0
 20
0.0
 30
0.0
 70
   128
 71
    67
 72
    68
 73
   -80
 74
   -67
  0
VERTEX
  5
37B
  8
0
 62
    33
 10
0.0
 20
0.0
 30
0.0
 70
   128
 71
    80
 72
    79
 73
   -67
 74
   -80
  0
VERTEX
  5
37C
  8
0
 62
    33
 10
0.0
 20
0.0
 30
0.0
 70
   128
 71
    68
 72
    69
 73
   -81
 74
   -68
  0
VERTEX
  5
37D
  8
0
 62
    33
 10
0.0
 20
0.0
 30
0.0
 70
   128
 71
    81
 72
    80
 73
   -68
 74
   -81
  0
VERTEX
  5
37E
  8
0
 62
    33
 10
0.0
 20
0.0
 30
0.0
 70
   128
 71
    69
 72
    70
 73
   -82
 74
   -69
  0
VERTEX
  5
37F
  8
0
 62
    33
 10
0.0
 20
0.0
 30
0.0
 70
   128
 71
    82
 72
    81
 73
   -69
 74
   -82
  0
VERTEX
  5
380
  8
0
 62
    33
 10
0.0
 20
0.0
 30
0.0
 70
   128
 71
    70
 72
    71
 73
   -83
 74
   -70
  0
VERTEX
  5
381
  8
0
 62
    33
 10
0.0
 20
0.0
 30
0.0
 70
   128
 71
    83
 72
    82
 73
   -70
 74
   -83
  0
VERTEX
  5
382
  8
0
 62
    33
 10
0.0
 20
0.0
 30
0.0
 70
   128
 71
    71
 72
    72
 73
   -84
 74
   -71
  0
VERTEX
  5
383
  8
0
 62
    33
 10
0.0
 20
0.0
 30
0.0
 70
   128
 71
    84
 72
    83
 73
   -71
 74
   -84
  0
VERTEX
  5
384
  8
0
 62
    33
 10
0.0
 20
0.0
 30
0.0
 70
   128
 71
    72
 72
    61
 73
   -73
 74
   -72
  0
VERTEX
  5
385
  8
0
 62
    33
 10
0.0
 20
0.0
 30
0.0
 70
   128
 71
    73
 72
    84
 73
   -72
 74
   -73
  0
VERTEX
  5
386
  8
0
 62
    33
 10
0.0
 20
0.0
 30
0.0
 70
   128
 71
    73
 72
    74
 73
   -86
 74
   -73
  0
VERTEX
  5
387
  8
0
 62
    33
 10
0.0
 20
0.0
 30
0.0
 70
   128
 71
    86
 72
    85
 73
   -73
 74
   -86
  0
VERTEX
  5
388
  8
0
 62
    33
 10
0.0
 20
0.0
 30
0.0
 70
   128
 71
    74
 72
    75
 73
   -87
 74
   -74
  0
VERTEX
  5
389
  8
0
 62
    33
 10
0.0
 20
0.0
 30
0.0
 70
   128
 71
    87
 72
    86
 73
   -74
 74
   -87
  0
VERTEX
  5
38A
  8
0
 62
    33
 10
0.0
 20
0.0
 30
0.0
 70
   128
 71
    75
 72
    76
 73
   -88
 74
   -75
  0
VERTEX
  5
38B
  8
0
 62
    33
 10
0.0
 20
0.0
 30
0.0
 70
   128
 71
    88
 72
    87
 73
   -75
 74
   -88
  0
VERTEX
  5
38C
  8
0
 62
    33
 10
0.0
 20
0.0
 30
0.0
 70
   128
 71
    76
 72
    77
 73
   -89
 74
   -76
  0
VERTEX
  5
38D
  8
0
 62
    33
 10
0.0
 20
0.0
 30
0.0
 70
   128
 71
    89
 72
    88
 73
   -76
 74
   -89
  0
VERTEX
  5
38E
  8
0
 62
    33
 10
0.0
 20
0.0
 30
0.0
 70
   128
 71
    77
 72
    78
 73
   -90
 74
   -77
  0
VERTEX
  5
38F
  8
0
 62
    33
 10
0.0
 20
0.0
 30
0.0
 70
   128
 71
    90
 72
    89
 73
   -77
 74
   -90
  0
VERTEX
  5
390
  8
0
 62
    33
 10
0.0
 20
0.0
 30
0.0
 70
   128
 71
    78
 72
    79
 73
   -91
 74
   -78
  0
VERTEX
  5
391
  8
0
 62
    33
 10
0.0
 20
0.0
 30
0.0
 70
   128
 71
    91
 72
    90
 73
   -78
 74
   -91
  0
VERTEX
  5
392
  8
0
 62
    33
 10
0.0
 20
0.0
 30
0.0
 70
   128
 71
    79
 72
    80
 73
   -92
 74
   -79
  0
VERTEX
  5
393
  8
0
 62
    33
 10
0.0
 20
0.0
 30
0.0
 70
   128
 71
    92
 72
    91
 73
   -79
 74
   -92
  0
VERTEX
  5
394
  8
0
 62
    33
 10
0.0
 20
0.0
 30
0.0
 70
   128
 71
    80
 72
    81
 73
   -93
 74
   -80
  0
VERTEX
  5
395
  8
0
 62
    33
 10
0.0
 20
0.0
 30
0.0
 70
   128
 71
    93
 72
    92
 73
   -80
 74
   -93
  0
VERTEX
  5
396
  8
0
 62
    33
 10
0.0
 20
0.0
 30
0.0
 70
   128
 71
    81
 72
    82
 73
   -94
 74
   -81
  0
VERTEX
  5
397
  8
0
 62
    33
 10
0.0
 20
0.0
 30
0.0
 70
   128
 71
    94
 72
    93
 73
   -81
 74
   -94
  0
VERTEX
  5
398
  8
0
 62
    33
 10
0.0
 20
0.0
 30
0.0
 70
   128
 71
    82
 72
    83
 73
   -95
 74
   -82
  0
VERTEX
  5
399
  8
0
 62
    33
 10
0.0
 20
0.0
 30
0.0
 70
   128
 71
    95
 72
    94
 73
   -82
 74
   -95
  0
VERTEX
  5
39A
  8
0
 62
    33
 10
0.0
 20
0.0
 30
0.0
 70
   128
 71
    83
 72
    84
 73
   -96
 74
   -83
  0
VERTEX
  5
39B
  8
0
 62
    33
 10
0.0
 20
0.0
 30
0.0
 70
   128
 71
    96
 72
    95
 73
   -83
 74
   -96
  0
VERTEX
  5
39C
  8
0
 62
    33
 10
0.0
 20
0.0
 30
0.0
 70
   128
 71
    84
 72
    73
 73
   -85
 74
   -84
  0
VERTEX
  5
39D
  8
0
 62
    33
 10
0.0
 20
0.0
 30
0.0
 70
   128
 71
    85
 72
    96
 73
   -84
 74
   -85
  0
VERTEX
  5
39E
  8
0
 62
    33
 10
0.0
 20
0.0
 30
0.0
 70
   128
 71
    85
 72
    86
 73
   -98
 74
   -85
  0
VERTEX
  5
39F
  8
0
 62
    33
 10
0.0
 20
0.0
 30
0.0
 70
   128
 71
    98
 72
    97
 73
   -85
 74
   -98
  0
VERTEX
  5
3A0
  8
0
 62
    33
 10
0.0
 20
0.0
 30
0.0
 70
   128
 71
    86
 72
    87
 73
   -99
 74
   -86
  0
VERTEX
  5
3A1
  8
0
 62
    33
 10
0.0
 20
0.0
 30
0.0
 70
   128
 71
    99
 72
    98
 73
   -86
 74
   -99
  0
VERTEX
  5
3A2
  8
0
 62
    33
 10
0.0
 20
0.0
 30
0.0
 70
   128
 71
    87
 72
    88
 73
  -100
 74
   -87
  0
VERTEX
  5
3A3
  8
0
 62
    33
 10
0.0
 20
0.0
 30
0.0
 70
   128
 71
   100
 72
    99
 73
   -87
 74
  -100
  0
VERTEX
  5
3A4
  8
0
 62
    33
 10
0.0
 20
0.0
 30
0.0
 70
   128
 71
    88
 72
    89
 73
  -101
 74
   -88
  0
VERTEX
  5
3A5
  8
0
 62
    33
 10
0.0
 20
0.0
 30
0.0
 70
   128
 71
   101
 72
   100
 73
   -88
 74
  -101
  0
VERTEX
  5
3A6
  8
0
 62
    33
 10
0.0
 20
0.0
 30
0.0
 70
   128
 71
    89
 72
    90
 73
  -102
 74
   -89
  0
VERTEX
  5
3A7
  8
0
 62
    33
 10
0.0
 20
0.0
 30
0.0
 70
   128
 71
   102
 72
   101
 73
   -89
 74
  -102
  0
VERTEX
  5
3A8
  8
0
 62
    33
 10
0.0
 20
0.0
 30
0.0
 70
   128
 71
    90
 72
    91
 73
  -103
 74
   -90
  0
VERTEX
  5
3A9
  8
0
 62
    33
 10
0.0
 20
0.0
 30
0.0
 70
   128
 71
   103
 72
   102
 73
   -90
 74
  -103
  0
VERTEX
  5
3AA
  8
0
 62
    33
 10
0.0
 20
0.0
 30
0.0
 70
   128
 71
    91
 72
    92
 73
  -104
 74
   -91
  0
VERTEX
  5
3AB
  8
0
 62
    33
 10
0.0
 20
0.0
 30
0.0
 70
   128
 71
   104
 72
   103
 73
   -91
 74
  -104
  0
VERTEX
  5
3AC
  8
0
 62
    33
 10
0.0
 20
0.0
 30
0.0
 70
   128
 71
    92
 72
    93
 73
  -105
 74
   -92
  0
VERTEX
  5
3AD
  8
0
 62
    33
 10
0.0
 20
0.0
 30
0.0
 70
   128
 71
   105
 72
   104
 73
   -92
 74
  -105
  0
VERTEX
  5
3AE
  8
0
 62
    33
 10
0.0
 20
0.0
 30
0.0
 70
   128
 71
    93
 72
    94
 73
  -106
 74
   -93
  0
VERTEX
  5
3AF
  8
0
 62
    33
 10
0.0
 20
0.0
 30
0.0
 70
   128
 71
   106
 72
   105
 73
   -93
 74
  -106
  0
VERTEX
  5
3B0
  8
0
 62
    33
 10
0.0
 20
0.0
 30
0.0
 70
   128
 71
    94
 72
    95
 73
  -107
 74
   -94
  0
VERTEX
  5
3B1
  8
0
 62
    33
 10
0.0
 20
0.0
 30
0.0
 70
   128
 71
   107
 72
   106
 73
   -94
 74
  -107
  0
VERTEX
  5
3B2
  8
0
 62
    33
 10
0.0
 20
0.0
 30
0.0
 70
   128
 71
    95
 72
    96
 73
  -108
 74
   -95
  0
VERTEX
  5
3B3
  8
0
 62
    33
 10
0.0
 20
0.0
 30
0.0
 70
   128
 71
   108
 72
   107
 73
   -95
 74
  -108
  0
VERTEX
  5
3B4
  8
0
 62
    33
 10
0.0
 20
0.0
 30
0.0
 70
   128
 71
    96
 72
    85
 73
   -97
 74
   -96
  0
VERTEX
  5
3B5
  8
0
 62
    33
 10
0.0
 20
0.0
 30
0.0
 70
   128
 71
    97
 72
   108
 73
   -96
 74
   -97
  0
VERTEX
  5
3B6
  8
0
 62
    33
 10
0.0
 20
0.0
 30
0.0
 70
   128
 71
    97
 72
    98
 73
  -110
 74
   -97
  0
VERTEX
  5
3B7
  8
0
 62
    33
 10
0.0
 20
0.0
 30
0.0
 70
   128
 71
   110
 72
   109
 73
   -97
 74
  -110
  0
VERTEX
  5
3B8
  8
0
 62
    33
 10
0.0
 20
0.0
 30
0.0
 70
   128
 71
    98
 72
    99
 73
  -111
 74
   -98
  0
VERTEX
  5
3B9
  8
0
 62
    33
 10
0.0
 20
0.0
 30
0.0
 70
   128
 71
   111
 72
   110
 73
   -98
 74
  -111
  0
VERTEX
  5
3BA
  8
0
 62
    33
 10
0.0
 20
0.0
 30
0.0
 70
   128
 71
    99
 72
   100
 73
  -112
 74
   -99
  0
VERTEX
  5
3BB
  8
0
 62
    33
 10
0.0
 20
0.0
 30
0.0
 70
   128
 71
   112
 72
   111
 73
   -99
 74
  -112
  0
VERTEX
  5
3BC
  8
0
 62
    33
 10
0.0
 20
0.0
 30
0.0
 70
   128
 71
   100
 72
   101
 73
  -113
 74
  -100
  0
VERTEX
  5
3BD
  8
0
 62
    33
 10
0.0
 20
0.0
 30
0.0
 70
   128
 71
   113
 72
   112
 73
  -100
 74
  -113
  0
VERTEX
  5
3BE
  8
0
 62
    33
 10
0.0
 20
0.0
 30
0.0
 70
   128
 71
   101
 72
   102
 73
  -114
 74
  -101
  0
VERTEX
  5
3BF
  8
0
 62
    33
 10
0.0
 20
0.0
 30
0.0
 70
   128
 71
   114
 72
   113
 73
  -101
 74
  -114
  0
VERTEX
  5
3C0
  8
0
 62
    33
 10
0.0
 20
0.0
 30
0.0
 70
   128
 71
   102
 72
   103
 73
  -115
 74
  -102
  0
VERTEX
  5
3C1
  8
0
 62
    33
 10
0.0
 20
0.0
 30
0.0
 70
   128
 71
   115
 72
   114
 73
  -102
 74
  -115
  0
VERTEX
  5
3C2
  8
0
 62
    33
 10
0.0
 20
0.0
 30
0.0
 70
   128
 71
   103
 72
   104
 73
  -116
 74
  -103
  0
VERTEX
  5
3C3
  8
0
 62
    33
 10
0.0
 20
0.0
 30
0.0
 70
   128
 71
   116
 72
   115
 73
  -103
 74
  -116
  0
VERTEX
  5
3C4
  8
0
 62
    33
 10
0.0
 20
0.0
 30
0.0
 70
   128
 71
   104
 72
   105
 73
  -117
 74
  -104
  0
VERTEX
  5
3C5
  8
0
 62
    33
 10
0.0
 20
0.0
 30
0.0
 70
   128
 71
   117
 72
   116
 73
  -104
 74
  -117
  0
VERTEX
  5
3C6
  8
0
 62
    33
 10
0.0
 20
0.0
 30
0.0
 70
   128
 71
   105
 72
   106
 73
  -118
 74
  -105
  0
VERTEX
  5
3C7
  8
0
 62
    33
 10
0.0
 20
0.0
 30
0.0
 70
   128
 71
   118
 72
   117
 73
  -105
 74
  -118
  0
VERTEX
  5
3C8
  8
0
 62
    33
 10
0.0
 20
0.0
 30
0.0
 70
   128
 71
   106
 72
   107
 73
  -119
 74
  -106
  0
VERTEX
  5
3C9
  8
0
 62
    33
 10
0.0
 20
0.0
 30
0.0
 70
   128
 71
   119
 72
   118
 73
  -106
 74
  -119
  0
VERTEX
  5
3CA
  8
0
 62
    33
 10
0.0
 20
0.0
 30
0.0
 70
   128
 71
   107
 72
   108
 73
  -120
 74
  -107
  0
VERTEX
  5
3CB
  8
0
 62
    33
 10
0.0
 20
0.0
 30
0.0
 70
   128
 71
   120
 72
   119
 73
  -107
 74
  -120
  0
VERTEX
  5
3CC
  8
0
 62
    33
 10
0.0
 20
0.0
 30
0.0
 70
   128
 71
   108
 72
    97
 73
  -109
 74
  -108
  0
VERTEX
  5
3CD
  8
0
 62
    33
 10
0.0
 20
0.0
 30
0.0
 70
   128
 71
   109
 72
   120
 73
  -108
 74
  -109
  0
VERTEX
  5
3CE
  8
0
 62
    33
 10
0.0
 20
0.0
 30
0.0
 70
   128
 71
   109
 72
   110
 73
  -394
 74
  -109
  0
VERTEX
  5
3CF
  8
0
 62
    33
 10
0.0
 20
0.0
 30
0.0
 70
   128
 71
   394
 72
   393
 73
  -109
 74
  -394
  0
VERTEX
  5
3D0
  8
0
 62
    33
 10
0.0
 20
0.0
 30
0.0
 70
   128
 71
   110
 72
   111
 73
  -395
 74
  -110
  0
VERTEX
  5
3D1
  8
0
 62
    33
 10
0.0
 20
0.0
 30
0.0
 70
   128
 71
   395
 72
   394
 73
  -110
 74
  -395
  0
VERTEX
  5
3D2
  8
0
 62
    33
 10
0.0
 20
0.0
 30
0.0
 70
   128
 71
   111
 72
   112
 73
  -396
 74
  -111
  0
VERTEX
  5
3D3
  8
0
 62
    33
 10
0.0
 20
0.0
 30
0.0
 70
   128
 71
   396
 72
   395
 73
  -111
 74
  -396
  0
VERTEX
  5
3D4
  8
0
 62
    33
 10
0.0
 20
0.0
 30
0.0
 70
   128
 71
   112
 72
   113
 73
  -397
 74
  -112
  0
VERTEX
  5
3D5
  8
0
 62
    33
 10
0.0
 20
0.0
 30
0.0
 70
   128
 71
   397
 72
   396
 73
  -112
 74
  -397
  0
VERTEX
  5
3D6
  8
0
 62
    33
 10
0.0
 20
0.0
 30
0.0
 70
   128
 71
   113
 72
   114
 73
  -398
 74
  -113
  0
VERTEX
  5
3D7
  8
0
 62
    33
 10
0.0
 20
0.0
 30
0.0
 70
   128
 71
   398
 72
   397
 73
  -113
 74
  -398
  0
VERTEX
  5
3D8
  8
0
 62
    33
 10
0.0
 20
0.0
 30
0.0
 70
   128
 71
   114
 72
   115
 73
  -399
 74
  -114
  0
VERTEX
  5
3D9
  8
0
 62
    33
 10
0.0
 20
0.0
 30
0.0
 70
   128
 71
   399
 72
   398
 73
  -114
 74
  -399
  0
VERTEX
  5
3DA
  8
0
 62
    33
 10
0.0
 20
0.0
 30
0.0
 70
   128
 71
   115
 72
   116
 73
  -400
 74
  -115
  0
VERTEX
  5
3DB
  8
0
 62
    33
 10
0.0
 20
0.0
 30
0.0
 70
   128
 71
   400
 72
   399
 73
  -115
 74
  -400
  0
VERTEX
  5
3DC
  8
0
 62
    33
 10
0.0
 20
0.0
 30
0.0
 70
   128
 71
   116
 72
   117
 73
  -401
 74
  -116
  0
VERTEX
  5
3DD
  8
0
 62
    33
 10
0.0
 20
0.0
 30
0.0
 70
   128
 71
   401
 72
   400
 73
  -116
 74
  -401
  0
VERTEX
  5
3DE
  8
0
 62
    33
 10
0.0
 20
0.0
 30
0.0
 70
   128
 71
   117
 72
   118
 73
  -402
 74
  -117
  0
VERTEX
  5
3DF
  8
0
 62
    33
 10
0.0
 20
0.0
 30
0.0
 70
   128
 71
   402
 72
   401
 73
  -117
 74
  -402
  0
VERTEX
  5
3E0
  8
0
 62
    33
 10
0.0
 20
0.0
 30
0.0
 70
   128
 71
   118
 72
   119
 73
  -403
 74
  -118
  0
VERTEX
  5
3E1
  8
0
 62
    33
 10
0.0
 20
0.0
 30
0.0
 70
   128
 71
   403
 72
   402
 73
  -118
 74
  -403
  0
VERTEX
  5
3E2
  8
0
 62
    33
 10
0.0
 20
0.0
 30
0.0
 70
   128
 71
   119
 72
   120
 73
  -404
 74
  -119
  0
VERTEX
  5
3E3
  8
0
 62
    33
 10
0.0
 20
0.0
 30
0.0
 70
   128
 71
   404
 72
   403
 73
  -119
 74
  -404
  0
VERTEX
  5
3E4
  8
0
 62
    33
 10
0.0
 20
0.0
 30
0.0
 70
   128
 71
   120
 72
   109
 73
  -393
 74
  -120
  0
VERTEX
  5
3E5
  8
0
 62
    33
 10
0.0
 20
0.0
 30
0.0
 70
   128
 71
   393
 72
   404
 73
  -120
 74
  -393
  0
VERTEX
  5
3E6
  8
0
 62
    33
 10
0.0
 20
0.0
 30
0.0
 70
   128
 71
   121
 72
   122
 73
  -382
 74
  -121
  0
VERTEX
  5
3E7
  8
0
 62
    33
 10
0.0
 20
0.0
 30
0.0
 70
   128
 71
   382
 72
   381
 73
  -121
 74
  -382
  0
VERTEX
  5
3E8
  8
0
 62
    33
 10
0.0
 20
0.0
 30
0.0
 70
   128
 71
   122
 72
   123
 73
  -383
 74
  -122
  0
VERTEX
  5
3E9
  8
0
 62
    33
 10
0.0
 20
0.0
 30
0.0
 70
   128
 71
   383
 72
   382
 73
  -122
 74
  -383
  0
VERTEX
  5
3EA
  8
0
 62
    33
 10
0.0
 20
0.0
 30
0.0
 70
   128
 71
   123
 72
   124
 73
  -384
 74
  -123
  0
VERTEX
  5
3EB
  8
0
 62
    33
 10
0.0
 20
0.0
 30
0.0
 70
   128
 71
   384
 72
   383
 73
  -123
 74
  -384
  0
VERTEX
  5
3EC
  8
0
 62
    33
 10
0.0
 20
0.0
 30
0.0
 70
   128
 71
   124
 72
   125
 73
  -385
 74
  -124
  0
VERTEX
  5
3ED
  8
0
 62
    33
 10
0.0
 20
0.0
 30
0.0
 70
   128
 71
   385
 72
   384
 73
  -124
 74
  -385
  0
VERTEX
  5
3EE
  8
0
 62
    33
 10
0.0
 20
0.0
 30
0.0
 70
   128
 71
   125
 72
   126
 73
  -386
 74
  -125
  0
VERTEX
  5
3EF
  8
0
 62
    33
 10
0.0
 20
0.0
 30
0.0
 70
   128
 71
   386
 72
   385
 73
  -125
 74
  -386
  0
VERTEX
  5
3F0
  8
0
 62
    33
 10
0.0
 20
0.0
 30
0.0
 70
   128
 71
   126
 72
   127
 73
  -387
 74
  -126
  0
VERTEX
  5
3F1
  8
0
 62
    33
 10
0.0
 20
0.0
 30
0.0
 70
   128
 71
   387
 72
   386
 73
  -126
 74
  -387
  0
VERTEX
  5
3F2
  8
0
 62
    33
 10
0.0
 20
0.0
 30
0.0
 70
   128
 71
   127
 72
   128
 73
  -388
 74
  -127
  0
VERTEX
  5
3F3
  8
0
 62
    33
 10
0.0
 20
0.0
 30
0.0
 70
   128
 71
   388
 72
   387
 73
  -127
 74
  -388
  0
VERTEX
  5
3F4
  8
0
 62
    33
 10
0.0
 20
0.0
 30
0.0
 70
   128
 71
   128
 72
   129
 73
  -389
 74
  -128
  0
VERTEX
  5
3F5
  8
0
 62
    33
 10
0.0
 20
0.0
 30
0.0
 70
   128
 71
   389
 72
   388
 73
  -128
 74
  -389
  0
VERTEX
  5
3F6
  8
0
 62
    33
 10
0.0
 20
0.0
 30
0.0
 70
   128
 71
   129
 72
   130
 73
  -390
 74
  -129
  0
VERTEX
  5
3F7
  8
0
 62
    33
 10
0.0
 20
0.0
 30
0.0
 70
   128
 71
   390
 72
   389
 73
  -129
 74
  -390
  0
VERTEX
  5
3F8
  8
0
 62
    33
 10
0.0
 20
0.0
 30
0.0
 70
   128
 71
   130
 72
   131
 73
  -391
 74
  -130
  0
VERTEX
  5
3F9
  8
0
 62
    33
 10
0.0
 20
0.0
 30
0.0
 70
   128
 71
   391
 72
   390
 73
  -130
 74
  -391
  0
VERTEX
  5
3FA
  8
0
 62
    33
 10
0.0
 20
0.0
 30
0.0
 70
   128
 71
   131
 72
   132
 73
  -392
 74
  -131
  0
VERTEX
  5
3FB
  8
0
 62
    33
 10
0.0
 20
0.0
 30
0.0
 70
   128
 71
   392
 72
   391
 73
  -131
 74
  -392
  0
VERTEX
  5
3FC
  8
0
 62
    33
 10
0.0
 20
0.0
 30
0.0
 70
   128
 71
   132
 72
   121
 73
  -381
 74
  -132
  0
VERTEX
  5
3FD
  8
0
 62
    33
 10
0.0
 20
0.0
 30
0.0
 70
   128
 71
   381
 72
   392
 73
  -132
 74
  -381
  0
VERTEX
  5
3FE
  8
0
 62
    33
 10
0.0
 20
0.0
 30
0.0
 70
   128
 71
   133
 72
   134
 73
  -146
 74
  -133
  0
VERTEX
  5
3FF
  8
0
 62
    33
 10
0.0
 20
0.0
 30
0.0
 70
   128
 71
   146
 72
   145
 73
  -133
 74
  -146
  0
VERTEX
  5
400
  8
0
 62
    33
 10
0.0
 20
0.0
 30
0.0
 70
   128
 71
   134
 72
   135
 73
  -147
 74
  -134
  0
VERTEX
  5
401
  8
0
 62
    33
 10
0.0
 20
0.0
 30
0.0
 70
   128
 71
   147
 72
   146
 73
  -134
 74
  -147
  0
VERTEX
  5
402
  8
0
 62
    33
 10
0.0
 20
0.0
 30
0.0
 70
   128
 71
   135
 72
   136
 73
  -148
 74
  -135
  0
VERTEX
  5
403
  8
0
 62
    33
 10
0.0
 20
0.0
 30
0.0
 70
   128
 71
   148
 72
   147
 73
  -135
 74
  -148
  0
VERTEX
  5
404
  8
0
 62
    33
 10
0.0
 20
0.0
 30
0.0
 70
   128
 71
   136
 72
   137
 73
  -149
 74
  -136
  0
VERTEX
  5
405
  8
0
 62
    33
 10
0.0
 20
0.0
 30
0.0
 70
   128
 71
   149
 72
   148
 73
  -136
 74
  -149
  0
VERTEX
  5
406
  8
0
 62
    33
 10
0.0
 20
0.0
 30
0.0
 70
   128
 71
   137
 72
   138
 73
  -150
 74
  -137
  0
VERTEX
  5
407
  8
0
 62
    33
 10
0.0
 20
0.0
 30
0.0
 70
   128
 71
   150
 72
   149
 73
  -137
 74
  -150
  0
VERTEX
  5
408
  8
0
 62
    33
 10
0.0
 20
0.0
 30
0.0
 70
   128
 71
   138
 72
   139
 73
  -151
 74
  -138
  0
VERTEX
  5
409
  8
0
 62
    33
 10
0.0
 20
0.0
 30
0.0
 70
   128
 71
   151
 72
   150
 73
  -138
 74
  -151
  0
VERTEX
  5
40A
  8
0
 62
    33
 10
0.0
 20
0.0
 30
0.0
 70
   128
 71
   139
 72
   140
 73
  -152
 74
  -139
  0
VERTEX
  5
40B
  8
0
 62
    33
 10
0.0
 20
0.0
 30
0.0
 70
   128
 71
   152
 72
   151
 73
  -139
 74
  -152
  0
VERTEX
  5
40C
  8
0
 62
    33
 10
0.0
 20
0.0
 30
0.0
 70
   128
 71
   140
 72
   141
 73
  -153
 74
  -140
  0
VERTEX
  5
40D
  8
0
 62
    33
 10
0.0
 20
0.0
 30
0.0
 70
   128
 71
   153
 72
   152
 73
  -140
 74
  -153
  0
VERTEX
  5
40E
  8
0
 62
    33
 10
0.0
 20
0.0
 30
0.0
 70
   128
 71
   141
 72
   142
 73
  -154
 74
  -141
  0
VERTEX
  5
40F
  8
0
 62
    33
 10
0.0
 20
0.0
 30
0.0
 70
   128
 71
   154
 72
   153
 73
  -141
 74
  -154
  0
VERTEX
  5
410
  8
0
 62
    33
 10
0.0
 20
0.0
 30
0.0
 70
   128
 71
   142
 72
   143
 73
  -155
 74
  -142
  0
VERTEX
  5
411
  8
0
 62
    33
 10
0.0
 20
0.0
 30
0.0
 70
   128
 71
   155
 72
   154
 73
  -142
 74
  -155
  0
VERTEX
  5
412
  8
0
 62
    33
 10
0.0
 20
0.0
 30
0.0
 70
   128
 71
   143
 72
   144
 73
  -156
 74
  -143
  0
VERTEX
  5
413
  8
0
 62
    33
 10
0.0
 20
0.0
 30
0.0
 70
   128
 71
   156
 72
   155
 73
  -143
 74
  -156
  0
VERTEX
  5
414
  8
0
 62
    33
 10
0.0
 20
0.0
 30
0.0
 70
   128
 71
   144
 72
   133
 73
  -145
 74
  -144
  0
VERTEX
  5
415
  8
0
 62
    33
 10
0.0
 20
0.0
 30
0.0
 70
   128
 71
   145
 72
   156
 73
  -144
 74
  -145
  0
VERTEX
  5
416
  8
0
 62
    33
 10
0.0
 20
0.0
 30
0.0
 70
   128
 71
   145
 72
   146
 73
  -158
 74
  -145
  0
VERTEX
  5
417
  8
0
 62
    33
 10
0.0
 20
0.0
 30
0.0
 70
   128
 71
   158
 72
   157
 73
  -145
 74
  -158
  0
VERTEX
  5
418
  8
0
 62
    33
 10
0.0
 20
0.0
 30
0.0
 70
   128
 71
   146
 72
   147
 73
  -159
 74
  -146
  0
VERTEX
  5
419
  8
0
 62
    33
 10
0.0
 20
0.0
 30
0.0
 70
   128
 71
   159
 72
   158
 73
  -146
 74
  -159
  0
VERTEX
  5
41A
  8
0
 62
    33
 10
0.0
 20
0.0
 30
0.0
 70
   128
 71
   147
 72
   148
 73
  -160
 74
  -147
  0
VERTEX
  5
41B
  8
0
 62
    33
 10
0.0
 20
0.0
 30
0.0
 70
   128
 71
   160
 72
   159
 73
  -147
 74
  -160
  0
VERTEX
  5
41C
  8
0
 62
    33
 10
0.0
 20
0.0
 30
0.0
 70
   128
 71
   148
 72
   149
 73
  -161
 74
  -148
  0
VERTEX
  5
41D
  8
0
 62
    33
 10
0.0
 20
0.0
 30
0.0
 70
   128
 71
   161
 72
   160
 73
  -148
 74
  -161
  0
VERTEX
  5
41E
  8
0
 62
    33
 10
0.0
 20
0.0
 30
0.0
 70
   128
 71
   149
 72
   150
 73
  -162
 74
  -149
  0
VERTEX
  5
41F
  8
0
 62
    33
 10
0.0
 20
0.0
 30
0.0
 70
   128
 71
   162
 72
   161
 73
  -149
 74
  -162
  0
VERTEX
  5
420
  8
0
 62
    33
 10
0.0
 20
0.0
 30
0.0
 70
   128
 71
   150
 72
   151
 73
  -163
 74
  -150
  0
VERTEX
  5
421
  8
0
 62
    33
 10
0.0
 20
0.0
 30
0.0
 70
   128
 71
   163
 72
   162
 73
  -150
 74
  -163
  0
VERTEX
  5
422
  8
0
 62
    33
 10
0.0
 20
0.0
 30
0.0
 70
   128
 71
   151
 72
   152
 73
  -164
 74
  -151
  0
VERTEX
  5
423
  8
0
 62
    33
 10
0.0
 20
0.0
 30
0.0
 70
   128
 71
   164
 72
   163
 73
  -151
 74
  -164
  0
VERTEX
  5
424
  8
0
 62
    33
 10
0.0
 20
0.0
 30
0.0
 70
   128
 71
   152
 72
   153
 73
  -165
 74
  -152
  0
VERTEX
  5
425
  8
0
 62
    33
 10
0.0
 20
0.0
 30
0.0
 70
   128
 71
   165
 72
   164
 73
  -152
 74
  -165
  0
VERTEX
  5
426
  8
0
 62
    33
 10
0.0
 20
0.0
 30
0.0
 70
   128
 71
   153
 72
   154
 73
  -166
 74
  -153
  0
VERTEX
  5
427
  8
0
 62
    33
 10
0.0
 20
0.0
 30
0.0
 70
   128
 71
   166
 72
   165
 73
  -153
 74
  -166
  0
VERTEX
  5
428
  8
0
 62
    33
 10
0.0
 20
0.0
 30
0.0
 70
   128
 71
   154
 72
   155
 73
  -167
 74
  -154
  0
VERTEX
  5
429
  8
0
 62
    33
 10
0.0
 20
0.0
 30
0.0
 70
   128
 71
   167
 72
   166
 73
  -154
 74
  -167
  0
VERTEX
  5
42A
  8
0
 62
    33
 10
0.0
 20
0.0
 30
0.0
 70
   128
 71
   155
 72
   156
 73
  -168
 74
  -155
  0
VERTEX
  5
42B
  8
0
 62
    33
 10
0.0
 20
0.0
 30
0.0
 70
   128
 71
   168
 72
   167
 73
  -155
 74
  -168
  0
VERTEX
  5
42C
  8
0
 62
    33
 10
0.0
 20
0.0
 30
0.0
 70
   128
 71
   156
 72
   145
 73
  -157
 74
  -156
  0
VERTEX
  5
42D
  8
0
 62
    33
 10
0.0
 20
0.0
 30
0.0
 70
   128
 71
   157
 72
   168
 73
  -156
 74
  -157
  0
VERTEX
  5
42E
  8
0
 62
    33
 10
0.0
 20
0.0
 30
0.0
 70
   128
 71
    -6
 72
     8
 73
     7
 74
    -6
  0
VERTEX
  5
42F
  8
0
 62
    33
 10
0.0
 20
0.0
 30
0.0
 70
   128
 71
    -5
 72
    -8
 73
     6
 74
    -5
  0
VERTEX
  5
430
  8
0
 62
    33
 10
0.0
 20
0.0
 30
0.0
 70
   128
 71
    -4
 72
    -8
 73
     5
 74
    -4
  0
VERTEX
  5
431
  8
0
 62
    33
 10
0.0
 20
0.0
 30
0.0
 70
   128
 71
    -3
 72
    -8
 73
     4
 74
    -3
  0
VERTEX
  5
432
  8
0
 62
    33
 10
0.0
 20
0.0
 30
0.0
 70
   128
 71
    -2
 72
    -8
 73
     3
 74
    -2
  0
VERTEX
  5
433
  8
0
 62
    33
 10
0.0
 20
0.0
 30
0.0
 70
   128
 71
    -1
 72
    -8
 73
     2
 74
    -1
  0
VERTEX
  5
434
  8
0
 62
    33
 10
0.0
 20
0.0
 30
0.0
 70
   128
 71
   -12
 72
    -8
 73
     1
 74
   -12
  0
VERTEX
  5
435
  8
0
 62
    33
 10
0.0
 20
0.0
 30
0.0
 70
   128
 71
   -11
 72
    -8
 73
    12
 74
   -11
  0
VERTEX
  5
436
  8
0
 62
    33
 10
0.0
 20
0.0
 30
0.0
 70
   128
 71
   -10
 72
    -8
 73
    11
 74
   -10
  0
VERTEX
  5
437
  8
0
 62
    33
 10
0.0
 20
0.0
 30
0.0
 70
   128
 71
     9
 72
    -8
 73
    10
 74
    -9
  0
VERTEX
  5
438
  8
0
 62
    33
 10
0.0
 20
0.0
 30
0.0
 70
   128
 71
  -169
 72
   178
 73
   177
 74
  -169
  0
VERTEX
  5
439
  8
0
 62
    33
 10
0.0
 20
0.0
 30
0.0
 70
   128
 71
   169
 72
   170
 73
  -178
 74
  -169
  0
VERTEX
  5
43A
  8
0
 62
    33
 10
0.0
 20
0.0
 30
0.0
 70
   128
 71
  -170
 72
   179
 73
   178
 74
  -170
  0
VERTEX
  5
43B
  8
0
 62
    33
 10
0.0
 20
0.0
 30
0.0
 70
   128
 71
   170
 72
   171
 73
  -179
 74
  -170
  0
VERTEX
  5
43C
  8
0
 62
    33
 10
0.0
 20
0.0
 30
0.0
 70
   128
 71
  -171
 72
   180
 73
   179
 74
  -171
  0
VERTEX
  5
43D
  8
0
 62
    33
 10
0.0
 20
0.0
 30
0.0
 70
   128
 71
   171
 72
   172
 73
  -180
 74
  -171
  0
VERTEX
  5
43E
  8
0
 62
    33
 10
0.0
 20
0.0
 30
0.0
 70
   128
 71
  -172
 72
   181
 73
   180
 74
  -172
  0
VERTEX
  5
43F
  8
0
 62
    33
 10
0.0
 20
0.0
 30
0.0
 70
   128
 71
   172
 72
   173
 73
  -181
 74
  -172
  0
VERTEX
  5
440
  8
0
 62
    33
 10
0.0
 20
0.0
 30
0.0
 70
   128
 71
  -173
 72
   182
 73
   181
 74
  -173
  0
VERTEX
  5
441
  8
0
 62
    33
 10
0.0
 20
0.0
 30
0.0
 70
   128
 71
   173
 72
   174
 73
  -182
 74
  -173
  0
VERTEX
  5
442
  8
0
 62
    33
 10
0.0
 20
0.0
 30
0.0
 70
   128
 71
  -174
 72
   183
 73
   182
 74
  -174
  0
VERTEX
  5
443
  8
0
 62
    33
 10
0.0
 20
0.0
 30
0.0
 70
   128
 71
   174
 72
   175
 73
  -183
 74
  -174
  0
VERTEX
  5
444
  8
0
 62
    33
 10
0.0
 20
0.0
 30
0.0
 70
   128
 71
  -175
 72
   184
 73
   183
 74
  -175
  0
VERTEX
  5
445
  8
0
 62
    33
 10
0.0
 20
0.0
 30
0.0
 70
   128
 71
   175
 72
   176
 73
  -184
 74
  -175
  0
VERTEX
  5
446
  8
0
 62
    33
 10
0.0
 20
0.0
 30
0.0
 70
   128
 71
  -176
 72
   177
 73
   184
 74
  -176
  0
VERTEX
  5
447
  8
0
 62
    33
 10
0.0
 20
0.0
 30
0.0
 70
   128
 71
   176
 72
   169
 73
  -177
 74
  -176
  0
VERTEX
  5
448
  8
0
 62
    33
 10
0.0
 20
0.0
 30
0.0
 70
   128
 71
  -185
 72
   177
 73
  -178
 74
  -185
  0
VERTEX
  5
449
  8
0
 62
    33
 10
0.0
 20
0.0
 30
0.0
 70
   128
 71
  -185
 72
   178
 73
  -179
 74
  -185
  0
VERTEX
  5
44A
  8
0
 62
    33
 10
0.0
 20
0.0
 30
0.0
 70
   128
 71
  -185
 72
   179
 73
  -180
 74
  -185
  0
VERTEX
  5
44B
  8
0
 62
    33
 10
0.0
 20
0.0
 30
0.0
 70
   128
 71
  -185
 72
   180
 73
  -181
 74
  -185
  0
VERTEX
  5
44C
  8
0
 62
    33
 10
0.0
 20
0.0
 30
0.0
 70
   128
 71
  -185
 72
   181
 73
  -182
 74
  -185
  0
VERTEX
  5
44D
  8
0
 62
    33
 10
0.0
 20
0.0
 30
0.0
 70
   128
 71
  -185
 72
   182
 73
  -183
 74
  -185
  0
VERTEX
  5
44E
  8
0
 62
    33
 10
0.0
 20
0.0
 30
0.0
 70
   128
 71
  -185
 72
   183
 73
  -184
 74
  -185
  0
VERTEX
  5
44F
  8
0
 62
    33
 10
0.0
 20
0.0
 30
0.0
 70
   128
 71
  -185
 72
   184
 73
  -177
 74
  -185
  0
VERTEX
  5
450
  8
0
 62
    33
 10
0.0
 20
0.0
 30
0.0
 70
   128
 71
   170
 72
   169
 73
  -186
 74
  -170
  0
VERTEX
  5
451
  8
0
 62
    33
 10
0.0
 20
0.0
 30
0.0
 70
   128
 71
   186
 72
   187
 73
  -170
 74
  -186
  0
VERTEX
  5
452
  8
0
 62
    33
 10
0.0
 20
0.0
 30
0.0
 70
   128
 71
   171
 72
   170
 73
  -187
 74
  -171
  0
VERTEX
  5
453
  8
0
 62
    33
 10
0.0
 20
0.0
 30
0.0
 70
   128
 71
   187
 72
   188
 73
  -171
 74
  -187
  0
VERTEX
  5
454
  8
0
 62
    33
 10
0.0
 20
0.0
 30
0.0
 70
   128
 71
   172
 72
   171
 73
  -188
 74
  -172
  0
VERTEX
  5
455
  8
0
 62
    33
 10
0.0
 20
0.0
 30
0.0
 70
   128
 71
   188
 72
   189
 73
  -172
 74
  -188
  0
VERTEX
  5
456
  8
0
 62
    33
 10
0.0
 20
0.0
 30
0.0
 70
   128
 71
   173
 72
   172
 73
  -189
 74
  -173
  0
VERTEX
  5
457
  8
0
 62
    33
 10
0.0
 20
0.0
 30
0.0
 70
   128
 71
   189
 72
   190
 73
  -173
 74
  -189
  0
VERTEX
  5
458
  8
0
 62
    33
 10
0.0
 20
0.0
 30
0.0
 70
   128
 71
   174
 72
   173
 73
  -190
 74
  -174
  0
VERTEX
  5
459
  8
0
 62
    33
 10
0.0
 20
0.0
 30
0.0
 70
   128
 71
   190
 72
   191
 73
  -174
 74
  -190
  0
VERTEX
  5
45A
  8
0
 62
    33
 10
0.0
 20
0.0
 30
0.0
 70
   128
 71
   175
 72
   174
 73
  -191
 74
  -175
  0
VERTEX
  5
45B
  8
0
 62
    33
 10
0.0
 20
0.0
 30
0.0
 70
   128
 71
   191
 72
   192
 73
  -175
 74
  -191
  0
VERTEX
  5
45C
  8
0
 62
    33
 10
0.0
 20
0.0
 30
0.0
 70
   128
 71
   176
 72
   175
 73
  -192
 74
  -176
  0
VERTEX
  5
45D
  8
0
 62
    33
 10
0.0
 20
0.0
 30
0.0
 70
   128
 71
   192
 72
   193
 73
  -176
 74
  -192
  0
VERTEX
  5
45E
  8
0
 62
    33
 10
0.0
 20
0.0
 30
0.0
 70
   128
 71
   169
 72
   176
 73
  -193
 74
  -169
  0
VERTEX
  5
45F
  8
0
 62
    33
 10
0.0
 20
0.0
 30
0.0
 70
   128
 71
   193
 72
   186
 73
  -169
 74
  -193
  0
VERTEX
  5
460
  8
0
 62
    33
 10
0.0
 20
0.0
 30
0.0
 70
   128
 71
   187
 72
   186
 73
  -194
 74
  -187
  0
VERTEX
  5
461
  8
0
 62
    33
 10
0.0
 20
0.0
 30
0.0
 70
   128
 71
   194
 72
   195
 73
  -187
 74
  -194
  0
VERTEX
  5
462
  8
0
 62
    33
 10
0.0
 20
0.0
 30
0.0
 70
   128
 71
   188
 72
   187
 73
  -195
 74
  -188
  0
VERTEX
  5
463
  8
0
 62
    33
 10
0.0
 20
0.0
 30
0.0
 70
   128
 71
   195
 72
   196
 73
  -188
 74
  -195
  0
VERTEX
  5
464
  8
0
 62
    33
 10
0.0
 20
0.0
 30
0.0
 70
   128
 71
   189
 72
   188
 73
  -196
 74
  -189
  0
VERTEX
  5
465
  8
0
 62
    33
 10
0.0
 20
0.0
 30
0.0
 70
   128
 71
   196
 72
   197
 73
  -189
 74
  -196
  0
VERTEX
  5
466
  8
0
 62
    33
 10
0.0
 20
0.0
 30
0.0
 70
   128
 71
   190
 72
   189
 73
  -197
 74
  -190
  0
VERTEX
  5
467
  8
0
 62
    33
 10
0.0
 20
0.0
 30
0.0
 70
   128
 71
   197
 72
   198
 73
  -190
 74
  -197
  0
VERTEX
  5
468
  8
0
 62
    33
 10
0.0
 20
0.0
 30
0.0
 70
   128
 71
   191
 72
   190
 73
  -198
 74
  -191
  0
VERTEX
  5
469
  8
0
 62
    33
 10
0.0
 20
0.0
 30
0.0
 70
   128
 71
   198
 72
   199
 73
  -191
 74
  -198
  0
VERTEX
  5
46A
  8
0
 62
    33
 10
0.0
 20
0.0
 30
0.0
 70
   128
 71
   192
 72
   191
 73
  -199
 74
  -192
  0
VERTEX
  5
46B
  8
0
 62
    33
 10
0.0
 20
0.0
 30
0.0
 70
   128
 71
   199
 72
   200
 73
  -192
 74
  -199
  0
VERTEX
  5
46C
  8
0
 62
    33
 10
0.0
 20
0.0
 30
0.0
 70
   128
 71
   193
 72
   192
 73
  -200
 74
  -193
  0
VERTEX
  5
46D
  8
0
 62
    33
 10
0.0
 20
0.0
 30
0.0
 70
   128
 71
   200
 72
   201
 73
  -193
 74
  -200
  0
VERTEX
  5
46E
  8
0
 62
    33
 10
0.0
 20
0.0
 30
0.0
 70
   128
 71
   186
 72
   193
 73
  -201
 74
  -186
  0
VERTEX
  5
46F
  8
0
 62
    33
 10
0.0
 20
0.0
 30
0.0
 70
   128
 71
   201
 72
   194
 73
  -186
 74
  -201
  0
VERTEX
  5
470
  8
0
 62
    33
 10
0.0
 20
0.0
 30
0.0
 70
   128
 71
  -202
 72
   216
 73
   203
 74
  -202
  0
VERTEX
  5
471
  8
0
 62
    33
 10
0.0
 20
0.0
 30
0.0
 70
   128
 71
   202
 72
   215
 73
  -216
 74
  -202
  0
VERTEX
  5
472
  8
0
 62
    33
 10
0.0
 20
0.0
 30
0.0
 70
   128
 71
  -203
 72
   217
 73
   204
 74
  -203
  0
VERTEX
  5
473
  8
0
 62
    33
 10
0.0
 20
0.0
 30
0.0
 70
   128
 71
   203
 72
   216
 73
  -217
 74
  -203
  0
VERTEX
  5
474
  8
0
 62
    33
 10
0.0
 20
0.0
 30
0.0
 70
   128
 71
  -204
 72
   218
 73
   205
 74
  -204
  0
VERTEX
  5
475
  8
0
 62
    33
 10
0.0
 20
0.0
 30
0.0
 70
   128
 71
   204
 72
   217
 73
  -218
 74
  -204
  0
VERTEX
  5
476
  8
0
 62
    33
 10
0.0
 20
0.0
 30
0.0
 70
   128
 71
  -205
 72
   219
 73
   206
 74
  -205
  0
VERTEX
  5
477
  8
0
 62
    33
 10
0.0
 20
0.0
 30
0.0
 70
   128
 71
   205
 72
   218
 73
  -219
 74
  -205
  0
VERTEX
  5
478
  8
0
 62
    33
 10
0.0
 20
0.0
 30
0.0
 70
   128
 71
  -206
 72
   220
 73
   207
 74
  -206
  0
VERTEX
  5
479
  8
0
 62
    33
 10
0.0
 20
0.0
 30
0.0
 70
   128
 71
   206
 72
   219
 73
  -220
 74
  -206
  0
VERTEX
  5
47A
  8
0
 62
    33
 10
0.0
 20
0.0
 30
0.0
 70
   128
 71
  -207
 72
   221
 73
   208
 74
  -207
  0
VERTEX
  5
47B
  8
0
 62
    33
 10
0.0
 20
0.0
 30
0.0
 70
   128
 71
   207
 72
   220
 73
  -221
 74
  -207
  0
VERTEX
  5
47C
  8
0
 62
    33
 10
0.0
 20
0.0
 30
0.0
 70
   128
 71
  -208
 72
   222
 73
   209
 74
  -208
  0
VERTEX
  5
47D
  8
0
 62
    33
 10
0.0
 20
0.0
 30
0.0
 70
   128
 71
   208
 72
   221
 73
  -222
 74
  -208
  0
VERTEX
  5
47E
  8
0
 62
    33
 10
0.0
 20
0.0
 30
0.0
 70
   128
 71
  -209
 72
   223
 73
   210
 74
  -209
  0
VERTEX
  5
47F
  8
0
 62
    33
 10
0.0
 20
0.0
 30
0.0
 70
   128
 71
   209
 72
   222
 73
  -223
 74
  -209
  0
VERTEX
  5
480
  8
0
 62
    33
 10
0.0
 20
0.0
 30
0.0
 70
   128
 71
  -210
 72
   224
 73
   211
 74
  -210
  0
VERTEX
  5
481
  8
0
 62
    33
 10
0.0
 20
0.0
 30
0.0
 70
   128
 71
   210
 72
   223
 73
  -224
 74
  -210
  0
VERTEX
  5
482
  8
0
 62
    33
 10
0.0
 20
0.0
 30
0.0
 70
   128
 71
  -211
 72
   225
 73
   212
 74
  -211
  0
VERTEX
  5
483
  8
0
 62
    33
 10
0.0
 20
0.0
 30
0.0
 70
   128
 71
   211
 72
   224
 73
  -225
 74
  -211
  0
VERTEX
  5
484
  8
0
 62
    33
 10
0.0
 20
0.0
 30
0.0
 70
   128
 71
  -212
 72
   226
 73
   213
 74
  -212
  0
VERTEX
  5
485
  8
0
 62
    33
 10
0.0
 20
0.0
 30
0.0
 70
   128
 71
   212
 72
   225
 73
  -226
 74
  -212
  0
VERTEX
  5
486
  8
0
 62
    33
 10
0.0
 20
0.0
 30
0.0
 70
   128
 71
   213
 72
   226
 73
  -214
 74
  -213
  0
VERTEX
  5
487
  8
0
 62
    33
 10
0.0
 20
0.0
 30
0.0
 70
   128
 71
  -215
 72
   228
 73
   216
 74
  -215
  0
VERTEX
  5
488
  8
0
 62
    33
 10
0.0
 20
0.0
 30
0.0
 70
   128
 71
   215
 72
   227
 73
  -228
 74
  -215
  0
VERTEX
  5
489
  8
0
 62
    33
 10
0.0
 20
0.0
 30
0.0
 70
   128
 71
  -216
 72
   229
 73
   217
 74
  -216
  0
VERTEX
  5
48A
  8
0
 62
    33
 10
0.0
 20
0.0
 30
0.0
 70
   128
 71
   216
 72
   228
 73
  -229
 74
  -216
  0
VERTEX
  5
48B
  8
0
 62
    33
 10
0.0
 20
0.0
 30
0.0
 70
   128
 71
  -217
 72
   230
 73
   218
 74
  -217
  0
VERTEX
  5
48C
  8
0
 62
    33
 10
0.0
 20
0.0
 30
0.0
 70
   128
 71
   217
 72
   229
 73
  -230
 74
  -217
  0
VERTEX
  5
48D
  8
0
 62
    33
 10
0.0
 20
0.0
 30
0.0
 70
   128
 71
  -218
 72
   231
 73
   219
 74
  -218
  0
VERTEX
  5
48E
  8
0
 62
    33
 10
0.0
 20
0.0
 30
0.0
 70
   128
 71
   218
 72
   230
 73
  -231
 74
  -218
  0
VERTEX
  5
48F
  8
0
 62
    33
 10
0.0
 20
0.0
 30
0.0
 70
   128
 71
  -219
 72
   232
 73
   220
 74
  -219
  0
VERTEX
  5
490
  8
0
 62
    33
 10
0.0
 20
0.0
 30
0.0
 70
   128
 71
   219
 72
   231
 73
  -232
 74
  -219
  0
VERTEX
  5
491
  8
0
 62
    33
 10
0.0
 20
0.0
 30
0.0
 70
   128
 71
  -220
 72
   233
 73
   221
 74
  -220
  0
VERTEX
  5
492
  8
0
 62
    33
 10
0.0
 20
0.0
 30
0.0
 70
   128
 71
   220
 72
   232
 73
  -233
 74
  -220
  0
VERTEX
  5
493
  8
0
 62
    33
 10
0.0
 20
0.0
 30
0.0
 70
   128
 71
  -221
 72
   234
 73
   222
 74
  -221
  0
VERTEX
  5
494
  8
0
 62
    33
 10
0.0
 20
0.0
 30
0.0
 70
   128
 71
   221
 72
   233
 73
  -234
 74
  -221
  0
VERTEX
  5
495
  8
0
 62
    33
 10
0.0
 20
0.0
 30
0.0
 70
   128
 71
  -222
 72
   235
 73
   223
 74
  -222
  0
VERTEX
  5
496
  8
0
 62
    33
 10
0.0
 20
0.0
 30
0.0
 70
   128
 71
   222
 72
   234
 73
  -235
 74
  -222
  0
VERTEX
  5
497
  8
0
 62
    33
 10
0.0
 20
0.0
 30
0.0
 70
   128
 71
  -223
 72
   236
 73
   224
 74
  -223
  0
VERTEX
  5
498
  8
0
 62
    33
 10
0.0
 20
0.0
 30
0.0
 70
   128
 71
   223
 72
   235
 73
  -236
 74
  -223
  0
VERTEX
  5
499
  8
0
 62
    33
 10
0.0
 20
0.0
 30
0.0
 70
   128
 71
  -224
 72
   237
 73
   225
 74
  -224
  0
VERTEX
  5
49A
  8
0
 62
    33
 10
0.0
 20
0.0
 30
0.0
 70
   128
 71
   224
 72
   236
 73
  -237
 74
  -224
  0
VERTEX
  5
49B
  8
0
 62
    33
 10
0.0
 20
0.0
 30
0.0
 70
   128
 71
  -225
 72
   238
 73
   226
 74
  -225
  0
VERTEX
  5
49C
  8
0
 62
    33
 10
0.0
 20
0.0
 30
0.0
 70
   128
 71
   225
 72
   237
 73
  -238
 74
  -225
  0
VERTEX
  5
49D
  8
0
 62
    33
 10
0.0
 20
0.0
 30
0.0
 70
   128
 71
   226
 72
   238
 73
  -214
 74
  -226
  0
VERTEX
  5
49E
  8
0
 62
    33
 10
0.0
 20
0.0
 30
0.0
 70
   128
 71
  -227
 72
   240
 73
   228
 74
  -227
  0
VERTEX
  5
49F
  8
0
 62
    33
 10
0.0
 20
0.0
 30
0.0
 70
   128
 71
   227
 72
   239
 73
  -240
 74
  -227
  0
VERTEX
  5
4A0
  8
0
 62
    33
 10
0.0
 20
0.0
 30
0.0
 70
   128
 71
  -228
 72
   241
 73
   229
 74
  -228
  0
VERTEX
  5
4A1
  8
0
 62
    33
 10
0.0
 20
0.0
 30
0.0
 70
   128
 71
   228
 72
   240
 73
  -241
 74
  -228
  0
VERTEX
  5
4A2
  8
0
 62
    33
 10
0.0
 20
0.0
 30
0.0
 70
   128
 71
  -229
 72
   242
 73
   230
 74
  -229
  0
VERTEX
  5
4A3
  8
0
 62
    33
 10
0.0
 20
0.0
 30
0.0
 70
   128
 71
   229
 72
   241
 73
  -242
 74
  -229
  0
VERTEX
  5
4A4
  8
0
 62
    33
 10
0.0
 20
0.0
 30
0.0
 70
   128
 71
  -230
 72
   243
 73
   231
 74
  -230
  0
VERTEX
  5
4A5
  8
0
 62
    33
 10
0.0
 20
0.0
 30
0.0
 70
   128
 71
   230
 72
   242
 73
  -243
 74
  -230
  0
VERTEX
  5
4A6
  8
0
 62
    33
 10
0.0
 20
0.0
 30
0.0
 70
   128
 71
  -231
 72
   244
 73
   232
 74
  -231
  0
VERTEX
  5
4A7
  8
0
 62
    33
 10
0.0
 20
0.0
 30
0.0
 70
   128
 71
   231
 72
   243
 73
  -244
 74
  -231
  0
VERTEX
  5
4A8
  8
0
 62
    33
 10
0.0
 20
0.0
 30
0.0
 70
   128
 71
  -232
 72
   245
 73
   233
 74
  -232
  0
VERTEX
  5
4A9
  8
0
 62
    33
 10
0.0
 20
0.0
 30
0.0
 70
   128
 71
   232
 72
   244
 73
  -245
 74
  -232
  0
VERTEX
  5
4AA
  8
0
 62
    33
 10
0.0
 20
0.0
 30
0.0
 70
   128
 71
  -233
 72
   246
 73
   234
 74
  -233
  0
VERTEX
  5
4AB
  8
0
 62
    33
 10
0.0
 20
0.0
 30
0.0
 70
   128
 71
   233
 72
   245
 73
  -246
 74
  -233
  0
VERTEX
  5
4AC
  8
0
 62
    33
 10
0.0
 20
0.0
 30
0.0
 70
   128
 71
  -234
 72
   247
 73
   235
 74
  -234
  0
VERTEX
  5
4AD
  8
0
 62
    33
 10
0.0
 20
0.0
 30
0.0
 70
   128
 71
   234
 72
   246
 73
  -247
 74
  -234
  0
VERTEX
  5
4AE
  8
0
 62
    33
 10
0.0
 20
0.0
 30
0.0
 70
   128
 71
  -235
 72
   248
 73
   236
 74
  -235
  0
VERTEX
  5
4AF
  8
0
 62
    33
 10
0.0
 20
0.0
 30
0.0
 70
   128
 71
   235
 72
   247
 73
  -248
 74
  -235
  0
VERTEX
  5
4B0
  8
0
 62
    33
 10
0.0
 20
0.0
 30
0.0
 70
   128
 71
  -236
 72
   249
 73
   237
 74
  -236
  0
VERTEX
  5
4B1
  8
0
 62
    33
 10
0.0
 20
0.0
 30
0.0
 70
   128
 71
   236
 72
   248
 73
  -249
 74
  -236
  0
VERTEX
  5
4B2
  8
0
 62
    33
 10
0.0
 20
0.0
 30
0.0
 70
   128
 71
  -237
 72
   250
 73
   238
 74
  -237
  0
VERTEX
  5
4B3
  8
0
 62
    33
 10
0.0
 20
0.0
 30
0.0
 70
   128
 71
   237
 72
   249
 73
  -250
 74
  -237
  0
VERTEX
  5
4B4
  8
0
 62
    33
 10
0.0
 20
0.0
 30
0.0
 70
   128
 71
   238
 72
   250
 73
  -214
 74
  -238
  0
VERTEX
  5
4B5
  8
0
 62
    33
 10
0.0
 20
0.0
 30
0.0
 70
   128
 71
  -239
 72
   252
 73
   240
 74
  -239
  0
VERTEX
  5
4B6
  8
0
 62
    33
 10
0.0
 20
0.0
 30
0.0
 70
   128
 71
   239
 72
   251
 73
  -252
 74
  -239
  0
VERTEX
  5
4B7
  8
0
 62
    33
 10
0.0
 20
0.0
 30
0.0
 70
   128
 71
  -240
 72
   253
 73
   241
 74
  -240
  0
VERTEX
  5
4B8
  8
0
 62
    33
 10
0.0
 20
0.0
 30
0.0
 70
   128
 71
   240
 72
   252
 73
  -253
 74
  -240
  0
VERTEX
  5
4B9
  8
0
 62
    33
 10
0.0
 20
0.0
 30
0.0
 70
   128
 71
  -241
 72
   254
 73
   242
 74
  -241
  0
VERTEX
  5
4BA
  8
0
 62
    33
 10
0.0
 20
0.0
 30
0.0
 70
   128
 71
   241
 72
   253
 73
  -254
 74
  -241
  0
VERTEX
  5
4BB
  8
0
 62
    33
 10
0.0
 20
0.0
 30
0.0
 70
   128
 71
  -242
 72
   255
 73
   243
 74
  -242
  0
VERTEX
  5
4BC
  8
0
 62
    33
 10
0.0
 20
0.0
 30
0.0
 70
   128
 71
   242
 72
   254
 73
  -255
 74
  -242
  0
VERTEX
  5
4BD
  8
0
 62
    33
 10
0.0
 20
0.0
 30
0.0
 70
   128
 71
  -243
 72
   256
 73
   244
 74
  -243
  0
VERTEX
  5
4BE
  8
0
 62
    33
 10
0.0
 20
0.0
 30
0.0
 70
   128
 71
   243
 72
   255
 73
  -256
 74
  -243
  0
VERTEX
  5
4BF
  8
0
 62
    33
 10
0.0
 20
0.0
 30
0.0
 70
   128
 71
  -244
 72
   257
 73
   245
 74
  -244
  0
VERTEX
  5
4C0
  8
0
 62
    33
 10
0.0
 20
0.0
 30
0.0
 70
   128
 71
   244
 72
   256
 73
  -257
 74
  -244
  0
VERTEX
  5
4C1
  8
0
 62
    33
 10
0.0
 20
0.0
 30
0.0
 70
   128
 71
  -245
 72
   258
 73
   246
 74
  -245
  0
VERTEX
  5
4C2
  8
0
 62
    33
 10
0.0
 20
0.0
 30
0.0
 70
   128
 71
   245
 72
   257
 73
  -258
 74
  -245
  0
VERTEX
  5
4C3
  8
0
 62
    33
 10
0.0
 20
0.0
 30
0.0
 70
   128
 71
  -246
 72
   259
 73
   247
 74
  -246
  0
VERTEX
  5
4C4
  8
0
 62
    33
 10
0.0
 20
0.0
 30
0.0
 70
   128
 71
   246
 72
   258
 73
  -259
 74
  -246
  0
VERTEX
  5
4C5
  8
0
 62
    33
 10
0.0
 20
0.0
 30
0.0
 70
   128
 71
  -247
 72
   260
 73
   248
 74
  -247
  0
VERTEX
  5
4C6
  8
0
 62
    33
 10
0.0
 20
0.0
 30
0.0
 70
   128
 71
   247
 72
   259
 73
  -260
 74
  -247
  0
VERTEX
  5
4C7
  8
0
 62
    33
 10
0.0
 20
0.0
 30
0.0
 70
   128
 71
  -248
 72
   261
 73
   249
 74
  -248
  0
VERTEX
  5
4C8
  8
0
 62
    33
 10
0.0
 20
0.0
 30
0.0
 70
   128
 71
   248
 72
   260
 73
  -261
 74
  -248
  0
VERTEX
  5
4C9
  8
0
 62
    33
 10
0.0
 20
0.0
 30
0.0
 70
   128
 71
  -249
 72
   262
 73
   250
 74
  -249
  0
VERTEX
  5
4CA
  8
0
 62
    33
 10
0.0
 20
0.0
 30
0.0
 70
   128
 71
   249
 72
   261
 73
  -262
 74
  -249
  0
VERTEX
  5
4CB
  8
0
 62
    33
 10
0.0
 20
0.0
 30
0.0
 70
   128
 71
   250
 72
   262
 73
  -214
 74
  -250
  0
VERTEX
  5
4CC
  8
0
 62
    33
 10
0.0
 20
0.0
 30
0.0
 70
   128
 71
  -251
 72
   264
 73
   252
 74
  -251
  0
VERTEX
  5
4CD
  8
0
 62
    33
 10
0.0
 20
0.0
 30
0.0
 70
   128
 71
   251
 72
   263
 73
  -264
 74
  -251
  0
VERTEX
  5
4CE
  8
0
 62
    33
 10
0.0
 20
0.0
 30
0.0
 70
   128
 71
  -252
 72
   265
 73
   253
 74
  -252
  0
VERTEX
  5
4CF
  8
0
 62
    33
 10
0.0
 20
0.0
 30
0.0
 70
   128
 71
   252
 72
   264
 73
  -265
 74
  -252
  0
VERTEX
  5
4D0
  8
0
 62
    33
 10
0.0
 20
0.0
 30
0.0
 70
   128
 71
  -253
 72
   266
 73
   254
 74
  -253
  0
VERTEX
  5
4D1
  8
0
 62
    33
 10
0.0
 20
0.0
 30
0.0
 70
   128
 71
   253
 72
   265
 73
  -266
 74
  -253
  0
VERTEX
  5
4D2
  8
0
 62
    33
 10
0.0
 20
0.0
 30
0.0
 70
   128
 71
  -254
 72
   267
 73
   255
 74
  -254
  0
VERTEX
  5
4D3
  8
0
 62
    33
 10
0.0
 20
0.0
 30
0.0
 70
   128
 71
   254
 72
   266
 73
  -267
 74
  -254
  0
VERTEX
  5
4D4
  8
0
 62
    33
 10
0.0
 20
0.0
 30
0.0
 70
   128
 71
  -255
 72
   268
 73
   256
 74
  -255
  0
VERTEX
  5
4D5
  8
0
 62
    33
 10
0.0
 20
0.0
 30
0.0
 70
   128
 71
   255
 72
   267
 73
  -268
 74
  -255
  0
VERTEX
  5
4D6
  8
0
 62
    33
 10
0.0
 20
0.0
 30
0.0
 70
   128
 71
  -256
 72
   269
 73
   257
 74
  -256
  0
VERTEX
  5
4D7
  8
0
 62
    33
 10
0.0
 20
0.0
 30
0.0
 70
   128
 71
   256
 72
   268
 73
  -269
 74
  -256
  0
VERTEX
  5
4D8
  8
0
 62
    33
 10
0.0
 20
0.0
 30
0.0
 70
   128
 71
  -257
 72
   270
 73
   258
 74
  -257
  0
VERTEX
  5
4D9
  8
0
 62
    33
 10
0.0
 20
0.0
 30
0.0
 70
   128
 71
   257
 72
   269
 73
  -270
 74
  -257
  0
VERTEX
  5
4DA
  8
0
 62
    33
 10
0.0
 20
0.0
 30
0.0
 70
   128
 71
  -258
 72
   271
 73
   259
 74
  -258
  0
VERTEX
  5
4DB
  8
0
 62
    33
 10
0.0
 20
0.0
 30
0.0
 70
   128
 71
   258
 72
   270
 73
  -271
 74
  -258
  0
VERTEX
  5
4DC
  8
0
 62
    33
 10
0.0
 20
0.0
 30
0.0
 70
   128
 71
  -259
 72
   272
 73
   260
 74
  -259
  0
VERTEX
  5
4DD
  8
0
 62
    33
 10
0.0
 20
0.0
 30
0.0
 70
   128
 71
   259
 72
   271
 73
  -272
 74
  -259
  0
VERTEX
  5
4DE
  8
0
 62
    33
 10
0.0
 20
0.0
 30
0.0
 70
   128
 71
  -260
 72
   273
 73
   261
 74
  -260
  0
VERTEX
  5
4DF
  8
0
 62
    33
 10
0.0
 20
0.0
 30
0.0
 70
   128
 71
   260
 72
   272
 73
  -273
 74
  -260
  0
VERTEX
  5
4E0
  8
0
 62
    33
 10
0.0
 20
0.0
 30
0.0
 70
   128
 71
  -261
 72
   274
 73
   262
 74
  -261
  0
VERTEX
  5
4E1
  8
0
 62
    33
 10
0.0
 20
0.0
 30
0.0
 70
   128
 71
   261
 72
   273
 73
  -274
 74
  -261
  0
VERTEX
  5
4E2
  8
0
 62
    33
 10
0.0
 20
0.0
 30
0.0
 70
   128
 71
   262
 72
   274
 73
  -214
 74
  -262
  0
VERTEX
  5
4E3
  8
0
 62
    33
 10
0.0
 20
0.0
 30
0.0
 70
   128
 71
  -263
 72
   276
 73
   264
 74
  -263
  0
VERTEX
  5
4E4
  8
0
 62
    33
 10
0.0
 20
0.0
 30
0.0
 70
   128
 71
   263
 72
   275
 73
  -276
 74
  -263
  0
VERTEX
  5
4E5
  8
0
 62
    33
 10
0.0
 20
0.0
 30
0.0
 70
   128
 71
  -264
 72
   277
 73
   265
 74
  -264
  0
VERTEX
  5
4E6
  8
0
 62
    33
 10
0.0
 20
0.0
 30
0.0
 70
   128
 71
   264
 72
   276
 73
  -277
 74
  -264
  0
VERTEX
  5
4E7
  8
0
 62
    33
 10
0.0
 20
0.0
 30
0.0
 70
   128
 71
  -265
 72
   278
 73
   266
 74
  -265
  0
VERTEX
  5
4E8
  8
0
 62
    33
 10
0.0
 20
0.0
 30
0.0
 70
   128
 71
   265
 72
   277
 73
  -278
 74
  -265
  0
VERTEX
  5
4E9
  8
0
 62
    33
 10
0.0
 20
0.0
 30
0.0
 70
   128
 71
  -266
 72
   279
 73
   267
 74
  -266
  0
VERTEX
  5
4EA
  8
0
 62
    33
 10
0.0
 20
0.0
 30
0.0
 70
   128
 71
   266
 72
   278
 73
  -279
 74
  -266
  0
VERTEX
  5
4EB
  8
0
 62
    33
 10
0.0
 20
0.0
 30
0.0
 70
   128
 71
  -267
 72
   280
 73
   268
 74
  -267
  0
VERTEX
  5
4EC
  8
0
 62
    33
 10
0.0
 20
0.0
 30
0.0
 70
   128
 71
   267
 72
   279
 73
  -280
 74
  -267
  0
VERTEX
  5
4ED
  8
0
 62
    33
 10
0.0
 20
0.0
 30
0.0
 70
   128
 71
  -268
 72
   281
 73
   269
 74
  -268
  0
VERTEX
  5
4EE
  8
0
 62
    33
 10
0.0
 20
0.0
 30
0.0
 70
   128
 71
   268
 72
   280
 73
  -281
 74
  -268
  0
VERTEX
  5
4EF
  8
0
 62
    33
 10
0.0
 20
0.0
 30
0.0
 70
   128
 71
  -269
 72
   282
 73
   270
 74
  -269
  0
VERTEX
  5
4F0
  8
0
 62
    33
 10
0.0
 20
0.0
 30
0.0
 70
   128
 71
   269
 72
   281
 73
  -282
 74
  -269
  0
VERTEX
  5
4F1
  8
0
 62
    33
 10
0.0
 20
0.0
 30
0.0
 70
   128
 71
  -270
 72
   283
 73
   271
 74
  -270
  0
VERTEX
  5
4F2
  8
0
 62
    33
 10
0.0
 20
0.0
 30
0.0
 70
   128
 71
   270
 72
   282
 73
  -283
 74
  -270
  0
VERTEX
  5
4F3
  8
0
 62
    33
 10
0.0
 20
0.0
 30
0.0
 70
   128
 71
  -271
 72
   284
 73
   272
 74
  -271
  0
VERTEX
  5
4F4
  8
0
 62
    33
 10
0.0
 20
0.0
 30
0.0
 70
   128
 71
   271
 72
   283
 73
  -284
 74
  -271
  0
VERTEX
  5
4F5
  8
0
 62
    33
 10
0.0
 20
0.0
 30
0.0
 70
   128
 71
  -272
 72
   285
 73
   273
 74
  -272
  0
VERTEX
  5
4F6
  8
0
 62
    33
 10
0.0
 20
0.0
 30
0.0
 70
   128
 71
   272
 72
   284
 73
  -285
 74
  -272
  0
VERTEX
  5
4F7
  8
0
 62
    33
 10
0.0
 20
0.0
 30
0.0
 70
   128
 71
  -273
 72
   286
 73
   274
 74
  -273
  0
VERTEX
  5
4F8
  8
0
 62
    33
 10
0.0
 20
0.0
 30
0.0
 70
   128
 71
   273
 72
   285
 73
  -286
 74
  -273
  0
VERTEX
  5
4F9
  8
0
 62
    33
 10
0.0
 20
0.0
 30
0.0
 70
   128
 71
   274
 72
   286
 73
  -214
 74
  -274
  0
VERTEX
  5
4FA
  8
0
 62
    33
 10
0.0
 20
0.0
 30
0.0
 70
   128
 71
  -275
 72
   288
 73
   276
 74
  -275
  0
VERTEX
  5
4FB
  8
0
 62
    33
 10
0.0
 20
0.0
 30
0.0
 70
   128
 71
   275
 72
   287
 73
  -288
 74
  -275
  0
VERTEX
  5
4FC
  8
0
 62
    33
 10
0.0
 20
0.0
 30
0.0
 70
   128
 71
  -276
 72
   289
 73
   277
 74
  -276
  0
VERTEX
  5
4FD
  8
0
 62
    33
 10
0.0
 20
0.0
 30
0.0
 70
   128
 71
   276
 72
   288
 73
  -289
 74
  -276
  0
VERTEX
  5
4FE
  8
0
 62
    33
 10
0.0
 20
0.0
 30
0.0
 70
   128
 71
  -277
 72
   290
 73
   278
 74
  -277
  0
VERTEX
  5
4FF
  8
0
 62
    33
 10
0.0
 20
0.0
 30
0.0
 70
   128
 71
   277
 72
   289
 73
  -290
 74
  -277
  0
VERTEX
  5
500
  8
0
 62
    33
 10
0.0
 20
0.0
 30
0.0
 70
   128
 71
  -278
 72
   291
 73
   279
 74
  -278
  0
VERTEX
  5
501
  8
0
 62
    33
 10
0.0
 20
0.0
 30
0.0
 70
   128
 71
   278
 72
   290
 73
  -291
 74
  -278
  0
VERTEX
  5
502
  8
0
 62
    33
 10
0.0
 20
0.0
 30
0.0
 70
   128
 71
  -279
 72
   292
 73
   280
 74
  -279
  0
VERTEX
  5
503
  8
0
 62
    33
 10
0.0
 20
0.0
 30
0.0
 70
   128
 71
   279
 72
   291
 73
  -292
 74
  -279
  0
VERTEX
  5
504
  8
0
 62
    33
 10
0.0
 20
0.0
 30
0.0
 70
   128
 71
  -280
 72
   293
 73
   281
 74
  -280
  0
VERTEX
  5
505
  8
0
 62
    33
 10
0.0
 20
0.0
 30
0.0
 70
   128
 71
   280
 72
   292
 73
  -293
 74
  -280
  0
VERTEX
  5
506
  8
0
 62
    33
 10
0.0
 20
0.0
 30
0.0
 70
   128
 71
  -281
 72
   294
 73
   282
 74
  -281
  0
VERTEX
  5
507
  8
0
 62
    33
 10
0.0
 20
0.0
 30
0.0
 70
   128
 71
   281
 72
   293
 73
  -294
 74
  -281
  0
VERTEX
  5
508
  8
0
 62
    33
 10
0.0
 20
0.0
 30
0.0
 70
   128
 71
  -282
 72
   295
 73
   283
 74
  -282
  0
VERTEX
  5
509
  8
0
 62
    33
 10
0.0
 20
0.0
 30
0.0
 70
   128
 71
   282
 72
   294
 73
  -295
 74
  -282
  0
VERTEX
  5
50A
  8
0
 62
    33
 10
0.0
 20
0.0
 30
0.0
 70
   128
 71
  -283
 72
   296
 73
   284
 74
  -283
  0
VERTEX
  5
50B
  8
0
 62
    33
 10
0.0
 20
0.0
 30
0.0
 70
   128
 71
   283
 72
   295
 73
  -296
 74
  -283
  0
VERTEX
  5
50C
  8
0
 62
    33
 10
0.0
 20
0.0
 30
0.0
 70
   128
 71
  -284
 72
   297
 73
   285
 74
  -284
  0
VERTEX
  5
50D
  8
0
 62
    33
 10
0.0
 20
0.0
 30
0.0
 70
   128
 71
   284
 72
   296
 73
  -297
 74
  -284
  0
VERTEX
  5
50E
  8
0
 62
    33
 10
0.0
 20
0.0
 30
0.0
 70
   128
 71
  -285
 72
   298
 73
   286
 74
  -285
  0
VERTEX
  5
50F
  8
0
 62
    33
 10
0.0
 20
0.0
 30
0.0
 70
   128
 71
   285
 72
   297
 73
  -298
 74
  -285
  0
VERTEX
  5
510
  8
0
 62
    33
 10
0.0
 20
0.0
 30
0.0
 70
   128
 71
   286
 72
   298
 73
  -214
 74
  -286
  0
VERTEX
  5
511
  8
0
 62
    33
 10
0.0
 20
0.0
 30
0.0
 70
   128
 71
  -287
 72
   300
 73
   288
 74
  -287
  0
VERTEX
  5
512
  8
0
 62
    33
 10
0.0
 20
0.0
 30
0.0
 70
   128
 71
   287
 72
   299
 73
  -300
 74
  -287
  0
VERTEX
  5
513
  8
0
 62
    33
 10
0.0
 20
0.0
 30
0.0
 70
   128
 71
  -288
 72
   301
 73
   289
 74
  -288
  0
VERTEX
  5
514
  8
0
 62
    33
 10
0.0
 20
0.0
 30
0.0
 70
   128
 71
   288
 72
   300
 73
  -301
 74
  -288
  0
VERTEX
  5
515
  8
0
 62
    33
 10
0.0
 20
0.0
 30
0.0
 70
   128
 71
  -289
 72
   302
 73
   290
 74
  -289
  0
VERTEX
  5
516
  8
0
 62
    33
 10
0.0
 20
0.0
 30
0.0
 70
   128
 71
   289
 72
   301
 73
  -302
 74
  -289
  0
VERTEX
  5
517
  8
0
 62
    33
 10
0.0
 20
0.0
 30
0.0
 70
   128
 71
  -290
 72
   303
 73
   291
 74
  -290
  0
VERTEX
  5
518
  8
0
 62
    33
 10
0.0
 20
0.0
 30
0.0
 70
   128
 71
   290
 72
   302
 73
  -303
 74
  -290
  0
VERTEX
  5
519
  8
0
 62
    33
 10
0.0
 20
0.0
 30
0.0
 70
   128
 71
  -291
 72
   304
 73
   292
 74
  -291
  0
VERTEX
  5
51A
  8
0
 62
    33
 10
0.0
 20
0.0
 30
0.0
 70
   128
 71
   291
 72
   303
 73
  -304
 74
  -291
  0
VERTEX
  5
51B
  8
0
 62
    33
 10
0.0
 20
0.0
 30
0.0
 70
   128
 71
  -292
 72
   305
 73
   293
 74
  -292
  0
VERTEX
  5
51C
  8
0
 62
    33
 10
0.0
 20
0.0
 30
0.0
 70
   128
 71
   292
 72
   304
 73
  -305
 74
  -292
  0
VERTEX
  5
51D
  8
0
 62
    33
 10
0.0
 20
0.0
 30
0.0
 70
   128
 71
  -293
 72
   306
 73
   294
 74
  -293
  0
VERTEX
  5
51E
  8
0
 62
    33
 10
0.0
 20
0.0
 30
0.0
 70
   128
 71
   293
 72
   305
 73
  -306
 74
  -293
  0
VERTEX
  5
51F
  8
0
 62
    33
 10
0.0
 20
0.0
 30
0.0
 70
   128
 71
  -294
 72
   307
 73
   295
 74
  -294
  0
VERTEX
  5
520
  8
0
 62
    33
 10
0.0
 20
0.0
 30
0.0
 70
   128
 71
   294
 72
   306
 73
  -307
 74
  -294
  0
VERTEX
  5
521
  8
0
 62
    33
 10
0.0
 20
0.0
 30
0.0
 70
   128
 71
  -295
 72
   308
 73
   296
 74
  -295
  0
VERTEX
  5
522
  8
0
 62
    33
 10
0.0
 20
0.0
 30
0.0
 70
   128
 71
   295
 72
   307
 73
  -308
 74
  -295
  0
VERTEX
  5
523
  8
0
 62
    33
 10
0.0
 20
0.0
 30
0.0
 70
   128
 71
  -296
 72
   309
 73
   297
 74
  -296
  0
VERTEX
  5
524
  8
0
 62
    33
 10
0.0
 20
0.0
 30
0.0
 70
   128
 71
   296
 72
   308
 73
  -309
 74
  -296
  0
VERTEX
  5
525
  8
0
 62
    33
 10
0.0
 20
0.0
 30
0.0
 70
   128
 71
  -297
 72
   310
 73
   298
 74
  -297
  0
VERTEX
  5
526
  8
0
 62
    33
 10
0.0
 20
0.0
 30
0.0
 70
   128
 71
   297
 72
   309
 73
  -310
 74
  -297
  0
VERTEX
  5
527
  8
0
 62
    33
 10
0.0
 20
0.0
 30
0.0
 70
   128
 71
   298
 72
   310
 73
  -214
 74
  -298
  0
VERTEX
  5
528
  8
0
 62
    33
 10
0.0
 20
0.0
 30
0.0
 70
   128
 71
  -299
 72
   312
 73
   300
 74
  -299
  0
VERTEX
  5
529
  8
0
 62
    33
 10
0.0
 20
0.0
 30
0.0
 70
   128
 71
   299
 72
   311
 73
  -312
 74
  -299
  0
VERTEX
  5
52A
  8
0
 62
    33
 10
0.0
 20
0.0
 30
0.0
 70
   128
 71
  -300
 72
   313
 73
   301
 74
  -300
  0
VERTEX
  5
52B
  8
0
 62
    33
 10
0.0
 20
0.0
 30
0.0
 70
   128
 71
   300
 72
   312
 73
  -313
 74
  -300
  0
VERTEX
  5
52C
  8
0
 62
    33
 10
0.0
 20
0.0
 30
0.0
 70
   128
 71
  -301
 72
   314
 73
   302
 74
  -301
  0
VERTEX
  5
52D
  8
0
 62
    33
 10
0.0
 20
0.0
 30
0.0
 70
   128
 71
   301
 72
   313
 73
  -314
 74
  -301
  0
VERTEX
  5
52E
  8
0
 62
    33
 10
0.0
 20
0.0
 30
0.0
 70
   128
 71
  -302
 72
   315
 73
   303
 74
  -302
  0
VERTEX
  5
52F
  8
0
 62
    33
 10
0.0
 20
0.0
 30
0.0
 70
   128
 71
   302
 72
   314
 73
  -315
 74
  -302
  0
VERTEX
  5
530
  8
0
 62
    33
 10
0.0
 20
0.0
 30
0.0
 70
   128
 71
  -303
 72
   316
 73
   304
 74
  -303
  0
VERTEX
  5
531
  8
0
 62
    33
 10
0.0
 20
0.0
 30
0.0
 70
   128
 71
   303
 72
   315
 73
  -316
 74
  -303
  0
VERTEX
  5
532
  8
0
 62
    33
 10
0.0
 20
0.0
 30
0.0
 70
   128
 71
  -304
 72
   317
 73
   305
 74
  -304
  0
VERTEX
  5
533
  8
0
 62
    33
 10
0.0
 20
0.0
 30
0.0
 70
   128
 71
   304
 72
   316
 73
  -317
 74
  -304
  0
VERTEX
  5
534
  8
0
 62
    33
 10
0.0
 20
0.0
 30
0.0
 70
   128
 71
  -305
 72
   318
 73
   306
 74
  -305
  0
VERTEX
  5
535
  8
0
 62
    33
 10
0.0
 20
0.0
 30
0.0
 70
   128
 71
   305
 72
   317
 73
  -318
 74
  -305
  0
VERTEX
  5
536
  8
0
 62
    33
 10
0.0
 20
0.0
 30
0.0
 70
   128
 71
  -306
 72
   319
 73
   307
 74
  -306
  0
VERTEX
  5
537
  8
0
 62
    33
 10
0.0
 20
0.0
 30
0.0
 70
   128
 71
   306
 72
   318
 73
  -319
 74
  -306
  0
VERTEX
  5
538
  8
0
 62
    33
 10
0.0
 20
0.0
 30
0.0
 70
   128
 71
  -307
 72
   320
 73
   308
 74
  -307
  0
VERTEX
  5
539
  8
0
 62
    33
 10
0.0
 20
0.0
 30
0.0
 70
   128
 71
   307
 72
   319
 73
  -320
 74
  -307
  0
VERTEX
  5
53A
  8
0
 62
    33
 10
0.0
 20
0.0
 30
0.0
 70
   128
 71
  -308
 72
   321
 73
   309
 74
  -308
  0
VERTEX
  5
53B
  8
0
 62
    33
 10
0.0
 20
0.0
 30
0.0
 70
   128
 71
   308
 72
   320
 73
  -321
 74
  -308
  0
VERTEX
  5
53C
  8
0
 62
    33
 10
0.0
 20
0.0
 30
0.0
 70
   128
 71
  -309
 72
   322
 73
   310
 74
  -309
  0
VERTEX
  5
53D
  8
0
 62
    33
 10
0.0
 20
0.0
 30
0.0
 70
   128
 71
   309
 72
   321
 73
  -322
 74
  -309
  0
VERTEX
  5
53E
  8
0
 62
    33
 10
0.0
 20
0.0
 30
0.0
 70
   128
 71
   310
 72
   322
 73
  -214
 74
  -310
  0
VERTEX
  5
53F
  8
0
 62
    33
 10
0.0
 20
0.0
 30
0.0
 70
   128
 71
  -311
 72
   324
 73
   312
 74
  -311
  0
VERTEX
  5
540
  8
0
 62
    33
 10
0.0
 20
0.0
 30
0.0
 70
   128
 71
   311
 72
   323
 73
  -324
 74
  -311
  0
VERTEX
  5
541
  8
0
 62
    33
 10
0.0
 20
0.0
 30
0.0
 70
   128
 71
  -312
 72
   325
 73
   313
 74
  -312
  0
VERTEX
  5
542
  8
0
 62
    33
 10
0.0
 20
0.0
 30
0.0
 70
   128
 71
   312
 72
   324
 73
  -325
 74
  -312
  0
VERTEX
  5
543
  8
0
 62
    33
 10
0.0
 20
0.0
 30
0.0
 70
   128
 71
  -313
 72
   326
 73
   314
 74
  -313
  0
VERTEX
  5
544
  8
0
 62
    33
 10
0.0
 20
0.0
 30
0.0
 70
   128
 71
   313
 72
   325
 73
  -326
 74
  -313
  0
VERTEX
  5
545
  8
0
 62
    33
 10
0.0
 20
0.0
 30
0.0
 70
   128
 71
  -314
 72
   327
 73
   315
 74
  -314
  0
VERTEX
  5
546
  8
0
 62
    33
 10
0.0
 20
0.0
 30
0.0
 70
   128
 71
   314
 72
   326
 73
  -327
 74
  -314
  0
VERTEX
  5
547
  8
0
 62
    33
 10
0.0
 20
0.0
 30
0.0
 70
   128
 71
  -315
 72
   328
 73
   316
 74
  -315
  0
VERTEX
  5
548
  8
0
 62
    33
 10
0.0
 20
0.0
 30
0.0
 70
   128
 71
   315
 72
   327
 73
  -328
 74
  -315
  0
VERTEX
  5
549
  8
0
 62
    33
 10
0.0
 20
0.0
 30
0.0
 70
   128
 71
  -316
 72
   329
 73
   317
 74
  -316
  0
VERTEX
  5
54A
  8
0
 62
    33
 10
0.0
 20
0.0
 30
0.0
 70
   128
 71
   316
 72
   328
 73
  -329
 74
  -316
  0
VERTEX
  5
54B
  8
0
 62
    33
 10
0.0
 20
0.0
 30
0.0
 70
   128
 71
  -317
 72
   330
 73
   318
 74
  -317
  0
VERTEX
  5
54C
  8
0
 62
    33
 10
0.0
 20
0.0
 30
0.0
 70
   128
 71
   317
 72
   329
 73
  -330
 74
  -317
  0
VERTEX
  5
54D
  8
0
 62
    33
 10
0.0
 20
0.0
 30
0.0
 70
   128
 71
  -318
 72
   331
 73
   319
 74
  -318
  0
VERTEX
  5
54E
  8
0
 62
    33
 10
0.0
 20
0.0
 30
0.0
 70
   128
 71
   318
 72
   330
 73
  -331
 74
  -318
  0
VERTEX
  5
54F
  8
0
 62
    33
 10
0.0
 20
0.0
 30
0.0
 70
   128
 71
  -319
 72
   332
 73
   320
 74
  -319
  0
VERTEX
  5
550
  8
0
 62
    33
 10
0.0
 20
0.0
 30
0.0
 70
   128
 71
   319
 72
   331
 73
  -332
 74
  -319
  0
VERTEX
  5
551
  8
0
 62
    33
 10
0.0
 20
0.0
 30
0.0
 70
   128
 71
  -320
 72
   333
 73
   321
 74
  -320
  0
VERTEX
  5
552
  8
0
 62
    33
 10
0.0
 20
0.0
 30
0.0
 70
   128
 71
   320
 72
   332
 73
  -333
 74
  -320
  0
VERTEX
  5
553
  8
0
 62
    33
 10
0.0
 20
0.0
 30
0.0
 70
   128
 71
  -321
 72
   334
 73
   322
 74
  -321
  0
VERTEX
  5
554
  8
0
 62
    33
 10
0.0
 20
0.0
 30
0.0
 70
   128
 71
   321
 72
   333
 73
  -334
 74
  -321
  0
VERTEX
  5
555
  8
0
 62
    33
 10
0.0
 20
0.0
 30
0.0
 70
   128
 71
   322
 72
   334
 73
  -214
 74
  -322
  0
VERTEX
  5
556
  8
0
 62
    33
 10
0.0
 20
0.0
 30
0.0
 70
   128
 71
  -323
 72
   336
 73
   324
 74
  -323
  0
VERTEX
  5
557
  8
0
 62
    33
 10
0.0
 20
0.0
 30
0.0
 70
   128
 71
   323
 72
   335
 73
  -336
 74
  -323
  0
VERTEX
  5
558
  8
0
 62
    33
 10
0.0
 20
0.0
 30
0.0
 70
   128
 71
  -324
 72
   337
 73
   325
 74
  -324
  0
VERTEX
  5
559
  8
0
 62
    33
 10
0.0
 20
0.0
 30
0.0
 70
   128
 71
   324
 72
   336
 73
  -337
 74
  -324
  0
VERTEX
  5
55A
  8
0
 62
    33
 10
0.0
 20
0.0
 30
0.0
 70
   128
 71
  -325
 72
   338
 73
   326
 74
  -325
  0
VERTEX
  5
55B
  8
0
 62
    33
 10
0.0
 20
0.0
 30
0.0
 70
   128
 71
   325
 72
   337
 73
  -338
 74
  -325
  0
VERTEX
  5
55C
  8
0
 62
    33
 10
0.0
 20
0.0
 30
0.0
 70
   128
 71
  -326
 72
   339
 73
   327
 74
  -326
  0
VERTEX
  5
55D
  8
0
 62
    33
 10
0.0
 20
0.0
 30
0.0
 70
   128
 71
   326
 72
   338
 73
  -339
 74
  -326
  0
VERTEX
  5
55E
  8
0
 62
    33
 10
0.0
 20
0.0
 30
0.0
 70
   128
 71
  -327
 72
   340
 73
   328
 74
  -327
  0
VERTEX
  5
55F
  8
0
 62
    33
 10
0.0
 20
0.0
 30
0.0
 70
   128
 71
   327
 72
   339
 73
  -340
 74
  -327
  0
VERTEX
  5
560
  8
0
 62
    33
 10
0.0
 20
0.0
 30
0.0
 70
   128
 71
  -328
 72
   341
 73
   329
 74
  -328
  0
VERTEX
  5
561
  8
0
 62
    33
 10
0.0
 20
0.0
 30
0.0
 70
   128
 71
   328
 72
   340
 73
  -341
 74
  -328
  0
VERTEX
  5
562
  8
0
 62
    33
 10
0.0
 20
0.0
 30
0.0
 70
   128
 71
  -329
 72
   342
 73
   330
 74
  -329
  0
VERTEX
  5
563
  8
0
 62
    33
 10
0.0
 20
0.0
 30
0.0
 70
   128
 71
   329
 72
   341
 73
  -342
 74
  -329
  0
VERTEX
  5
564
  8
0
 62
    33
 10
0.0
 20
0.0
 30
0.0
 70
   128
 71
  -330
 72
   343
 73
   331
 74
  -330
  0
VERTEX
  5
565
  8
0
 62
    33
 10
0.0
 20
0.0
 30
0.0
 70
   128
 71
   330
 72
   342
 73
  -343
 74
  -330
  0
VERTEX
  5
566
  8
0
 62
    33
 10
0.0
 20
0.0
 30
0.0
 70
   128
 71
  -331
 72
   344
 73
   332
 74
  -331
  0
VERTEX
  5
567
  8
0
 62
    33
 10
0.0
 20
0.0
 30
0.0
 70
   128
 71
   331
 72
   343
 73
  -344
 74
  -331
  0
VERTEX
  5
568
  8
0
 62
    33
 10
0.0
 20
0.0
 30
0.0
 70
   128
 71
  -332
 72
   345
 73
   333
 74
  -332
  0
VERTEX
  5
569
  8
0
 62
    33
 10
0.0
 20
0.0
 30
0.0
 70
   128
 71
   332
 72
   344
 73
  -345
 74
  -332
  0
VERTEX
  5
56A
  8
0
 62
    33
 10
0.0
 20
0.0
 30
0.0
 70
   128
 71
  -333
 72
   346
 73
   334
 74
  -333
  0
VERTEX
  5
56B
  8
0
 62
    33
 10
0.0
 20
0.0
 30
0.0
 70
   128
 71
   333
 72
   345
 73
  -346
 74
  -333
  0
VERTEX
  5
56C
  8
0
 62
    33
 10
0.0
 20
0.0
 30
0.0
 70
   128
 71
   334
 72
   346
 73
  -214
 74
  -334
  0
VERTEX
  5
56D
  8
0
 62
    33
 10
0.0
 20
0.0
 30
0.0
 70
   128
 71
  -335
 72
   203
 73
   336
 74
  -335
  0
VERTEX
  5
56E
  8
0
 62
    33
 10
0.0
 20
0.0
 30
0.0
 70
   128
 71
   335
 72
   202
 73
  -203
 74
  -335
  0
VERTEX
  5
56F
  8
0
 62
    33
 10
0.0
 20
0.0
 30
0.0
 70
   128
 71
  -336
 72
   204
 73
   337
 74
  -336
  0
VERTEX
  5
570
  8
0
 62
    33
 10
0.0
 20
0.0
 30
0.0
 70
   128
 71
   336
 72
   203
 73
  -204
 74
  -336
  0
VERTEX
  5
571
  8
0
 62
    33
 10
0.0
 20
0.0
 30
0.0
 70
   128
 71
  -337
 72
   205
 73
   338
 74
  -337
  0
VERTEX
  5
572
  8
0
 62
    33
 10
0.0
 20
0.0
 30
0.0
 70
   128
 71
   337
 72
   204
 73
  -205
 74
  -337
  0
VERTEX
  5
573
  8
0
 62
    33
 10
0.0
 20
0.0
 30
0.0
 70
   128
 71
  -338
 72
   206
 73
   339
 74
  -338
  0
VERTEX
  5
574
  8
0
 62
    33
 10
0.0
 20
0.0
 30
0.0
 70
   128
 71
   338
 72
   205
 73
  -206
 74
  -338
  0
VERTEX
  5
575
  8
0
 62
    33
 10
0.0
 20
0.0
 30
0.0
 70
   128
 71
  -339
 72
   207
 73
   340
 74
  -339
  0
VERTEX
  5
576
  8
0
 62
    33
 10
0.0
 20
0.0
 30
0.0
 70
   128
 71
   339
 72
   206
 73
  -207
 74
  -339
  0
VERTEX
  5
577
  8
0
 62
    33
 10
0.0
 20
0.0
 30
0.0
 70
   128
 71
  -340
 72
   208
 73
   341
 74
  -340
  0
VERTEX
  5
578
  8
0
 62
    33
 10
0.0
 20
0.0
 30
0.0
 70
   128
 71
   340
 72
   207
 73
  -208
 74
  -340
  0
VERTEX
  5
579
  8
0
 62
    33
 10
0.0
 20
0.0
 30
0.0
 70
   128
 71
  -341
 72
   209
 73
   342
 74
  -341
  0
VERTEX
  5
57A
  8
0
 62
    33
 10
0.0
 20
0.0
 30
0.0
 70
   128
 71
   341
 72
   208
 73
  -209
 74
  -341
  0
VERTEX
  5
57B
  8
0
 62
    33
 10
0.0
 20
0.0
 30
0.0
 70
   128
 71
  -342
 72
   210
 73
   343
 74
  -342
  0
VERTEX
  5
57C
  8
0
 62
    33
 10
0.0
 20
0.0
 30
0.0
 70
   128
 71
   342
 72
   209
 73
  -210
 74
  -342
  0
VERTEX
  5
57D
  8
0
 62
    33
 10
0.0
 20
0.0
 30
0.0
 70
   128
 71
  -343
 72
   211
 73
   344
 74
  -343
  0
VERTEX
  5
57E
  8
0
 62
    33
 10
0.0
 20
0.0
 30
0.0
 70
   128
 71
   343
 72
   210
 73
  -211
 74
  -343
  0
VERTEX
  5
57F
  8
0
 62
    33
 10
0.0
 20
0.0
 30
0.0
 70
   128
 71
  -344
 72
   212
 73
   345
 74
  -344
  0
VERTEX
  5
580
  8
0
 62
    33
 10
0.0
 20
0.0
 30
0.0
 70
   128
 71
   344
 72
   211
 73
  -212
 74
  -344
  0
VERTEX
  5
581
  8
0
 62
    33
 10
0.0
 20
0.0
 30
0.0
 70
   128
 71
  -345
 72
   213
 73
   346
 74
  -345
  0
VERTEX
  5
582
  8
0
 62
    33
 10
0.0
 20
0.0
 30
0.0
 70
   128
 71
   345
 72
   212
 73
  -213
 74
  -345
  0
VERTEX
  5
583
  8
0
 62
    33
 10
0.0
 20
0.0
 30
0.0
 70
   128
 71
   346
 72
   213
 73
  -214
 74
  -346
  0
VERTEX
  5
584
  8
0
 62
    33
 10
0.0
 20
0.0
 30
0.0
 70
   128
 71
  -347
 72
   366
 73
  -365
 74
  -347
  0
VERTEX
  5
585
  8
0
 62
    33
 10
0.0
 20
0.0
 30
0.0
 70
   128
 71
  -347
 72
   367
 73
  -366
 74
  -347
  0
VERTEX
  5
586
  8
0
 62
    33
 10
0.0
 20
0.0
 30
0.0
 70
   128
 71
  -347
 72
   368
 73
  -367
 74
  -347
  0
VERTEX
  5
587
  8
0
 62
    33
 10
0.0
 20
0.0
 30
0.0
 70
   128
 71
  -347
 72
   369
 73
  -368
 74
  -347
  0
VERTEX
  5
588
  8
0
 62
    33
 10
0.0
 20
0.0
 30
0.0
 70
   128
 71
  -347
 72
   370
 73
  -369
 74
  -347
  0
VERTEX
  5
589
  8
0
 62
    33
 10
0.0
 20
0.0
 30
0.0
 70
   128
 71
  -347
 72
   371
 73
  -370
 74
  -347
  0
VERTEX
  5
58A
  8
0
 62
    33
 10
0.0
 20
0.0
 30
0.0
 70
   128
 71
  -347
 72
   372
 73
  -371
 74
  -347
  0
VERTEX
  5
58B
  8
0
 62
    33
 10
0.0
 20
0.0
 30
0.0
 70
   128
 71
  -347
 72
   365
 73
  -372
 74
  -347
  0
VERTEX
  5
58C
  8
0
 62
    33
 10
0.0
 20
0.0
 30
0.0
 70
   128
 71
  -348
 72
   357
 73
   356
 74
  -348
  0
VERTEX
  5
58D
  8
0
 62
    33
 10
0.0
 20
0.0
 30
0.0
 70
   128
 71
   348
 72
   349
 73
  -357
 74
  -348
  0
VERTEX
  5
58E
  8
0
 62
    33
 10
0.0
 20
0.0
 30
0.0
 70
   128
 71
  -349
 72
   358
 73
   357
 74
  -349
  0
VERTEX
  5
58F
  8
0
 62
    33
 10
0.0
 20
0.0
 30
0.0
 70
   128
 71
   349
 72
   350
 73
  -358
 74
  -349
  0
VERTEX
  5
590
  8
0
 62
    33
 10
0.0
 20
0.0
 30
0.0
 70
   128
 71
  -350
 72
   359
 73
   358
 74
  -350
  0
VERTEX
  5
591
  8
0
 62
    33
 10
0.0
 20
0.0
 30
0.0
 70
   128
 71
   350
 72
   351
 73
  -359
 74
  -350
  0
VERTEX
  5
592
  8
0
 62
    33
 10
0.0
 20
0.0
 30
0.0
 70
   128
 71
  -351
 72
   360
 73
   359
 74
  -351
  0
VERTEX
  5
593
  8
0
 62
    33
 10
0.0
 20
0.0
 30
0.0
 70
   128
 71
   351
 72
   352
 73
  -360
 74
  -351
  0
VERTEX
  5
594
  8
0
 62
    33
 10
0.0
 20
0.0
 30
0.0
 70
   128
 71
  -352
 72
   361
 73
   360
 74
  -352
  0
VERTEX
  5
595
  8
0
 62
    33
 10
0.0
 20
0.0
 30
0.0
 70
   128
 71
   352
 72
   353
 73
  -361
 74
  -352
  0
VERTEX
  5
596
  8
0
 62
    33
 10
0.0
 20
0.0
 30
0.0
 70
   128
 71
  -353
 72
   362
 73
   361
 74
  -353
  0
VERTEX
  5
597
  8
0
 62
    33
 10
0.0
 20
0.0
 30
0.0
 70
   128
 71
   353
 72
   354
 73
  -362
 74
  -353
  0
VERTEX
  5
598
  8
0
 62
    33
 10
0.0
 20
0.0
 30
0.0
 70
   128
 71
  -354
 72
   363
 73
   362
 74
  -354
  0
VERTEX
  5
599
  8
0
 62
    33
 10
0.0
 20
0.0
 30
0.0
 70
   128
 71
   354
 72
   355
 73
  -363
 74
  -354
  0
VERTEX
  5
59A
  8
0
 62
    33
 10
0.0
 20
0.0
 30
0.0
 70
   128
 71
  -355
 72
   356
 73
   363
 74
  -355
  0
VERTEX
  5
59B
  8
0
 62
    33
 10
0.0
 20
0.0
 30
0.0
 70
   128
 71
   355
 72
   348
 73
  -356
 74
  -355
  0
VERTEX
  5
59C
  8
0
 62
    33
 10
0.0
 20
0.0
 30
0.0
 70
   128
 71
  -364
 72
   373
 73
  -374
 74
  -364
  0
VERTEX
  5
59D
  8
0
 62
    33
 10
0.0
 20
0.0
 30
0.0
 70
   128
 71
  -364
 72
   374
 73
  -375
 74
  -364
  0
VERTEX
  5
59E
  8
0
 62
    33
 10
0.0
 20
0.0
 30
0.0
 70
   128
 71
  -364
 72
   375
 73
  -376
 74
  -364
  0
VERTEX
  5
59F
  8
0
 62
    33
 10
0.0
 20
0.0
 30
0.0
 70
   128
 71
  -364
 72
   376
 73
  -377
 74
  -364
  0
VERTEX
  5
5A0
  8
0
 62
    33
 10
0.0
 20
0.0
 30
0.0
 70
   128
 71
  -364
 72
   377
 73
  -378
 74
  -364
  0
VERTEX
  5
5A1
  8
0
 62
    33
 10
0.0
 20
0.0
 30
0.0
 70
   128
 71
  -364
 72
   378
 73
  -379
 74
  -364
  0
VERTEX
  5
5A2
  8
0
 62
    33
 10
0.0
 20
0.0
 30
0.0
 70
   128
 71
  -364
 72
   379
 73
  -380
 74
  -364
  0
VERTEX
  5
5A3
  8
0
 62
    33
 10
0.0
 20
0.0
 30
0.0
 70
   128
 71
  -364
 72
   380
 73
  -373
 74
  -364
  0
VERTEX
  5
5A4
  8
0
 62
    33
 10
0.0
 20
0.0
 30
0.0
 70
   128
 71
   349
 72
   348
 73
  -365
 74
  -349
  0
VERTEX
  5
5A5
  8
0
 62
    33
 10
0.0
 20
0.0
 30
0.0
 70
   128
 71
   365
 72
   366
 73
  -349
 74
  -365
  0
VERTEX
  5
5A6
  8
0
 62
    33
 10
0.0
 20
0.0
 30
0.0
 70
   128
 71
   350
 72
   349
 73
  -366
 74
  -350
  0
VERTEX
  5
5A7
  8
0
 62
    33
 10
0.0
 20
0.0
 30
0.0
 70
   128
 71
   366
 72
   367
 73
  -350
 74
  -366
  0
VERTEX
  5
5A8
  8
0
 62
    33
 10
0.0
 20
0.0
 30
0.0
 70
   128
 71
   351
 72
   350
 73
  -367
 74
  -351
  0
VERTEX
  5
5A9
  8
0
 62
    33
 10
0.0
 20
0.0
 30
0.0
 70
   128
 71
   367
 72
   368
 73
  -351
 74
  -367
  0
VERTEX
  5
5AA
  8
0
 62
    33
 10
0.0
 20
0.0
 30
0.0
 70
   128
 71
   352
 72
   351
 73
  -368
 74
  -352
  0
VERTEX
  5
5AB
  8
0
 62
    33
 10
0.0
 20
0.0
 30
0.0
 70
   128
 71
   368
 72
   369
 73
  -352
 74
  -368
  0
VERTEX
  5
5AC
  8
0
 62
    33
 10
0.0
 20
0.0
 30
0.0
 70
   128
 71
   353
 72
   352
 73
  -369
 74
  -353
  0
VERTEX
  5
5AD
  8
0
 62
    33
 10
0.0
 20
0.0
 30
0.0
 70
   128
 71
   369
 72
   370
 73
  -353
 74
  -369
  0
VERTEX
  5
5AE
  8
0
 62
    33
 10
0.0
 20
0.0
 30
0.0
 70
   128
 71
   354
 72
   353
 73
  -370
 74
  -354
  0
VERTEX
  5
5AF
  8
0
 62
    33
 10
0.0
 20
0.0
 30
0.0
 70
   128
 71
   370
 72
   371
 73
  -354
 74
  -370
  0
VERTEX
  5
5B0
  8
0
 62
    33
 10
0.0
 20
0.0
 30
0.0
 70
   128
 71
   355
 72
   354
 73
  -371
 74
  -355
  0
VERTEX
  5
5B1
  8
0
 62
    33
 10
0.0
 20
0.0
 30
0.0
 70
   128
 71
   371
 72
   372
 73
  -355
 74
  -371
  0
VERTEX
  5
5B2
  8
0
 62
    33
 10
0.0
 20
0.0
 30
0.0
 70
   128
 71
   348
 72
   355
 73
  -372
 74
  -348
  0
VERTEX
  5
5B3
  8
0
 62
    33
 10
0.0
 20
0.0
 30
0.0
 70
   128
 71
   372
 72
   365
 73
  -348
 74
  -372
  0
VERTEX
  5
5B4
  8
0
 62
    33
 10
0.0
 20
0.0
 30
0.0
 70
   128
 71
   356
 72
   357
 73
  -374
 74
  -356
  0
VERTEX
  5
5B5
  8
0
 62
    33
 10
0.0
 20
0.0
 30
0.0
 70
   128
 71
   374
 72
   373
 73
  -356
 74
  -374
  0
VERTEX
  5
5B6
  8
0
 62
    33
 10
0.0
 20
0.0
 30
0.0
 70
   128
 71
   357
 72
   358
 73
  -375
 74
  -357
  0
VERTEX
  5
5B7
  8
0
 62
    33
 10
0.0
 20
0.0
 30
0.0
 70
   128
 71
   375
 72
   374
 73
  -357
 74
  -375
  0
VERTEX
  5
5B8
  8
0
 62
    33
 10
0.0
 20
0.0
 30
0.0
 70
   128
 71
   358
 72
   359
 73
  -376
 74
  -358
  0
VERTEX
  5
5B9
  8
0
 62
    33
 10
0.0
 20
0.0
 30
0.0
 70
   128
 71
   376
 72
   375
 73
  -358
 74
  -376
  0
VERTEX
  5
5BA
  8
0
 62
    33
 10
0.0
 20
0.0
 30
0.0
 70
   128
 71
   359
 72
   360
 73
  -377
 74
  -359
  0
VERTEX
  5
5BB
  8
0
 62
    33
 10
0.0
 20
0.0
 30
0.0
 70
   128
 71
   377
 72
   376
 73
  -359
 74
  -377
  0
VERTEX
  5
5BC
  8
0
 62
    33
 10
0.0
 20
0.0
 30
0.0
 70
   128
 71
   360
 72
   361
 73
  -378
 74
  -360
  0
VERTEX
  5
5BD
  8
0
 62
    33
 10
0.0
 20
0.0
 30
0.0
 70
   128
 71
   378
 72
   377
 73
  -360
 74
  -378
  0
VERTEX
  5
5BE
  8
0
 62
    33
 10
0.0
 20
0.0
 30
0.0
 70
   128
 71
   361
 72
   362
 73
  -379
 74
  -361
  0
VERTEX
  5
5BF
  8
0
 62
    33
 10
0.0
 20
0.0
 30
0.0
 70
   128
 71
   379
 72
   378
 73
  -361
 74
  -379
  0
VERTEX
  5
5C0
  8
0
 62
    33
 10
0.0
 20
0.0
 30
0.0
 70
   128
 71
   362
 72
   363
 73
  -380
 74
  -362
  0
VERTEX
  5
5C1
  8
0
 62
    33
 10
0.0
 20
0.0
 30
0.0
 70
   128
 71
   380
 72
   379
 73
  -362
 74
  -380
  0
VERTEX
  5
5C2
  8
0
 62
    33
 10
0.0
 20
0.0
 30
0.0
 70
   128
 71
   363
 72
   356
 73
  -373
 74
  -363
  0
VERTEX
  5
5C3
  8
0
 62
    33
 10
0.0
 20
0.0
 30
0.0
 70
   128
 71
   373
 72
   380
 73
  -363
 74
  -373
  0
VERTEX
  5
5C4
  8
0
 62
    33
 10
0.0
 20
0.0
 30
0.0
 70
   128
 71
   133
 72
  -381
 73
   134
 74
  -133
  0
VERTEX
  5
5C5
  8
0
 62
    33
 10
0.0
 20
0.0
 30
0.0
 70
   128
 71
   382
 72
  -134
 73
   381
 74
  -382
  0
VERTEX
  5
5C6
  8
0
 62
    33
 10
0.0
 20
0.0
 30
0.0
 70
   128
 71
   134
 72
  -382
 73
   135
 74
  -134
  0
VERTEX
  5
5C7
  8
0
 62
    33
 10
0.0
 20
0.0
 30
0.0
 70
   128
 71
   383
 72
  -135
 73
   382
 74
  -383
  0
VERTEX
  5
5C8
  8
0
 62
    33
 10
0.0
 20
0.0
 30
0.0
 70
   128
 71
   135
 72
  -383
 73
   136
 74
  -135
  0
VERTEX
  5
5C9
  8
0
 62
    33
 10
0.0
 20
0.0
 30
0.0
 70
   128
 71
   384
 72
  -136
 73
   383
 74
  -384
  0
VERTEX
  5
5CA
  8
0
 62
    33
 10
0.0
 20
0.0
 30
0.0
 70
   128
 71
   136
 72
  -384
 73
   137
 74
  -136
  0
VERTEX
  5
5CB
  8
0
 62
    33
 10
0.0
 20
0.0
 30
0.0
 70
   128
 71
   385
 72
  -137
 73
   384
 74
  -385
  0
VERTEX
  5
5CC
  8
0
 62
    33
 10
0.0
 20
0.0
 30
0.0
 70
   128
 71
   137
 72
  -385
 73
   138
 74
  -137
  0
VERTEX
  5
5CD
  8
0
 62
    33
 10
0.0
 20
0.0
 30
0.0
 70
   128
 71
   386
 72
  -138
 73
   385
 74
  -386
  0
VERTEX
  5
5CE
  8
0
 62
    33
 10
0.0
 20
0.0
 30
0.0
 70
   128
 71
   138
 72
  -386
 73
   139
 74
  -138
  0
VERTEX
  5
5CF
  8
0
 62
    33
 10
0.0
 20
0.0
 30
0.0
 70
   128
 71
   387
 72
  -139
 73
   386
 74
  -387
  0
VERTEX
  5
5D0
  8
0
 62
    33
 10
0.0
 20
0.0
 30
0.0
 70
   128
 71
   139
 72
  -387
 73
   140
 74
  -139
  0
VERTEX
  5
5D1
  8
0
 62
    33
 10
0.0
 20
0.0
 30
0.0
 70
   128
 71
   388
 72
  -140
 73
   387
 74
  -388
  0
VERTEX
  5
5D2
  8
0
 62
    33
 10
0.0
 20
0.0
 30
0.0
 70
   128
 71
   140
 72
  -388
 73
   141
 74
  -140
  0
VERTEX
  5
5D3
  8
0
 62
    33
 10
0.0
 20
0.0
 30
0.0
 70
   128
 71
   389
 72
  -141
 73
   388
 74
  -389
  0
VERTEX
  5
5D4
  8
0
 62
    33
 10
0.0
 20
0.0
 30
0.0
 70
   128
 71
   141
 72
  -389
 73
   142
 74
  -141
  0
VERTEX
  5
5D5
  8
0
 62
    33
 10
0.0
 20
0.0
 30
0.0
 70
   128
 71
   390
 72
  -142
 73
   389
 74
  -390
  0
VERTEX
  5
5D6
  8
0
 62
    33
 10
0.0
 20
0.0
 30
0.0
 70
   128
 71
   142
 72
  -390
 73
   143
 74
  -142
  0
VERTEX
  5
5D7
  8
0
 62
    33
 10
0.0
 20
0.0
 30
0.0
 70
   128
 71
   391
 72
  -143
 73
   390
 74
  -391
  0
VERTEX
  5
5D8
  8
0
 62
    33
 10
0.0
 20
0.0
 30
0.0
 70
   128
 71
   143
 72
  -391
 73
   144
 74
  -143
  0
VERTEX
  5
5D9
  8
0
 62
    33
 10
0.0
 20
0.0
 30
0.0
 70
   128
 71
   392
 72
  -144
 73
   391
 74
  -392
  0
VERTEX
  5
5DA
  8
0
 62
    33
 10
0.0
 20
0.0
 30
0.0
 70
   128
 71
   381
 72
  -133
 73
   392
 74
  -381
  0
VERTEX
  5
5DB
  8
0
 62
    33
 10
0.0
 20
0.0
 30
0.0
 70
   128
 71
   144
 72
  -392
 73
   133
 74
  -144
  0
VERTEX
  5
5DC
  8
0
 62
    33
 10
0.0
 20
0.0
 30
0.0
 70
   128
 71
   121
 72
  -393
 73
   122
 74
  -121
  0
VERTEX
  5
5DD
  8
0
 62
    33
 10
0.0
 20
0.0
 30
0.0
 70
   128
 71
   394
 72
  -122
 73
   393
 74
  -394
  0
VERTEX
  5
5DE
  8
0
 62
    33
 10
0.0
 20
0.0
 30
0.0
 70
   128
 71
   122
 72
  -394
 73
   123
 74
  -122
  0
VERTEX
  5
5DF
  8
0
 62
    33
 10
0.0
 20
0.0
 30
0.0
 70
   128
 71
   395
 72
  -123
 73
   394
 74
  -395
  0
VERTEX
  5
5E0
  8
0
 62
    33
 10
0.0
 20
0.0
 30
0.0
 70
   128
 71
   123
 72
  -395
 73
   124
 74
  -123
  0
VERTEX
  5
5E1
  8
0
 62
    33
 10
0.0
 20
0.0
 30
0.0
 70
   128
 71
   396
 72
  -124
 73
   395
 74
  -396
  0
VERTEX
  5
5E2
  8
0
 62
    33
 10
0.0
 20
0.0
 30
0.0
 70
   128
 71
   124
 72
  -396
 73
   125
 74
  -124
  0
VERTEX
  5
5E3
  8
0
 62
    33
 10
0.0
 20
0.0
 30
0.0
 70
   128
 71
   397
 72
  -125
 73
   396
 74
  -397
  0
VERTEX
  5
5E4
  8
0
 62
    33
 10
0.0
 20
0.0
 30
0.0
 70
   128
 71
   125
 72
  -397
 73
   126
 74
  -125
  0
VERTEX
  5
5E5
  8
0
 62
    33
 10
0.0
 20
0.0
 30
0.0
 70
   128
 71
   398
 72
  -126
 73
   397
 74
  -398
  0
VERTEX
  5
5E6
  8
0
 62
    33
 10
0.0
 20
0.0
 30
0.0
 70
   128
 71
   126
 72
  -398
 73
   127
 74
  -126
  0
VERTEX
  5
5E7
  8
0
 62
    33
 10
0.0
 20
0.0
 30
0.0
 70
   128
 71
   399
 72
  -127
 73
   398
 74
  -399
  0
VERTEX
  5
5E8
  8
0
 62
    33
 10
0.0
 20
0.0
 30
0.0
 70
   128
 71
   127
 72
  -399
 73
   128
 74
  -127
  0
VERTEX
  5
5E9
  8
0
 62
    33
 10
0.0
 20
0.0
 30
0.0
 70
   128
 71
   400
 72
  -128
 73
   399
 74
  -400
  0
VERTEX
  5
5EA
  8
0
 62
    33
 10
0.0
 20
0.0
 30
0.0
 70
   128
 71
   128
 72
  -400
 73
   129
 74
  -128
  0
VERTEX
  5
5EB
  8
0
 62
    33
 10
0.0
 20
0.0
 30
0.0
 70
   128
 71
   401
 72
  -129
 73
   400
 74
  -401
  0
VERTEX
  5
5EC
  8
0
 62
    33
 10
0.0
 20
0.0
 30
0.0
 70
   128
 71
   129
 72
  -401
 73
   130
 74
  -129
  0
VERTEX
  5
5ED
  8
0
 62
    33
 10
0.0
 20
0.0
 30
0.0
 70
   128
 71
   402
 72
  -130
 73
   401
 74
  -402
  0
VERTEX
  5
5EE
  8
0
 62
    33
 10
0.0
 20
0.0
 30
0.0
 70
   128
 71
   130
 72
  -402
 73
   131
 74
  -130
  0
VERTEX
  5
5EF
  8
0
 62
    33
 10
0.0
 20
0.0
 30
0.0
 70
   128
 71
   403
 72
  -131
 73
   402
 74
  -403
  0
VERTEX
  5
5F0
  8
0
 62
    33
 10
0.0
 20
0.0
 30
0.0
 70
   128
 71
   131
 72
  -403
 73
   132
 74
  -131
  0
VERTEX
  5
5F1
  8
0
 62
    33
 10
0.0
 20
0.0
 30
0.0
 70
   128
 71
   404
 72
  -132
 73
   403
 74
  -404
  0
VERTEX
  5
5F2
  8
0
 62
    33
 10
0.0
 20
0.0
 30
0.0
 70
   128
 71
   393
 72
  -121
 73
   404
 74
  -393
  0
VERTEX
  5
5F3
  8
0
 62
    33
 10
0.0
 20
0.0
 30
0.0
 70
   128
 71
   132
 72
  -404
 73
   121
 74
  -132
  0
VERTEX
  5
5F4
  8
0
 62
    33
 10
0.0
 20
0.0
 30
0.0
 70
   128
 71
  -405
 72
   406
 73
   407
 74
  -405
  0
VERTEX
  5
5F5
  8
0
 62
    33
 10
0.0
 20
0.0
 30
0.0
 70
   128
 71
   405
 72
   408
 73
  -406
 74
  -405
  0
VERTEX
  5
5F6
  8
0
 62
    33
 10
0.0
 20
0.0
 30
0.0
 70
   128
 71
  -407
 72
   409
 73
   410
 74
  -407
  0
VERTEX
  5
5F7
  8
0
 62
    33
 10
0.0
 20
0.0
 30
0.0
 70
   128
 71
   407
 72
   406
 73
  -409
 74
  -407
  0
VERTEX
  5
5F8
  8
0
 62
    33
 10
0.0
 20
0.0
 30
0.0
 70
   128
 71
  -410
 72
   411
 73
   412
 74
  -410
  0
VERTEX
  5
5F9
  8
0
 62
    33
 10
0.0
 20
0.0
 30
0.0
 70
   128
 71
   410
 72
   409
 73
  -411
 74
  -410
  0
VERTEX
  5
5FA
  8
0
 62
    33
 10
0.0
 20
0.0
 30
0.0
 70
   128
 71
  -412
 72
   413
 73
   414
 74
  -412
  0
VERTEX
  5
5FB
  8
0
 62
    33
 10
0.0
 20
0.0
 30
0.0
 70
   128
 71
   412
 72
   411
 73
  -413
 74
  -412
  0
VERTEX
  5
5FC
  8
0
 62
    33
 10
0.0
 20
0.0
 30
0.0
 70
   128
 71
  -414
 72
   415
 73
   416
 74
  -414
  0
VERTEX
  5
5FD
  8
0
 62
    33
 10
0.0
 20
0.0
 30
0.0
 70
   128
 71
   414
 72
   413
 73
  -415
 74
  -414
  0
VERTEX
  5
5FE
  8
0
 62
    33
 10
0.0
 20
0.0
 30
0.0
 70
   128
 71
  -416
 72
   417
 73
   418
 74
  -416
  0
VERTEX
  5
5FF
  8
0
 62
    33
 10
0.0
 20
0.0
 30
0.0
 70
   128
 71
   416
 72
   415
 73
  -417
 74
  -416
  0
VERTEX
  5
600
  8
0
 62
    33
 10
0.0
 20
0.0
 30
0.0
 70
   128
 71
  -418
 72
   419
 73
   420
 74
  -418
  0
VERTEX
  5
601
  8
0
 62
    33
 10
0.0
 20
0.0
 30
0.0
 70
   128
 71
   418
 72
   417
 73
  -419
 74
  -418
  0
VERTEX
  5
602
  8
0
 62
    33
 10
0.0
 20
0.0
 30
0.0
 70
   128
 71
  -420
 72
   421
 73
   422
 74
  -420
  0
VERTEX
  5
603
  8
0
 62
    33
 10
0.0
 20
0.0
 30
0.0
 70
   128
 71
   420
 72
   419
 73
  -421
 74
  -420
  0
VERTEX
  5
604
  8
0
 62
    33
 10
0.0
 20
0.0
 30
0.0
 70
   128
 71
  -422
 72
   423
 73
   424
 74
  -422
  0
VERTEX
  5
605
  8
0
 62
    33
 10
0.0
 20
0.0
 30
0.0
 70
   128
 71
   422
 72
   421
 73
  -423
 74
  -422
  0
VERTEX
  5
606
  8
0
 62
    33
 10
0.0
 20
0.0
 30
0.0
 70
   128
 71
  -424
 72
   425
 73
   426
 74
  -424
  0
VERTEX
  5
607
  8
0
 62
    33
 10
0.0
 20
0.0
 30
0.0
 70
   128
 71
   424
 72
   423
 73
  -425
 74
  -424
  0
VERTEX
  5
608
  8
0
 62
    33
 10
0.0
 20
0.0
 30
0.0
 70
   128
 71
  -426
 72
   427
 73
   428
 74
  -426
  0
VERTEX
  5
609
  8
0
 62
    33
 10
0.0
 20
0.0
 30
0.0
 70
   128
 71
   426
 72
   425
 73
  -427
 74
  -426
  0
VERTEX
  5
60A
  8
0
 62
    33
 10
0.0
 20
0.0
 30
0.0
 70
   128
 71
   428
 72
   427
 73
  -429
 74
  -428
  0
VERTEX
  5
60B
  8
0
 62
    33
 10
0.0
 20
0.0
 30
0.0
 70
   128
 71
  -408
 72
   430
 73
   406
 74
  -408
  0
VERTEX
  5
60C
  8
0
 62
    33
 10
0.0
 20
0.0
 30
0.0
 70
   128
 71
   408
 72
   431
 73
  -430
 74
  -408
  0
VERTEX
  5
60D
  8
0
 62
    33
 10
0.0
 20
0.0
 30
0.0
 70
   128
 71
  -406
 72
   432
 73
   409
 74
  -406
  0
VERTEX
  5
60E
  8
0
 62
    33
 10
0.0
 20
0.0
 30
0.0
 70
   128
 71
   406
 72
   430
 73
  -432
 74
  -406
  0
VERTEX
  5
60F
  8
0
 62
    33
 10
0.0
 20
0.0
 30
0.0
 70
   128
 71
  -409
 72
   433
 73
   411
 74
  -409
  0
VERTEX
  5
610
  8
0
 62
    33
 10
0.0
 20
0.0
 30
0.0
 70
   128
 71
   409
 72
   432
 73
  -433
 74
  -409
  0
VERTEX
  5
611
  8
0
 62
    33
 10
0.0
 20
0.0
 30
0.0
 70
   128
 71
  -411
 72
   434
 73
   413
 74
  -411
  0
VERTEX
  5
612
  8
0
 62
    33
 10
0.0
 20
0.0
 30
0.0
 70
   128
 71
   411
 72
   433
 73
  -434
 74
  -411
  0
VERTEX
  5
613
  8
0
 62
    33
 10
0.0
 20
0.0
 30
0.0
 70
   128
 71
  -413
 72
   435
 73
   415
 74
  -413
  0
VERTEX
  5
614
  8
0
 62
    33
 10
0.0
 20
0.0
 30
0.0
 70
   128
 71
   413
 72
   434
 73
  -435
 74
  -413
  0
VERTEX
  5
615
  8
0
 62
    33
 10
0.0
 20
0.0
 30
0.0
 70
   128
 71
  -415
 72
   436
 73
   417
 74
  -415
  0
VERTEX
  5
616
  8
0
 62
    33
 10
0.0
 20
0.0
 30
0.0
 70
   128
 71
   415
 72
   435
 73
  -436
 74
  -415
  0
VERTEX
  5
617
  8
0
 62
    33
 10
0.0
 20
0.0
 30
0.0
 70
   128
 71
  -417
 72
   437
 73
   419
 74
  -417
  0
VERTEX
  5
618
  8
0
 62
    33
 10
0.0
 20
0.0
 30
0.0
 70
   128
 71
   417
 72
   436
 73
  -437
 74
  -417
  0
VERTEX
  5
619
  8
0
 62
    33
 10
0.0
 20
0.0
 30
0.0
 70
   128
 71
  -419
 72
   438
 73
   421
 74
  -419
  0
VERTEX
  5
61A
  8
0
 62
    33
 10
0.0
 20
0.0
 30
0.0
 70
   128
 71
   419
 72
   437
 73
  -438
 74
  -419
  0
VERTEX
  5
61B
  8
0
 62
    33
 10
0.0
 20
0.0
 30
0.0
 70
   128
 71
  -421
 72
   439
 73
   423
 74
  -421
  0
VERTEX
  5
61C
  8
0
 62
    33
 10
0.0
 20
0.0
 30
0.0
 70
   128
 71
   421
 72
   438
 73
  -439
 74
  -421
  0
VERTEX
  5
61D
  8
0
 62
    33
 10
0.0
 20
0.0
 30
0.0
 70
   128
 71
  -423
 72
   440
 73
   425
 74
  -423
  0
VERTEX
  5
61E
  8
0
 62
    33
 10
0.0
 20
0.0
 30
0.0
 70
   128
 71
   423
 72
   439
 73
  -440
 74
  -423
  0
VERTEX
  5
61F
  8
0
 62
    33
 10
0.0
 20
0.0
 30
0.0
 70
   128
 71
  -425
 72
   441
 73
   427
 74
  -425
  0
VERTEX
  5
620
  8
0
 62
    33
 10
0.0
 20
0.0
 30
0.0
 70
   128
 71
   425
 72
   440
 73
  -441
 74
  -425
  0
VERTEX
  5
621
  8
0
 62
    33
 10
0.0
 20
0.0
 30
0.0
 70
   128
 71
   427
 72
   441
 73
  -429
 74
  -427
  0
VERTEX
  5
622
  8
0
 62
    33
 10
0.0
 20
0.0
 30
0.0
 70
   128
 71
  -431
 72
   442
 73
   430
 74
  -431
  0
VERTEX
  5
623
  8
0
 62
    33
 10
0.0
 20
0.0
 30
0.0
 70
   128
 71
   431
 72
   443
 73
  -442
 74
  -431
  0
VERTEX
  5
624
  8
0
 62
    33
 10
0.0
 20
0.0
 30
0.0
 70
   128
 71
  -430
 72
   444
 73
   432
 74
  -430
  0
VERTEX
  5
625
  8
0
 62
    33
 10
0.0
 20
0.0
 30
0.0
 70
   128
 71
   430
 72
   442
 73
  -444
 74
  -430
  0
VERTEX
  5
626
  8
0
 62
    33
 10
0.0
 20
0.0
 30
0.0
 70
   128
 71
  -432
 72
   445
 73
   433
 74
  -432
  0
VERTEX
  5
627
  8
0
 62
    33
 10
0.0
 20
0.0
 30
0.0
 70
   128
 71
   432
 72
   444
 73
  -445
 74
  -432
  0
VERTEX
  5
628
  8
0
 62
    33
 10
0.0
 20
0.0
 30
0.0
 70
   128
 71
  -433
 72
   446
 73
   434
 74
  -433
  0
VERTEX
  5
629
  8
0
 62
    33
 10
0.0
 20
0.0
 30
0.0
 70
   128
 71
   433
 72
   445
 73
  -446
 74
  -433
  0
VERTEX
  5
62A
  8
0
 62
    33
 10
0.0
 20
0.0
 30
0.0
 70
   128
 71
  -434
 72
   447
 73
   435
 74
  -434
  0
VERTEX
  5
62B
  8
0
 62
    33
 10
0.0
 20
0.0
 30
0.0
 70
   128
 71
   434
 72
   446
 73
  -447
 74
  -434
  0
VERTEX
  5
62C
  8
0
 62
    33
 10
0.0
 20
0.0
 30
0.0
 70
   128
 71
  -435
 72
   448
 73
   436
 74
  -435
  0
VERTEX
  5
62D
  8
0
 62
    33
 10
0.0
 20
0.0
 30
0.0
 70
   128
 71
   435
 72
   447
 73
  -448
 74
  -435
  0
VERTEX
  5
62E
  8
0
 62
    33
 10
0.0
 20
0.0
 30
0.0
 70
   128
 71
  -436
 72
   449
 73
   437
 74
  -436
  0
VERTEX
  5
62F
  8
0
 62
    33
 10
0.0
 20
0.0
 30
0.0
 70
   128
 71
   436
 72
   448
 73
  -449
 74
  -436
  0
VERTEX
  5
630
  8
0
 62
    33
 10
0.0
 20
0.0
 30
0.0
 70
   128
 71
  -437
 72
   450
 73
   438
 74
  -437
  0
VERTEX
  5
631
  8
0
 62
    33
 10
0.0
 20
0.0
 30
0.0
 70
   128
 71
   437
 72
   449
 73
  -450
 74
  -437
  0
VERTEX
  5
632
  8
0
 62
    33
 10
0.0
 20
0.0
 30
0.0
 70
   128
 71
  -438
 72
   451
 73
   439
 74
  -438
  0
VERTEX
  5
633
  8
0
 62
    33
 10
0.0
 20
0.0
 30
0.0
 70
   128
 71
   438
 72
   450
 73
  -451
 74
  -438
  0
VERTEX
  5
634
  8
0
 62
    33
 10
0.0
 20
0.0
 30
0.0
 70
   128
 71
  -439
 72
   452
 73
   440
 74
  -439
  0
VERTEX
  5
635
  8
0
 62
    33
 10
0.0
 20
0.0
 30
0.0
 70
   128
 71
   439
 72
   451
 73
  -452
 74
  -439
  0
VERTEX
  5
636
  8
0
 62
    33
 10
0.0
 20
0.0
 30
0.0
 70
   128
 71
  -440
 72
   453
 73
   441
 74
  -440
  0
VERTEX
  5
637
  8
0
 62
    33
 10
0.0
 20
0.0
 30
0.0
 70
   128
 71
   440
 72
   452
 73
  -453
 74
  -440
  0
VERTEX
  5
638
  8
0
 62
    33
 10
0.0
 20
0.0
 30
0.0
 70
   128
 71
   441
 72
   453
 73
  -429
 74
  -441
  0
VERTEX
  5
639
  8
0
 62
    33
 10
0.0
 20
0.0
 30
0.0
 70
   128
 71
  -443
 72
   454
 73
   442
 74
  -443
  0
VERTEX
  5
63A
  8
0
 62
    33
 10
0.0
 20
0.0
 30
0.0
 70
   128
 71
   443
 72
   455
 73
  -454
 74
  -443
  0
VERTEX
  5
63B
  8
0
 62
    33
 10
0.0
 20
0.0
 30
0.0
 70
   128
 71
  -442
 72
   456
 73
   444
 74
  -442
  0
VERTEX
  5
63C
  8
0
 62
    33
 10
0.0
 20
0.0
 30
0.0
 70
   128
 71
   442
 72
   454
 73
  -456
 74
  -442
  0
VERTEX
  5
63D
  8
0
 62
    33
 10
0.0
 20
0.0
 30
0.0
 70
   128
 71
  -444
 72
   457
 73
   445
 74
  -444
  0
VERTEX
  5
63E
  8
0
 62
    33
 10
0.0
 20
0.0
 30
0.0
 70
   128
 71
   444
 72
   456
 73
  -457
 74
  -444
  0
VERTEX
  5
63F
  8
0
 62
    33
 10
0.0
 20
0.0
 30
0.0
 70
   128
 71
  -445
 72
   458
 73
   446
 74
  -445
  0
VERTEX
  5
640
  8
0
 62
    33
 10
0.0
 20
0.0
 30
0.0
 70
   128
 71
   445
 72
   457
 73
  -458
 74
  -445
  0
VERTEX
  5
641
  8
0
 62
    33
 10
0.0
 20
0.0
 30
0.0
 70
   128
 71
  -446
 72
   459
 73
   447
 74
  -446
  0
VERTEX
  5
642
  8
0
 62
    33
 10
0.0
 20
0.0
 30
0.0
 70
   128
 71
   446
 72
   458
 73
  -459
 74
  -446
  0
VERTEX
  5
643
  8
0
 62
    33
 10
0.0
 20
0.0
 30
0.0
 70
   128
 71
  -447
 72
   460
 73
   448
 74
  -447
  0
VERTEX
  5
644
  8
0
 62
    33
 10
0.0
 20
0.0
 30
0.0
 70
   128
 71
   447
 72
   459
 73
  -460
 74
  -447
  0
VERTEX
  5
645
  8
0
 62
    33
 10
0.0
 20
0.0
 30
0.0
 70
   128
 71
  -448
 72
   461
 73
   449
 74
  -448
  0
VERTEX
  5
646
  8
0
 62
    33
 10
0.0
 20
0.0
 30
0.0
 70
   128
 71
   448
 72
   460
 73
  -461
 74
  -448
  0
VERTEX
  5
647
  8
0
 62
    33
 10
0.0
 20
0.0
 30
0.0
 70
   128
 71
  -449
 72
   462
 73
   450
 74
  -449
  0
VERTEX
  5
648
  8
0
 62
    33
 10
0.0
 20
0.0
 30
0.0
 70
   128
 71
   449
 72
   461
 73
  -462
 74
  -449
  0
VERTEX
  5
649
  8
0
 62
    33
 10
0.0
 20
0.0
 30
0.0
 70
   128
 71
  -450
 72
   463
 73
   451
 74
  -450
  0
VERTEX
  5
64A
  8
0
 62
    33
 10
0.0
 20
0.0
 30
0.0
 70
   128
 71
   450
 72
   462
 73
  -463
 74
  -450
  0
VERTEX
  5
64B
  8
0
 62
    33
 10
0.0
 20
0.0
 30
0.0
 70
   128
 71
  -451
 72
   464
 73
   452
 74
  -451
  0
VERTEX
  5
64C
  8
0
 62
    33
 10
0.0
 20
0.0
 30
0.0
 70
   128
 71
   451
 72
   463
 73
  -464
 74
  -451
  0
VERTEX
  5
64D
  8
0
 62
    33
 10
0.0
 20
0.0
 30
0.0
 70
   128
 71
  -452
 72
   465
 73
   453
 74
  -452
  0
VERTEX
  5
64E
  8
0
 62
    33
 10
0.0
 20
0.0
 30
0.0
 70
   128
 71
   452
 72
   464
 73
  -465
 74
  -452
  0
VERTEX
  5
64F
  8
0
 62
    33
 10
0.0
 20
0.0
 30
0.0
 70
   128
 71
   453
 72
   465
 73
  -429
 74
  -453
  0
VERTEX
  5
650
  8
0
 62
    33
 10
0.0
 20
0.0
 30
0.0
 70
   128
 71
  -455
 72
   466
 73
   454
 74
  -455
  0
VERTEX
  5
651
  8
0
 62
    33
 10
0.0
 20
0.0
 30
0.0
 70
   128
 71
   455
 72
   467
 73
  -466
 74
  -455
  0
VERTEX
  5
652
  8
0
 62
    33
 10
0.0
 20
0.0
 30
0.0
 70
   128
 71
  -454
 72
   468
 73
   456
 74
  -454
  0
VERTEX
  5
653
  8
0
 62
    33
 10
0.0
 20
0.0
 30
0.0
 70
   128
 71
   454
 72
   466
 73
  -468
 74
  -454
  0
VERTEX
  5
654
  8
0
 62
    33
 10
0.0
 20
0.0
 30
0.0
 70
   128
 71
  -456
 72
   469
 73
   457
 74
  -456
  0
VERTEX
  5
655
  8
0
 62
    33
 10
0.0
 20
0.0
 30
0.0
 70
   128
 71
   456
 72
   468
 73
  -469
 74
  -456
  0
VERTEX
  5
656
  8
0
 62
    33
 10
0.0
 20
0.0
 30
0.0
 70
   128
 71
  -457
 72
   470
 73
   458
 74
  -457
  0
VERTEX
  5
657
  8
0
 62
    33
 10
0.0
 20
0.0
 30
0.0
 70
   128
 71
   457
 72
   469
 73
  -470
 74
  -457
  0
VERTEX
  5
658
  8
0
 62
    33
 10
0.0
 20
0.0
 30
0.0
 70
   128
 71
  -458
 72
   471
 73
   459
 74
  -458
  0
VERTEX
  5
659
  8
0
 62
    33
 10
0.0
 20
0.0
 30
0.0
 70
   128
 71
   458
 72
   470
 73
  -471
 74
  -458
  0
VERTEX
  5
65A
  8
0
 62
    33
 10
0.0
 20
0.0
 30
0.0
 70
   128
 71
  -459
 72
   472
 73
   460
 74
  -459
  0
VERTEX
  5
65B
  8
0
 62
    33
 10
0.0
 20
0.0
 30
0.0
 70
   128
 71
   459
 72
   471
 73
  -472
 74
  -459
  0
VERTEX
  5
65C
  8
0
 62
    33
 10
0.0
 20
0.0
 30
0.0
 70
   128
 71
  -460
 72
   473
 73
   461
 74
  -460
  0
VERTEX
  5
65D
  8
0
 62
    33
 10
0.0
 20
0.0
 30
0.0
 70
   128
 71
   460
 72
   472
 73
  -473
 74
  -460
  0
VERTEX
  5
65E
  8
0
 62
    33
 10
0.0
 20
0.0
 30
0.0
 70
   128
 71
  -461
 72
   474
 73
   462
 74
  -461
  0
VERTEX
  5
65F
  8
0
 62
    33
 10
0.0
 20
0.0
 30
0.0
 70
   128
 71
   461
 72
   473
 73
  -474
 74
  -461
  0
VERTEX
  5
660
  8
0
 62
    33
 10
0.0
 20
0.0
 30
0.0
 70
   128
 71
  -462
 72
   475
 73
   463
 74
  -462
  0
VERTEX
  5
661
  8
0
 62
    33
 10
0.0
 20
0.0
 30
0.0
 70
   128
 71
   462
 72
   474
 73
  -475
 74
  -462
  0
VERTEX
  5
662
  8
0
 62
    33
 10
0.0
 20
0.0
 30
0.0
 70
   128
 71
  -463
 72
   476
 73
   464
 74
  -463
  0
VERTEX
  5
663
  8
0
 62
    33
 10
0.0
 20
0.0
 30
0.0
 70
   128
 71
   463
 72
   475
 73
  -476
 74
  -463
  0
VERTEX
  5
664
  8
0
 62
    33
 10
0.0
 20
0.0
 30
0.0
 70
   128
 71
  -464
 72
   477
 73
   465
 74
  -464
  0
VERTEX
  5
665
  8
0
 62
    33
 10
0.0
 20
0.0
 30
0.0
 70
   128
 71
   464
 72
   476
 73
  -477
 74
  -464
  0
VERTEX
  5
666
  8
0
 62
    33
 10
0.0
 20
0.0
 30
0.0
 70
   128
 71
   465
 72
   477
 73
  -429
 74
  -465
  0
VERTEX
  5
667
  8
0
 62
    33
 10
0.0
 20
0.0
 30
0.0
 70
   128
 71
  -467
 72
   478
 73
   466
 74
  -467
  0
VERTEX
  5
668
  8
0
 62
    33
 10
0.0
 20
0.0
 30
0.0
 70
   128
 71
   467
 72
   479
 73
  -478
 74
  -467
  0
VERTEX
  5
669
  8
0
 62
    33
 10
0.0
 20
0.0
 30
0.0
 70
   128
 71
  -466
 72
   480
 73
   468
 74
  -466
  0
VERTEX
  5
66A
  8
0
 62
    33
 10
0.0
 20
0.0
 30
0.0
 70
   128
 71
   466
 72
   478
 73
  -480
 74
  -466
  0
VERTEX
  5
66B
  8
0
 62
    33
 10
0.0
 20
0.0
 30
0.0
 70
   128
 71
  -468
 72
   481
 73
   469
 74
  -468
  0
VERTEX
  5
66C
  8
0
 62
    33
 10
0.0
 20
0.0
 30
0.0
 70
   128
 71
   468
 72
   480
 73
  -481
 74
  -468
  0
VERTEX
  5
66D
  8
0
 62
    33
 10
0.0
 20
0.0
 30
0.0
 70
   128
 71
  -469
 72
   482
 73
   470
 74
  -469
  0
VERTEX
  5
66E
  8
0
 62
    33
 10
0.0
 20
0.0
 30
0.0
 70
   128
 71
   469
 72
   481
 73
  -482
 74
  -469
  0
VERTEX
  5
66F
  8
0
 62
    33
 10
0.0
 20
0.0
 30
0.0
 70
   128
 71
  -470
 72
   483
 73
   471
 74
  -470
  0
VERTEX
  5
670
  8
0
 62
    33
 10
0.0
 20
0.0
 30
0.0
 70
   128
 71
   470
 72
   482
 73
  -483
 74
  -470
  0
VERTEX
  5
671
  8
0
 62
    33
 10
0.0
 20
0.0
 30
0.0
 70
   128
 71
  -471
 72
   484
 73
   472
 74
  -471
  0
VERTEX
  5
672
  8
0
 62
    33
 10
0.0
 20
0.0
 30
0.0
 70
   128
 71
   471
 72
   483
 73
  -484
 74
  -471
  0
VERTEX
  5
673
  8
0
 62
    33
 10
0.0
 20
0.0
 30
0.0
 70
   128
 71
  -472
 72
   485
 73
   473
 74
  -472
  0
VERTEX
  5
674
  8
0
 62
    33
 10
0.0
 20
0.0
 30
0.0
 70
   128
 71
   472
 72
   484
 73
  -485
 74
  -472
  0
VERTEX
  5
675
  8
0
 62
    33
 10
0.0
 20
0.0
 30
0.0
 70
   128
 71
  -473
 72
   486
 73
   474
 74
  -473
  0
VERTEX
  5
676
  8
0
 62
    33
 10
0.0
 20
0.0
 30
0.0
 70
   128
 71
   473
 72
   485
 73
  -486
 74
  -473
  0
VERTEX
  5
677
  8
0
 62
    33
 10
0.0
 20
0.0
 30
0.0
 70
   128
 71
  -474
 72
   487
 73
   475
 74
  -474
  0
VERTEX
  5
678
  8
0
 62
    33
 10
0.0
 20
0.0
 30
0.0
 70
   128
 71
   474
 72
   486
 73
  -487
 74
  -474
  0
VERTEX
  5
679
  8
0
 62
    33
 10
0.0
 20
0.0
 30
0.0
 70
   128
 71
  -475
 72
   488
 73
   476
 74
  -475
  0
VERTEX
  5
67A
  8
0
 62
    33
 10
0.0
 20
0.0
 30
0.0
 70
   128
 71
   475
 72
   487
 73
  -488
 74
  -475
  0
VERTEX
  5
67B
  8
0
 62
    33
 10
0.0
 20
0.0
 30
0.0
 70
   128
 71
  -476
 72
   489
 73
   477
 74
  -476
  0
VERTEX
  5
67C
  8
0
 62
    33
 10
0.0
 20
0.0
 30
0.0
 70
   128
 71
   476
 72
   488
 73
  -489
 74
  -476
  0
VERTEX
  5
67D
  8
0
 62
    33
 10
0.0
 20
0.0
 30
0.0
 70
   128
 71
   477
 72
   489
 73
  -429
 74
  -477
  0
VERTEX
  5
67E
  8
0
 62
    33
 10
0.0
 20
0.0
 30
0.0
 70
   128
 71
  -479
 72
   490
 73
   478
 74
  -479
  0
VERTEX
  5
67F
  8
0
 62
    33
 10
0.0
 20
0.0
 30
0.0
 70
   128
 71
   479
 72
   491
 73
  -490
 74
  -479
  0
VERTEX
  5
680
  8
0
 62
    33
 10
0.0
 20
0.0
 30
0.0
 70
   128
 71
  -478
 72
   492
 73
   480
 74
  -478
  0
VERTEX
  5
681
  8
0
 62
    33
 10
0.0
 20
0.0
 30
0.0
 70
   128
 71
   478
 72
   490
 73
  -492
 74
  -478
  0
VERTEX
  5
682
  8
0
 62
    33
 10
0.0
 20
0.0
 30
0.0
 70
   128
 71
  -480
 72
   493
 73
   481
 74
  -480
  0
VERTEX
  5
683
  8
0
 62
    33
 10
0.0
 20
0.0
 30
0.0
 70
   128
 71
   480
 72
   492
 73
  -493
 74
  -480
  0
VERTEX
  5
684
  8
0
 62
    33
 10
0.0
 20
0.0
 30
0.0
 70
   128
 71
  -481
 72
   494
 73
   482
 74
  -481
  0
VERTEX
  5
685
  8
0
 62
    33
 10
0.0
 20
0.0
 30
0.0
 70
   128
 71
   481
 72
   493
 73
  -494
 74
  -481
  0
VERTEX
  5
686
  8
0
 62
    33
 10
0.0
 20
0.0
 30
0.0
 70
   128
 71
  -482
 72
   495
 73
   483
 74
  -482
  0
VERTEX
  5
687
  8
0
 62
    33
 10
0.0
 20
0.0
 30
0.0
 70
   128
 71
   482
 72
   494
 73
  -495
 74
  -482
  0
VERTEX
  5
688
  8
0
 62
    33
 10
0.0
 20
0.0
 30
0.0
 70
   128
 71
  -483
 72
   496
 73
   484
 74
  -483
  0
VERTEX
  5
689
  8
0
 62
    33
 10
0.0
 20
0.0
 30
0.0
 70
   128
 71
   483
 72
   495
 73
  -496
 74
  -483
  0
VERTEX
  5
68A
  8
0
 62
    33
 10
0.0
 20
0.0
 30
0.0
 70
   128
 71
  -484
 72
   497
 73
   485
 74
  -484
  0
VERTEX
  5
68B
  8
0
 62
    33
 10
0.0
 20
0.0
 30
0.0
 70
   128
 71
   484
 72
   496
 73
  -497
 74
  -484
  0
VERTEX
  5
68C
  8
0
 62
    33
 10
0.0
 20
0.0
 30
0.0
 70
   128
 71
  -485
 72
   498
 73
   486
 74
  -485
  0
VERTEX
  5
68D
  8
0
 62
    33
 10
0.0
 20
0.0
 30
0.0
 70
   128
 71
   485
 72
   497
 73
  -498
 74
  -485
  0
VERTEX
  5
68E
  8
0
 62
    33
 10
0.0
 20
0.0
 30
0.0
 70
   128
 71
  -486
 72
   499
 73
   487
 74
  -486
  0
VERTEX
  5
68F
  8
0
 62
    33
 10
0.0
 20
0.0
 30
0.0
 70
   128
 71
   486
 72
   498
 73
  -499
 74
  -486
  0
VERTEX
  5
690
  8
0
 62
    33
 10
0.0
 20
0.0
 30
0.0
 70
   128
 71
  -487
 72
   500
 73
   488
 74
  -487
  0
VERTEX
  5
691
  8
0
 62
    33
 10
0.0
 20
0.0
 30
0.0
 70
   128
 71
   487
 72
   499
 73
  -500
 74
  -487
  0
VERTEX
  5
692
  8
0
 62
    33
 10
0.0
 20
0.0
 30
0.0
 70
   128
 71
  -488
 72
   501
 73
   489
 74
  -488
  0
VERTEX
  5
693
  8
0
 62
    33
 10
0.0
 20
0.0
 30
0.0
 70
   128
 71
   488
 72
   500
 73
  -501
 74
  -488
  0
VERTEX
  5
694
  8
0
 62
    33
 10
0.0
 20
0.0
 30
0.0
 70
   128
 71
   489
 72
   501
 73
  -429
 74
  -489
  0
VERTEX
  5
695
  8
0
 62
    33
 10
0.0
 20
0.0
 30
0.0
 70
   128
 71
  -491
 72
   502
 73
   490
 74
  -491
  0
VERTEX
  5
696
  8
0
 62
    33
 10
0.0
 20
0.0
 30
0.0
 70
   128
 71
   491
 72
   503
 73
  -502
 74
  -491
  0
VERTEX
  5
697
  8
0
 62
    33
 10
0.0
 20
0.0
 30
0.0
 70
   128
 71
  -490
 72
   504
 73
   492
 74
  -490
  0
VERTEX
  5
698
  8
0
 62
    33
 10
0.0
 20
0.0
 30
0.0
 70
   128
 71
   490
 72
   502
 73
  -504
 74
  -490
  0
VERTEX
  5
699
  8
0
 62
    33
 10
0.0
 20
0.0
 30
0.0
 70
   128
 71
  -492
 72
   505
 73
   493
 74
  -492
  0
VERTEX
  5
69A
  8
0
 62
    33
 10
0.0
 20
0.0
 30
0.0
 70
   128
 71
   492
 72
   504
 73
  -505
 74
  -492
  0
VERTEX
  5
69B
  8
0
 62
    33
 10
0.0
 20
0.0
 30
0.0
 70
   128
 71
  -493
 72
   506
 73
   494
 74
  -493
  0
VERTEX
  5
69C
  8
0
 62
    33
 10
0.0
 20
0.0
 30
0.0
 70
   128
 71
   493
 72
   505
 73
  -506
 74
  -493
  0
VERTEX
  5
69D
  8
0
 62
    33
 10
0.0
 20
0.0
 30
0.0
 70
   128
 71
  -494
 72
   507
 73
   495
 74
  -494
  0
VERTEX
  5
69E
  8
0
 62
    33
 10
0.0
 20
0.0
 30
0.0
 70
   128
 71
   494
 72
   506
 73
  -507
 74
  -494
  0
VERTEX
  5
69F
  8
0
 62
    33
 10
0.0
 20
0.0
 30
0.0
 70
   128
 71
  -495
 72
   508
 73
   496
 74
  -495
  0
VERTEX
  5
6A0
  8
0
 62
    33
 10
0.0
 20
0.0
 30
0.0
 70
   128
 71
   495
 72
   507
 73
  -508
 74
  -495
  0
VERTEX
  5
6A1
  8
0
 62
    33
 10
0.0
 20
0.0
 30
0.0
 70
   128
 71
  -496
 72
   509
 73
   497
 74
  -496
  0
VERTEX
  5
6A2
  8
0
 62
    33
 10
0.0
 20
0.0
 30
0.0
 70
   128
 71
   496
 72
   508
 73
  -509
 74
  -496
  0
VERTEX
  5
6A3
  8
0
 62
    33
 10
0.0
 20
0.0
 30
0.0
 70
   128
 71
  -497
 72
   510
 73
   498
 74
  -497
  0
VERTEX
  5
6A4
  8
0
 62
    33
 10
0.0
 20
0.0
 30
0.0
 70
   128
 71
   497
 72
   509
 73
  -510
 74
  -497
  0
VERTEX
  5
6A5
  8
0
 62
    33
 10
0.0
 20
0.0
 30
0.0
 70
   128
 71
  -498
 72
   511
 73
   499
 74
  -498
  0
VERTEX
  5
6A6
  8
0
 62
    33
 10
0.0
 20
0.0
 30
0.0
 70
   128
 71
   498
 72
   510
 73
  -511
 74
  -498
  0
VERTEX
  5
6A7
  8
0
 62
    33
 10
0.0
 20
0.0
 30
0.0
 70
   128
 71
  -499
 72
   512
 73
   500
 74
  -499
  0
VERTEX
  5
6A8
  8
0
 62
    33
 10
0.0
 20
0.0
 30
0.0
 70
   128
 71
   499
 72
   511
 73
  -512
 74
  -499
  0
VERTEX
  5
6A9
  8
0
 62
    33
 10
0.0
 20
0.0
 30
0.0
 70
   128
 71
  -500
 72
   513
 73
   501
 74
  -500
  0
VERTEX
  5
6AA
  8
0
 62
    33
 10
0.0
 20
0.0
 30
0.0
 70
   128
 71
   500
 72
   512
 73
  -513
 74
  -500
  0
VERTEX
  5
6AB
  8
0
 62
    33
 10
0.0
 20
0.0
 30
0.0
 70
   128
 71
   501
 72
   513
 73
  -429
 74
  -501
  0
VERTEX
  5
6AC
  8
0
 62
    33
 10
0.0
 20
0.0
 30
0.0
 70
   128
 71
  -503
 72
   514
 73
   502
 74
  -503
  0
VERTEX
  5
6AD
  8
0
 62
    33
 10
0.0
 20
0.0
 30
0.0
 70
   128
 71
   503
 72
   515
 73
  -514
 74
  -503
  0
VERTEX
  5
6AE
  8
0
 62
    33
 10
0.0
 20
0.0
 30
0.0
 70
   128
 71
  -502
 72
   516
 73
   504
 74
  -502
  0
VERTEX
  5
6AF
  8
0
 62
    33
 10
0.0
 20
0.0
 30
0.0
 70
   128
 71
   502
 72
   514
 73
  -516
 74
  -502
  0
VERTEX
  5
6B0
  8
0
 62
    33
 10
0.0
 20
0.0
 30
0.0
 70
   128
 71
  -504
 72
   517
 73
   505
 74
  -504
  0
VERTEX
  5
6B1
  8
0
 62
    33
 10
0.0
 20
0.0
 30
0.0
 70
   128
 71
   504
 72
   516
 73
  -517
 74
  -504
  0
VERTEX
  5
6B2
  8
0
 62
    33
 10
0.0
 20
0.0
 30
0.0
 70
   128
 71
  -505
 72
   518
 73
   506
 74
  -505
  0
VERTEX
  5
6B3
  8
0
 62
    33
 10
0.0
 20
0.0
 30
0.0
 70
   128
 71
   505
 72
   517
 73
  -518
 74
  -505
  0
VERTEX
  5
6B4
  8
0
 62
    33
 10
0.0
 20
0.0
 30
0.0
 70
   128
 71
  -506
 72
   519
 73
   507
 74
  -506
  0
VERTEX
  5
6B5
  8
0
 62
    33
 10
0.0
 20
0.0
 30
0.0
 70
   128
 71
   506
 72
   518
 73
  -519
 74
  -506
  0
VERTEX
  5
6B6
  8
0
 62
    33
 10
0.0
 20
0.0
 30
0.0
 70
   128
 71
  -507
 72
   520
 73
   508
 74
  -507
  0
VERTEX
  5
6B7
  8
0
 62
    33
 10
0.0
 20
0.0
 30
0.0
 70
   128
 71
   507
 72
   519
 73
  -520
 74
  -507
  0
VERTEX
  5
6B8
  8
0
 62
    33
 10
0.0
 20
0.0
 30
0.0
 70
   128
 71
  -508
 72
   521
 73
   509
 74
  -508
  0
VERTEX
  5
6B9
  8
0
 62
    33
 10
0.0
 20
0.0
 30
0.0
 70
   128
 71
   508
 72
   520
 73
  -521
 74
  -508
  0
VERTEX
  5
6BA
  8
0
 62
    33
 10
0.0
 20
0.0
 30
0.0
 70
   128
 71
  -509
 72
   522
 73
   510
 74
  -509
  0
VERTEX
  5
6BB
  8
0
 62
    33
 10
0.0
 20
0.0
 30
0.0
 70
   128
 71
   509
 72
   521
 73
  -522
 74
  -509
  0
VERTEX
  5
6BC
  8
0
 62
    33
 10
0.0
 20
0.0
 30
0.0
 70
   128
 71
  -510
 72
   523
 73
   511
 74
  -510
  0
VERTEX
  5
6BD
  8
0
 62
    33
 10
0.0
 20
0.0
 30
0.0
 70
   128
 71
   510
 72
   522
 73
  -523
 74
  -510
  0
VERTEX
  5
6BE
  8
0
 62
    33
 10
0.0
 20
0.0
 30
0.0
 70
   128
 71
  -511
 72
   524
 73
   512
 74
  -511
  0
VERTEX
  5
6BF
  8
0
 62
    33
 10
0.0
 20
0.0
 30
0.0
 70
   128
 71
   511
 72
   523
 73
  -524
 74
  -511
  0
VERTEX
  5
6C0
  8
0
 62
    33
 10
0.0
 20
0.0
 30
0.0
 70
   128
 71
  -512
 72
   525
 73
   513
 74
  -512
  0
VERTEX
  5
6C1
  8
0
 62
    33
 10
0.0
 20
0.0
 30
0.0
 70
   128
 71
   512
 72
   524
 73
  -525
 74
  -512
  0
VERTEX
  5
6C2
  8
0
 62
    33
 10
0.0
 20
0.0
 30
0.0
 70
   128
 71
   513
 72
   525
 73
  -429
 74
  -513
  0
VERTEX
  5
6C3
  8
0
 62
    33
 10
0.0
 20
0.0
 30
0.0
 70
   128
 71
  -515
 72
   526
 73
   514
 74
  -515
  0
VERTEX
  5
6C4
  8
0
 62
    33
 10
0.0
 20
0.0
 30
0.0
 70
   128
 71
   515
 72
   527
 73
  -526
 74
  -515
  0
VERTEX
  5
6C5
  8
0
 62
    33
 10
0.0
 20
0.0
 30
0.0
 70
   128
 71
  -514
 72
   528
 73
   516
 74
  -514
  0
VERTEX
  5
6C6
  8
0
 62
    33
 10
0.0
 20
0.0
 30
0.0
 70
   128
 71
   514
 72
   526
 73
  -528
 74
  -514
  0
VERTEX
  5
6C7
  8
0
 62
    33
 10
0.0
 20
0.0
 30
0.0
 70
   128
 71
  -516
 72
   529
 73
   517
 74
  -516
  0
VERTEX
  5
6C8
  8
0
 62
    33
 10
0.0
 20
0.0
 30
0.0
 70
   128
 71
   516
 72
   528
 73
  -529
 74
  -516
  0
VERTEX
  5
6C9
  8
0
 62
    33
 10
0.0
 20
0.0
 30
0.0
 70
   128
 71
  -517
 72
   530
 73
   518
 74
  -517
  0
VERTEX
  5
6CA
  8
0
 62
    33
 10
0.0
 20
0.0
 30
0.0
 70
   128
 71
   517
 72
   529
 73
  -530
 74
  -517
  0
VERTEX
  5
6CB
  8
0
 62
    33
 10
0.0
 20
0.0
 30
0.0
 70
   128
 71
  -518
 72
   531
 73
   519
 74
  -518
  0
VERTEX
  5
6CC
  8
0
 62
    33
 10
0.0
 20
0.0
 30
0.0
 70
   128
 71
   518
 72
   530
 73
  -531
 74
  -518
  0
VERTEX
  5
6CD
  8
0
 62
    33
 10
0.0
 20
0.0
 30
0.0
 70
   128
 71
  -519
 72
   532
 73
   520
 74
  -519
  0
VERTEX
  5
6CE
  8
0
 62
    33
 10
0.0
 20
0.0
 30
0.0
 70
   128
 71
   519
 72
   531
 73
  -532
 74
  -519
  0
VERTEX
  5
6CF
  8
0
 62
    33
 10
0.0
 20
0.0
 30
0.0
 70
   128
 71
  -520
 72
   533
 73
   521
 74
  -520
  0
VERTEX
  5
6D0
  8
0
 62
    33
 10
0.0
 20
0.0
 30
0.0
 70
   128
 71
   520
 72
   532
 73
  -533
 74
  -520
  0
VERTEX
  5
6D1
  8
0
 62
    33
 10
0.0
 20
0.0
 30
0.0
 70
   128
 71
  -521
 72
   534
 73
   522
 74
  -521
  0
VERTEX
  5
6D2
  8
0
 62
    33
 10
0.0
 20
0.0
 30
0.0
 70
   128
 71
   521
 72
   533
 73
  -534
 74
  -521
  0
VERTEX
  5
6D3
  8
0
 62
    33
 10
0.0
 20
0.0
 30
0.0
 70
   128
 71
  -522
 72
   535
 73
   523
 74
  -522
  0
VERTEX
  5
6D4
  8
0
 62
    33
 10
0.0
 20
0.0
 30
0.0
 70
   128
 71
   522
 72
   534
 73
  -535
 74
  -522
  0
VERTEX
  5
6D5
  8
0
 62
    33
 10
0.0
 20
0.0
 30
0.0
 70
   128
 71
  -523
 72
   536
 73
   524
 74
  -523
  0
VERTEX
  5
6D6
  8
0
 62
    33
 10
0.0
 20
0.0
 30
0.0
 70
   128
 71
   523
 72
   535
 73
  -536
 74
  -523
  0
VERTEX
  5
6D7
  8
0
 62
    33
 10
0.0
 20
0.0
 30
0.0
 70
   128
 71
  -524
 72
   537
 73
   525
 74
  -524
  0
VERTEX
  5
6D8
  8
0
 62
    33
 10
0.0
 20
0.0
 30
0.0
 70
   128
 71
   524
 72
   536
 73
  -537
 74
  -524
  0
VERTEX
  5
6D9
  8
0
 62
    33
 10
0.0
 20
0.0
 30
0.0
 70
   128
 71
   525
 72
   537
 73
  -429
 74
  -525
  0
VERTEX
  5
6DA
  8
0
 62
    33
 10
0.0
 20
0.0
 30
0.0
 70
   128
 71
  -527
 72
   538
 73
   526
 74
  -527
  0
VERTEX
  5
6DB
  8
0
 62
    33
 10
0.0
 20
0.0
 30
0.0
 70
   128
 71
   527
 72
   539
 73
  -538
 74
  -527
  0
VERTEX
  5
6DC
  8
0
 62
    33
 10
0.0
 20
0.0
 30
0.0
 70
   128
 71
  -526
 72
   540
 73
   528
 74
  -526
  0
VERTEX
  5
6DD
  8
0
 62
    33
 10
0.0
 20
0.0
 30
0.0
 70
   128
 71
   526
 72
   538
 73
  -540
 74
  -526
  0
VERTEX
  5
6DE
  8
0
 62
    33
 10
0.0
 20
0.0
 30
0.0
 70
   128
 71
  -528
 72
   541
 73
   529
 74
  -528
  0
VERTEX
  5
6DF
  8
0
 62
    33
 10
0.0
 20
0.0
 30
0.0
 70
   128
 71
   528
 72
   540
 73
  -541
 74
  -528
  0
VERTEX
  5
6E0
  8
0
 62
    33
 10
0.0
 20
0.0
 30
0.0
 70
   128
 71
  -529
 72
   542
 73
   530
 74
  -529
  0
VERTEX
  5
6E1
  8
0
 62
    33
 10
0.0
 20
0.0
 30
0.0
 70
   128
 71
   529
 72
   541
 73
  -542
 74
  -529
  0
VERTEX
  5
6E2
  8
0
 62
    33
 10
0.0
 20
0.0
 30
0.0
 70
   128
 71
  -530
 72
   543
 73
   531
 74
  -530
  0
VERTEX
  5
6E3
  8
0
 62
    33
 10
0.0
 20
0.0
 30
0.0
 70
   128
 71
   530
 72
   542
 73
  -543
 74
  -530
  0
VERTEX
  5
6E4
  8
0
 62
    33
 10
0.0
 20
0.0
 30
0.0
 70
   128
 71
  -531
 72
   544
 73
   532
 74
  -531
  0
VERTEX
  5
6E5
  8
0
 62
    33
 10
0.0
 20
0.0
 30
0.0
 70
   128
 71
   531
 72
   543
 73
  -544
 74
  -531
  0
VERTEX
  5
6E6
  8
0
 62
    33
 10
0.0
 20
0.0
 30
0.0
 70
   128
 71
  -532
 72
   545
 73
   533
 74
  -532
  0
VERTEX
  5
6E7
  8
0
 62
    33
 10
0.0
 20
0.0
 30
0.0
 70
   128
 71
   532
 72
   544
 73
  -545
 74
  -532
  0
VERTEX
  5
6E8
  8
0
 62
    33
 10
0.0
 20
0.0
 30
0.0
 70
   128
 71
  -533
 72
   546
 73
   534
 74
  -533
  0
VERTEX
  5
6E9
  8
0
 62
    33
 10
0.0
 20
0.0
 30
0.0
 70
   128
 71
   533
 72
   545
 73
  -546
 74
  -533
  0
VERTEX
  5
6EA
  8
0
 62
    33
 10
0.0
 20
0.0
 30
0.0
 70
   128
 71
  -534
 72
   547
 73
   535
 74
  -534
  0
VERTEX
  5
6EB
  8
0
 62
    33
 10
0.0
 20
0.0
 30
0.0
 70
   128
 71
   534
 72
   546
 73
  -547
 74
  -534
  0
VERTEX
  5
6EC
  8
0
 62
    33
 10
0.0
 20
0.0
 30
0.0
 70
   128
 71
  -535
 72
   548
 73
   536
 74
  -535
  0
VERTEX
  5
6ED
  8
0
 62
    33
 10
0.0
 20
0.0
 30
0.0
 70
   128
 71
   535
 72
   547
 73
  -548
 74
  -535
  0
VERTEX
  5
6EE
  8
0
 62
    33
 10
0.0
 20
0.0
 30
0.0
 70
   128
 71
  -536
 72
   549
 73
   537
 74
  -536
  0
VERTEX
  5
6EF
  8
0
 62
    33
 10
0.0
 20
0.0
 30
0.0
 70
   128
 71
   536
 72
   548
 73
  -549
 74
  -536
  0
VERTEX
  5
6F0
  8
0
 62
    33
 10
0.0
 20
0.0
 30
0.0
 70
   128
 71
   537
 72
   549
 73
  -429
 74
  -537
  0
VERTEX
  5
6F1
  8
0
 62
    33
 10
0.0
 20
0.0
 30
0.0
 70
   128
 71
  -539
 72
   407
 73
   538
 74
  -539
  0
VERTEX
  5
6F2
  8
0
 62
    33
 10
0.0
 20
0.0
 30
0.0
 70
   128
 71
   539
 72
   405
 73
  -407
 74
  -539
  0
VERTEX
  5
6F3
  8
0
 62
    33
 10
0.0
 20
0.0
 30
0.0
 70
   128
 71
  -538
 72
   410
 73
   540
 74
  -538
  0
VERTEX
  5
6F4
  8
0
 62
    33
 10
0.0
 20
0.0
 30
0.0
 70
   128
 71
   538
 72
   407
 73
  -410
 74
  -538
  0
VERTEX
  5
6F5
  8
0
 62
    33
 10
0.0
 20
0.0
 30
0.0
 70
   128
 71
  -540
 72
   412
 73
   541
 74
  -540
  0
VERTEX
  5
6F6
  8
0
 62
    33
 10
0.0
 20
0.0
 30
0.0
 70
   128
 71
   540
 72
   410
 73
  -412
 74
  -540
  0
VERTEX
  5
6F7
  8
0
 62
    33
 10
0.0
 20
0.0
 30
0.0
 70
   128
 71
  -541
 72
   414
 73
   542
 74
  -541
  0
VERTEX
  5
6F8
  8
0
 62
    33
 10
0.0
 20
0.0
 30
0.0
 70
   128
 71
   541
 72
   412
 73
  -414
 74
  -541
  0
VERTEX
  5
6F9
  8
0
 62
    33
 10
0.0
 20
0.0
 30
0.0
 70
   128
 71
  -542
 72
   416
 73
   543
 74
  -542
  0
VERTEX
  5
6FA
  8
0
 62
    33
 10
0.0
 20
0.0
 30
0.0
 70
   128
 71
   542
 72
   414
 73
  -416
 74
  -542
  0
VERTEX
  5
6FB
  8
0
 62
    33
 10
0.0
 20
0.0
 30
0.0
 70
   128
 71
  -543
 72
   418
 73
   544
 74
  -543
  0
VERTEX
  5
6FC
  8
0
 62
    33
 10
0.0
 20
0.0
 30
0.0
 70
   128
 71
   543
 72
   416
 73
  -418
 74
  -543
  0
VERTEX
  5
6FD
  8
0
 62
    33
 10
0.0
 20
0.0
 30
0.0
 70
   128
 71
  -544
 72
   420
 73
   545
 74
  -544
  0
VERTEX
  5
6FE
  8
0
 62
    33
 10
0.0
 20
0.0
 30
0.0
 70
   128
 71
   544
 72
   418
 73
  -420
 74
  -544
  0
VERTEX
  5
6FF
  8
0
 62
    33
 10
0.0
 20
0.0
 30
0.0
 70
   128
 71
  -545
 72
   422
 73
   546
 74
  -545
  0
VERTEX
  5
700
  8
0
 62
    33
 10
0.0
 20
0.0
 30
0.0
 70
   128
 71
   545
 72
   420
 73
  -422
 74
  -545
  0
VERTEX
  5
701
  8
0
 62
    33
 10
0.0
 20
0.0
 30
0.0
 70
   128
 71
  -546
 72
   424
 73
   547
 74
  -546
  0
VERTEX
  5
702
  8
0
 62
    33
 10
0.0
 20
0.0
 30
0.0
 70
   128
 71
   546
 72
   422
 73
  -424
 74
  -546
  0
VERTEX
  5
703
  8
0
 62
    33
 10
0.0
 20
0.0
 30
0.0
 70
   128
 71
  -547
 72
   426
 73
   548
 74
  -547
  0
VERTEX
  5
704
  8
0
 62
    33
 10
0.0
 20
0.0
 30
0.0
 70
   128
 71
   547
 72
   424
 73
  -426
 74
  -547
  0
VERTEX
  5
705
  8
0
 62
    33
 10
0.0
 20
0.0
 30
0.0
 70
   128
 71
  -548
 72
   428
 73
   549
 74
  -548
  0
VERTEX
  5
706
  8
0
 62
    33
 10
0.0
 20
0.0
 30
0.0
 70
   128
 71
   548
 72
   426
 73
  -428
 74
  -548
  0
VERTEX
  5
707
  8
0
 62
    33
 10
0.0
 20
0.0
 30
0.0
 70
   128
 71
   549
 72
   428
 73
  -429
 74
  -549
  0
VERTEX
  5
708
  8
0
 62
    33
 10
0.0
 20
0.0
 30
0.0
 70
   128
 71
  -550
 72
   551
 73
  -552
 74
  -550
  0
VERTEX
  5
709
  8
0
 62
    33
 10
0.0
 20
0.0
 30
0.0
 70
   128
 71
  -550
 72
   553
 73
  -551
 74
  -550
  0
VERTEX
  5
70A
  8
0
 62
    33
 10
0.0
 20
0.0
 30
0.0
 70
   128
 71
  -550
 72
   554
 73
  -553
 74
  -550
  0
VERTEX
  5
70B
  8
0
 62
    33
 10
0.0
 20
0.0
 30
0.0
 70
   128
 71
  -550
 72
   555
 73
  -554
 74
  -550
  0
VERTEX
  5
70C
  8
0
 62
    33
 10
0.0
 20
0.0
 30
0.0
 70
   128
 71
  -550
 72
   556
 73
  -555
 74
  -550
  0
VERTEX
  5
70D
  8
0
 62
    33
 10
0.0
 20
0.0
 30
0.0
 70
   128
 71
  -550
 72
   557
 73
  -556
 74
  -550
  0
VERTEX
  5
70E
  8
0
 62
    33
 10
0.0
 20
0.0
 30
0.0
 70
   128
 71
  -550
 72
   558
 73
  -557
 74
  -550
  0
VERTEX
  5
70F
  8
0
 62
    33
 10
0.0
 20
0.0
 30
0.0
 70
   128
 71
  -550
 72
   552
 73
  -558
 74
  -550
  0
VERTEX
  5
710
  8
0
 62
    33
 10
0.0
 20
0.0
 30
0.0
 70
   128
 71
  -559
 72
   560
 73
   561
 74
  -559
  0
VERTEX
  5
711
  8
0
 62
    33
 10
0.0
 20
0.0
 30
0.0
 70
   128
 71
   559
 72
   562
 73
  -560
 74
  -559
  0
VERTEX
  5
712
  8
0
 62
    33
 10
0.0
 20
0.0
 30
0.0
 70
   128
 71
  -562
 72
   563
 73
   560
 74
  -562
  0
VERTEX
  5
713
  8
0
 62
    33
 10
0.0
 20
0.0
 30
0.0
 70
   128
 71
   562
 72
   564
 73
  -563
 74
  -562
  0
VERTEX
  5
714
  8
0
 62
    33
 10
0.0
 20
0.0
 30
0.0
 70
   128
 71
  -564
 72
   565
 73
   563
 74
  -564
  0
VERTEX
  5
715
  8
0
 62
    33
 10
0.0
 20
0.0
 30
0.0
 70
   128
 71
   564
 72
   566
 73
  -565
 74
  -564
  0
VERTEX
  5
716
  8
0
 62
    33
 10
0.0
 20
0.0
 30
0.0
 70
   128
 71
  -566
 72
   567
 73
   565
 74
  -566
  0
VERTEX
  5
717
  8
0
 62
    33
 10
0.0
 20
0.0
 30
0.0
 70
   128
 71
   566
 72
   568
 73
  -567
 74
  -566
  0
VERTEX
  5
718
  8
0
 62
    33
 10
0.0
 20
0.0
 30
0.0
 70
   128
 71
  -568
 72
   569
 73
   567
 74
  -568
  0
VERTEX
  5
719
  8
0
 62
    33
 10
0.0
 20
0.0
 30
0.0
 70
   128
 71
   568
 72
   570
 73
  -569
 74
  -568
  0
VERTEX
  5
71A
  8
0
 62
    33
 10
0.0
 20
0.0
 30
0.0
 70
   128
 71
  -570
 72
   571
 73
   569
 74
  -570
  0
VERTEX
  5
71B
  8
0
 62
    33
 10
0.0
 20
0.0
 30
0.0
 70
   128
 71
   570
 72
   572
 73
  -571
 74
  -570
  0
VERTEX
  5
71C
  8
0
 62
    33
 10
0.0
 20
0.0
 30
0.0
 70
   128
 71
  -572
 72
   573
 73
   571
 74
  -572
  0
VERTEX
  5
71D
  8
0
 62
    33
 10
0.0
 20
0.0
 30
0.0
 70
   128
 71
   572
 72
   574
 73
  -573
 74
  -572
  0
VERTEX
  5
71E
  8
0
 62
    33
 10
0.0
 20
0.0
 30
0.0
 70
   128
 71
  -574
 72
   561
 73
   573
 74
  -574
  0
VERTEX
  5
71F
  8
0
 62
    33
 10
0.0
 20
0.0
 30
0.0
 70
   128
 71
   574
 72
   559
 73
  -561
 74
  -574
  0
VERTEX
  5
720
  8
0
 62
    33
 10
0.0
 20
0.0
 30
0.0
 70
   128
 71
  -575
 72
   576
 73
  -577
 74
  -575
  0
VERTEX
  5
721
  8
0
 62
    33
 10
0.0
 20
0.0
 30
0.0
 70
   128
 71
  -575
 72
   577
 73
  -578
 74
  -575
  0
VERTEX
  5
722
  8
0
 62
    33
 10
0.0
 20
0.0
 30
0.0
 70
   128
 71
  -575
 72
   578
 73
  -579
 74
  -575
  0
VERTEX
  5
723
  8
0
 62
    33
 10
0.0
 20
0.0
 30
0.0
 70
   128
 71
  -575
 72
   579
 73
  -580
 74
  -575
  0
VERTEX
  5
724
  8
0
 62
    33
 10
0.0
 20
0.0
 30
0.0
 70
   128
 71
  -575
 72
   580
 73
  -581
 74
  -575
  0
VERTEX
  5
725
  8
0
 62
    33
 10
0.0
 20
0.0
 30
0.0
 70
   128
 71
  -575
 72
   581
 73
  -582
 74
  -575
  0
VERTEX
  5
726
  8
0
 62
    33
 10
0.0
 20
0.0
 30
0.0
 70
   128
 71
  -575
 72
   582
 73
  -583
 74
  -575
  0
VERTEX
  5
727
  8
0
 62
    33
 10
0.0
 20
0.0
 30
0.0
 70
   128
 71
  -575
 72
   583
 73
  -576
 74
  -575
  0
VERTEX
  5
728
  8
0
 62
    33
 10
0.0
 20
0.0
 30
0.0
 70
   128
 71
   562
 72
   559
 73
  -552
 74
  -562
  0
VERTEX
  5
729
  8
0
 62
    33
 10
0.0
 20
0.0
 30
0.0
 70
   128
 71
   552
 72
   551
 73
  -562
 74
  -552
  0
VERTEX
  5
72A
  8
0
 62
    33
 10
0.0
 20
0.0
 30
0.0
 70
   128
 71
   564
 72
   562
 73
  -551
 74
  -564
  0
VERTEX
  5
72B
  8
0
 62
    33
 10
0.0
 20
0.0
 30
0.0
 70
   128
 71
   551
 72
   553
 73
  -564
 74
  -551
  0
VERTEX
  5
72C
  8
0
 62
    33
 10
0.0
 20
0.0
 30
0.0
 70
   128
 71
   566
 72
   564
 73
  -553
 74
  -566
  0
VERTEX
  5
72D
  8
0
 62
    33
 10
0.0
 20
0.0
 30
0.0
 70
   128
 71
   553
 72
   554
 73
  -566
 74
  -553
  0
VERTEX
  5
72E
  8
0
 62
    33
 10
0.0
 20
0.0
 30
0.0
 70
   128
 71
   568
 72
   566
 73
  -554
 74
  -568
  0
VERTEX
  5
72F
  8
0
 62
    33
 10
0.0
 20
0.0
 30
0.0
 70
   128
 71
   554
 72
   555
 73
  -568
 74
  -554
  0
VERTEX
  5
730
  8
0
 62
    33
 10
0.0
 20
0.0
 30
0.0
 70
   128
 71
   570
 72
   568
 73
  -555
 74
  -570
  0
VERTEX
  5
731
  8
0
 62
    33
 10
0.0
 20
0.0
 30
0.0
 70
   128
 71
   555
 72
   556
 73
  -570
 74
  -555
  0
VERTEX
  5
732
  8
0
 62
    33
 10
0.0
 20
0.0
 30
0.0
 70
   128
 71
   572
 72
   570
 73
  -556
 74
  -572
  0
VERTEX
  5
733
  8
0
 62
    33
 10
0.0
 20
0.0
 30
0.0
 70
   128
 71
   556
 72
   557
 73
  -572
 74
  -556
  0
VERTEX
  5
734
  8
0
 62
    33
 10
0.0
 20
0.0
 30
0.0
 70
   128
 71
   574
 72
   572
 73
  -557
 74
  -574
  0
VERTEX
  5
735
  8
0
 62
    33
 10
0.0
 20
0.0
 30
0.0
 70
   128
 71
   557
 72
   558
 73
  -574
 74
  -557
  0
VERTEX
  5
736
  8
0
 62
    33
 10
0.0
 20
0.0
 30
0.0
 70
   128
 71
   559
 72
   574
 73
  -558
 74
  -559
  0
VERTEX
  5
737
  8
0
 62
    33
 10
0.0
 20
0.0
 30
0.0
 70
   128
 71
   558
 72
   552
 73
  -559
 74
  -558
  0
VERTEX
  5
738
  8
0
 62
    33
 10
0.0
 20
0.0
 30
0.0
 70
   128
 71
   561
 72
   560
 73
  -577
 74
  -561
  0
VERTEX
  5
739
  8
0
 62
    33
 10
0.0
 20
0.0
 30
0.0
 70
   128
 71
   577
 72
   576
 73
  -561
 74
  -577
  0
VERTEX
  5
73A
  8
0
 62
    33
 10
0.0
 20
0.0
 30
0.0
 70
   128
 71
   560
 72
   563
 73
  -578
 74
  -560
  0
VERTEX
  5
73B
  8
0
 62
    33
 10
0.0
 20
0.0
 30
0.0
 70
   128
 71
   578
 72
   577
 73
  -560
 74
  -578
  0
VERTEX
  5
73C
  8
0
 62
    33
 10
0.0
 20
0.0
 30
0.0
 70
   128
 71
   563
 72
   565
 73
  -579
 74
  -563
  0
VERTEX
  5
73D
  8
0
 62
    33
 10
0.0
 20
0.0
 30
0.0
 70
   128
 71
   579
 72
   578
 73
  -563
 74
  -579
  0
VERTEX
  5
73E
  8
0
 62
    33
 10
0.0
 20
0.0
 30
0.0
 70
   128
 71
   565
 72
   567
 73
  -580
 74
  -565
  0
VERTEX
  5
73F
  8
0
 62
    33
 10
0.0
 20
0.0
 30
0.0
 70
   128
 71
   580
 72
   579
 73
  -565
 74
  -580
  0
VERTEX
  5
740
  8
0
 62
    33
 10
0.0
 20
0.0
 30
0.0
 70
   128
 71
   567
 72
   569
 73
  -581
 74
  -567
  0
VERTEX
  5
741
  8
0
 62
    33
 10
0.0
 20
0.0
 30
0.0
 70
   128
 71
   581
 72
   580
 73
  -567
 74
  -581
  0
VERTEX
  5
742
  8
0
 62
    33
 10
0.0
 20
0.0
 30
0.0
 70
   128
 71
   569
 72
   571
 73
  -582
 74
  -569
  0
VERTEX
  5
743
  8
0
 62
    33
 10
0.0
 20
0.0
 30
0.0
 70
   128
 71
   582
 72
   581
 73
  -569
 74
  -582
  0
VERTEX
  5
744
  8
0
 62
    33
 10
0.0
 20
0.0
 30
0.0
 70
   128
 71
   571
 72
   573
 73
  -583
 74
  -571
  0
VERTEX
  5
745
  8
0
 62
    33
 10
0.0
 20
0.0
 30
0.0
 70
   128
 71
   583
 72
   582
 73
  -571
 74
  -583
  0
VERTEX
  5
746
  8
0
 62
    33
 10
0.0
 20
0.0
 30
0.0
 70
   128
 71
   573
 72
   561
 73
  -576
 74
  -573
  0
VERTEX
  5
747
  8
0
 62
    33
 10
0.0
 20
0.0
 30
0.0
 70
   128
 71
   576
 72
   583
 73
  -573
 74
  -576
  0
SEQEND
  5
748
  8
0
 62
    33
  0
ENDSEC
  0
EOF
