  0
SECTION
  2
HEADER
  9
$ACADVER
  1
AC1009
  9
$INSBASE
 10
20.834443283144399
 20
0.0116739591155544
 30
0.0
  9
$EXTMIN
 10
15.490451551010329
 20
0.0010391059821622
 30
-0.0000000116544917
  9
$EXTMAX
 10
21.824774995033479
 20
8.5118042012504915
 30
0.0000000465638271
  9
$LIMMIN
 10
0.0
 20
0.0
  9
$LIMMAX
 10
11.692913385800001
 20
8.2677165353999982
  9
$ORTHOMODE
 70
     0
  9
$REGENMODE
 70
     1
  9
$FILLMODE
 70
     1
  9
$QTEXTMODE
 70
     0
  9
$MIRRTEXT
 70
     0
  9
$DRAGMODE
 70
     2
  9
$LTSCALE
 40
0.6431102362
  9
$OSMODE
 70
    39
  9
$ATTMODE
 70
     1
  9
$TEXTSIZE
 40
0.2
  9
$TRACEWID
 40
0.05
  9
$TEXTSTYLE
  7
STANDARD
  9
$CLAYER
  8
0
  9
$CELTYPE
  6
BYLAYER
  9
$CECOLOR
 62
   256
  9
$DIMSCALE
 40
1.0
  9
$DIMASZ
 40
0.1875
  9
$DIMEXO
 40
0.0625
  9
$DIMDLI
 40
0.38
  9
$DIMRND
 40
0.0
  9
$DIMDLE
 40
0.0
  9
$DIMEXE
 40
0.125
  9
$DIMTP
 40
0.01
  9
$DIMTM
 40
0.01
  9
$DIMTXT
 40
0.15625
  9
$DIMCEN
 40
0.09
  9
$DIMTSZ
 40
0.0
  9
$DIMTOL
 70
     1
  9
$DIMLIM
 70
     0
  9
$DIMTIH
 70
     1
  9
$DIMTOH
 70
     1
  9
$DIMSE1
 70
     0
  9
$DIMSE2
 70
     0
  9
$DIMTAD
 70
     0
  9
$DIMZIN
 70
     4
  9
$DIMBLK
  1

  9
$DIMASO
 70
     1
  9
$DIMSHO
 70
     1
  9
$DIMPOST
  1

  9
$DIMAPOST
  1

  9
$DIMALT
 70
     1
  9
$DIMALTD
 70
     2
  9
$DIMALTF
 40
25.399999999999999
  9
$DIMLFAC
 40
1.0
  9
$DIMTOFL
 70
     0
  9
$DIMTVP
 40
0.0
  9
$DIMTIX
 70
     0
  9
$DIMSOXD
 70
     0
  9
$DIMSAH
 70
     0
  9
$DIMBLK1
  1

  9
$DIMBLK2
  1

  9
$DIMSTYLE
  2
STANDARD
  9
$DIMCLRD
 70
     0
  9
$DIMCLRE
 70
     0
  9
$DIMCLRT
 70
     0
  9
$DIMTFAC
 40
1.0
  9
$DIMGAP
 40
0.09
  9
$LUNITS
 70
     2
  9
$LUPREC
 70
     4
  9
$SKETCHINC
 40
0.1
  9
$FILLETRAD
 40
0.0
  9
$AUNITS
 70
     0
  9
$AUPREC
 70
     0
  9
$MENU
  1
.
  9
$ELEVATION
 40
0.0
  9
$PELEVATION
 40
0.0
  9
$THICKNESS
 40
0.0
  9
$LIMCHECK
 70
     0
  9
$BLIPMODE
 70
     0
  9
$CHAMFERA
 40
0.0
  9
$CHAMFERB
 40
0.0
  9
$SKPOLY
 70
     0
  9
$TDCREATE
 40
2457589.4331851271
  9
$TDUPDATE
 40
2457591.5199588891
  9
$TDINDWG
 40
0.1578028588
  9
$TDUSRTIMER
 40
0.1578028588
  9
$USRTIMER
 70
     1
  9
$ANGBASE
 50
0.0
  9
$ANGDIR
 70
     0
  9
$PDMODE
 70
     0
  9
$PDSIZE
 40
0.3125
  9
$PLINEWID
 40
0.0
  9
$COORDS
 70
     1
  9
$SPLFRAME
 70
     0
  9
$SPLINETYPE
 70
     6
  9
$SPLINESEGS
 70
     8
  9
$ATTDIA
 70
     1
  9
$ATTREQ
 70
     1
  9
$HANDLING
 70
     1
  9
$HANDSEED
  5
1235
  9
$SURFTAB1
 70
     6
  9
$SURFTAB2
 70
     6
  9
$SURFTYPE
 70
     6
  9
$SURFU
 70
     6
  9
$SURFV
 70
     6
  9
$UCSNAME
  2

  9
$UCSORG
 10
0.0
 20
0.0
 30
0.0
  9
$UCSXDIR
 10
1.0
 20
0.0
 30
0.0
  9
$UCSYDIR
 10
0.0
 20
1.0
 30
0.0
  9
$PUCSNAME
  2

  9
$PUCSORG
 10
0.0
 20
0.0
 30
0.0
  9
$PUCSXDIR
 10
1.0
 20
0.0
 30
0.0
  9
$PUCSYDIR
 10
0.0
 20
1.0
 30
0.0
  9
$USERI1
 70
     0
  9
$USERI2
 70
     0
  9
$USERI3
 70
     0
  9
$USERI4
 70
     0
  9
$USERI5
 70
     0
  9
$USERR1
 40
0.0
  9
$USERR2
 40
0.0
  9
$USERR3
 40
0.0
  9
$USERR4
 40
0.0
  9
$USERR5
 40
0.0
  9
$WORLDVIEW
 70
     1
  9
$SHADEDGE
 70
     3
  9
$SHADEDIF
 70
    70
  9
$TILEMODE
 70
     1
  9
$MAXACTVP
 70
    64
  9
$PLIMCHECK
 70
     0
  9
$PEXTMIN
 10
1.0000000000000000E+020
 20
1.0000000000000000E+020
 30
1.0000000000000000E+020
  9
$PEXTMAX
 10
-1.0000000000000000E+020
 20
-1.0000000000000000E+020
 30
-1.0000000000000000E+020
  9
$PLIMMIN
 10
0.0
 20
0.0
  9
$PLIMMAX
 10
12.0
 20
9.0
  9
$UNITMODE
 70
     0
  9
$VISRETAIN
 70
     1
  9
$PLINEGEN
 70
     0
  9
$PSLTSCALE
 70
     1
  0
ENDSEC
  0
SECTION
  2
TABLES
  0
TABLE
  2
VPORT
 70
     1
  0
VPORT
  2
*ACTIVE
 70
     0
 10
0.0
 20
0.0
 11
1.0
 21
1.0
 12
9.306356902477475
 22
-6.024990217697721
 13
0.0
 23
0.0
 14
1.0
 24
1.0
 15
0.0
 25
0.0
 16
-0.0000000000000213
 26
0.0
 36
92.050969999541906
 17
9.3512563705444336
 27
10.281411871314051
 37
0.0
 40
8.5697209163352142
 41
1.786624203821656
 42
50.0
 43
0.0
 44
0.0
 50
0.0
 51
0.0
 71
     0
 72
   100
 73
     1
 74
     1
 75
     0
 76
     0
 77
     0
 78
     0
  0
ENDTAB
  0
TABLE
  2
LTYPE
 70
     1
  0
LTYPE
  2
CONTINUOUS
 70
     0
  3
Solid line
 72
    65
 73
     0
 40
0.0
  0
ENDTAB
  0
TABLE
  2
LAYER
 70
     3
  0
LAYER
  2
0
 70
     0
 62
     7
  6
CONTINUOUS
  0
LAYER
  2
DEFPOINTS
 70
     0
 62
     7
  6
CONTINUOUS
  0
ENDTAB
  0
TABLE
  2
STYLE
 70
     1
  0
STYLE
  2
STANDARD
 70
     0
 40
0.0
 41
0.8
 50
0.0
 71
     0
 42
0.2
  3
txt
  4

  0
ENDTAB
  0
TABLE
  2
VIEW
 70
     9
  0
ENDTAB
  0
TABLE
  2
UCS
 70
     0
  0
ENDTAB
  0
TABLE
  2
APPID
 70
     7
  0
APPID
  2
ACAD
 70
     0
  0
APPID
  2
ACAD_MLEADERVER
 70
     0
  0
APPID
  2
ACAD_DSTYLE_DIMJAG
 70
     0
  0
APPID
  2
ACAD_DSTYLE_DIMTALN
 70
     0
  0
APPID
  2
ACAD_NAV_VCDISPLAY
 70
     0
  0
APPID
  2
ACAD_EXEMPT_FROM_CAD_STANDARDS
 70
     0
  0
APPID
  2
ACDBATTR
 70
     0
  0
ENDTAB
  0
TABLE
  2
DIMSTYLE
 70
     1
  0
DIMSTYLE
  2
STANDARD
 70
     0
  3

  4

  5

  6

  7

 40
1.0
 41
0.1875
 42
0.0625
 43
0.38
 44
0.125
 45
0.0
 46
0.0
 47
0.01
 48
0.01
140
0.15625
141
0.09
142
0.0
143
25.399999999999999
144
1.0
145
0.0
146
1.0
147
0.09
 71
     1
 72
     0
 73
     1
 74
     1
 75
     0
 76
     0
 77
     0
 78
     4
170
     1
171
     2
172
     0
173
     0
174
     0
175
     0
176
     0
177
     0
178
     0
  0
ENDTAB
  0
ENDSEC
  0
SECTION
  2
BLOCKS
  0
BLOCK
  8
0
  2
$MODEL_SPACE
 70
     0
 10
0.0
 20
0.0
 30
0.0
  3
$MODEL_SPACE
  1

  0
ENDBLK
  5
21
  8
0
  0
BLOCK
 67
     1
  8
0
  2
$PAPER_SPACE
 70
     0
 10
0.0
 20
0.0
 30
0.0
  3
$PAPER_SPACE
  1

  0
ENDBLK
  5
1D
 67
     1
  8
0
  0
ENDSEC
  0
SECTION
  2
ENTITIES
  0
ARC
  5
893
  8
0
 10
15.502691868686799
 20
5.8291742798085631
 30
0.0
 40
0.0100000000000034
 50
179.99999999999491
 51
269.99999999997959
  0
LINE
  5
894
  8
0
 10
15.502691868686799
 20
5.8191742798085633
 30
0.0
 11
16.168191868686801
 21
5.819174279808327
 31
0.0
  0
ARC
  5
895
  8
0
 10
16.168191868686659
 20
5.829174279808468
 30
0.0
 40
0.010000000000141
 50
270.00000000081423
 51
0.0000000005546887
  0
LINE
  5
896
  8
0
 10
16.178191868686799
 20
5.829174279808468
 30
0.0
 11
16.178191868686799
 21
6.5141742798085636
 31
0.0
  0
ARC
  5
89E
  8
0
 10
16.1731918686868
 20
6.5141742798085636
 30
0.0
 40
0.004999999999999
 50
0.0000000000101778
 51
90.0
  0
LINE
  5
89F
  8
0
 10
15.4926918686868
 20
5.829174279808564
 30
0.0
 11
15.4926918686868
 21
6.5141742798085636
 31
0.0
  0
ARC
  5
8A0
  8
0
 10
15.497706572308401
 20
6.5141742798085636
 30
0.0
 40
0.0050147036216046
 50
94.388674055529805
 51
180.00000000000509
  0
LINE
  5
8A1
  8
0
 10
15.4919418686868
 20
6.5191742798085643
 30
0.0
 11
16.178941868686799
 21
6.5191742798085643
 31
0.0
  0
LINE
  5
8A2
  8
0
 10
16.178941868686799
 20
6.5191742798085643
 30
0.0
 11
16.178941868686799
 21
6.6991742798085561
 31
0.0
  0
LINE
  5
8A4
  8
0
 10
15.4919418686868
 20
6.6991742798085641
 30
0.0
 11
15.4919418686868
 21
6.5191742798085643
 31
0.0
  0
ARC
  5
8A5
  8
0
 10
17.304441868686801
 20
6.6991742798085623
 30
0.0
 40
1.1255000000000019
 50
90.000000000000185
 51
180.00000000000031
  0
LINE
  5
8A6
  8
0
 10
17.304441868686801
 20
7.8246742798085647
 30
0.0
 11
19.365441868686801
 21
7.8246742798085709
 31
0.0
  0
ARC
  5
8A7
  8
0
 10
19.365441868686808
 20
6.6991742798085756
 30
0.0
 40
1.1254999999999951
 50
359.99999999999937
 51
90.000000000000185
  0
LINE
  5
8A8
  8
0
 10
20.4909418686868
 20
6.6991742798085641
 30
0.0
 11
20.490941868686772
 21
3.7916742798085639
 31
0.0
  0
ARC
  5
8A9
  8
0
 10
20.330941868686772
 20
3.7916742798085661
 30
0.0
 40
0.1600000000000037
 50
270.00000000001398
 51
0.0000000000000509
  0
LINE
  5
8AA
  8
0
 10
20.304442138815212
 20
3.6316742798061319
 30
0.0
 11
20.770171243871879
 21
3.6316742798072008
 31
0.0
  0
ARC
  5
8AB
  8
0
 10
21.364441868686839
 20
3.6166742798085978
 30
0.0
 40
0.0149999999999659
 50
359.99999999986937
 51
90.000000000130527
  0
ARC
  5
8D8
  8
0
 10
17.304441868686791
 20
6.6991742798085676
 30
0.0
 40
1.8124999999999889
 50
89.999999999999673
 51
180.00000000000011
  0
LINE
  5
8D9
  8
0
 10
17.304441868686801
 20
8.5116742798085632
 30
0.0
 11
19.365441868686801
 21
8.5116742798085525
 31
0.0
  0
ARC
  5
8DA
  8
0
 10
19.365441868686791
 20
6.6991742798085427
 30
0.0
 40
1.812500000000008
 50
0.0000000000006395
 51
89.999999999999744
  0
LINE
  5
8DB
  8
0
 10
21.177941868686801
 20
6.6991742798085641
 30
0.0
 11
21.17794186868684
 21
3.7916742798085639
 31
0.0
  0
ARC
  5
8DC
  8
0
 10
21.337941868686841
 20
3.7916742798085661
 30
0.0
 40
0.1600000000000037
 50
180.00000000000011
 51
269.99999999998732
  0
LINE
  5
8DD
  8
0
 10
21.379441868686811
 20
3.616674279808564
 30
0.0
 11
21.37953509184425
 21
0.4836638358272246
 31
0.0
  0
ARC
  5
8DE
  8
0
 10
21.65938855258819
 20
0.4716330508620964
 30
0.0
 40
0.2799587761303637
 50
181.5760040267009
 51
270.01091156166359
  0
ARC
  5
8DF
  8
0
 10
20.304441868686801
 20
3.6166742798085609
 30
0.0
 40
0.0150000000000028
 50
90.0
 51
179.9999999999898
  0
LINE
  5
8E0
  8
0
 10
20.289441868686801
 20
3.616674279808564
 30
0.0
 11
20.289348646535171
 21
0.4836962744610977
 31
0.0
  0
ARC
  5
8E1
  8
0
 10
20.009431563626851
 20
0.4716979809860342
 30
0.0
 40
0.2800241661578203
 50
270.10441363966612
 51
358.41107365933999
  0
LINE
  5
8E2
  8
0
 10
19.859441868385101
 20
0.1916742798085642
 30
0.0
 11
21.8094418689885
 21
0.1916742798085642
 31
0.0
  0
ARC
  5
8E3
  8
0
 10
21.8094418689885
 20
0.1766742801102601
 30
0.0
 40
0.0149999996983041
 50
359.99999884760649
 51
89.999999999999915
  0
LINE
  5
8E4
  8
0
 10
21.824441868686801
 20
0.1766742798085642
 30
0.0
 11
21.82444186566984
 21
0.0266742798085642
 31
0.0
  0
ARC
  5
8E5
  8
0
 10
21.80944186536815
 20
0.02667428011026
 30
0.0
 40
0.015000000301697
 50
270.00001884552057
 51
359.99999884760922
  0
LINE
  5
8E6
  8
0
 10
21.809441870301889
 20
0.0116742798085643
 30
0.0
 11
19.859444695986909
 21
0.0116736384225445
 31
0.0
  0
ARC
  5
8E7
  8
0
 10
19.859444691052229
 20
0.0266764609465268
 30
0.0
 40
0.0150028225239832
 50
180.0083297659512
 51
270.00001884552069
  0
LINE
  5
8E8
  8
0
 10
19.8444418686868
 20
0.0266742798085642
 30
0.0
 11
19.844420061410609
 21
0.1766742782233732
 31
0.0
  0
ARC
  5
8E9
  8
0
 10
19.85941790157284
 20
0.1766764586370138
 30
0.0
 40
0.0149978403207269
 50
89.908441561622723
 51
180.00832976594671
  0
ARC
  5
8EA
  8
0
 10
20.29934470206193
 20
0.4636742798697178
 30
0.0
 40
0.0099999999388466
 50
89.999999857511156
 51
178.51550667545271
  0
LINE
  5
8EB
  8
0
 10
20.299344702086799
 20
0.4736742798085643
 30
0.0
 11
21.369539035286799
 21
0.4736742771470982
 31
0.0
  0
ARC
  5
8EC
  8
0
 10
21.36953903526193
 20
0.4636742770927157
 30
0.0
 40
0.0100000000543825
 50
1.4845285097626431
 51
89.999999857511199
  0
ARC
  5
8ED
  8
0
 10
21.369375079497171
 20
0.4838355231695242
 30
0.0
 40
0.0101614628590821
 50
270.37659599710469
 51
359.03188858228179
  0
ARC
  5
8EE
  8
0
 10
20.299510251260859
 20
0.4838354896246213
 30
0.0
 40
0.0101625583128984
 50
180.78490972296009
 51
269.06660412934298
  0
ATTDEF
  5
AC1
  8
DEFPOINTS
 10
20.83052244440837
 20
0.0012722054981325
 30
0.0
 40
0.001
  1
METAL
  3

  2
MATERIAL
 70
     0
1001
ACDBATTR
1070
     0
1070
     1
  0
ATTDEF
  5
AC2
  8
DEFPOINTS
 10
20.83052244440837
 20
0.0029388721647976
 30
0.0
 40
0.001
  1
BATHROOM SINK FAUCET
  3

  2
PRODUCT
 70
     0
1001
ACDBATTR
1070
     0
1070
     1
  0
ATTDEF
  5
AC3
  8
DEFPOINTS
 10
20.83052244440837
 20
0.0046055388314628
 30
0.0
 40
0.001
  1
PURIST
  3

  2
TRADENAME
 70
     0
1001
ACDBATTR
1070
     0
1070
     1
  0
ATTDEF
  5
AC4
  8
DEFPOINTS
 10
20.83052244440837
 20
0.0062722054981279
 30
0.0
 40
0.001
  1
K-14406-4
  3

  2
MODELNUMBER
 70
     0
1001
ACDBATTR
1070
     0
1070
     1
  0
CIRCLE
  5
D98
  8
0
 10
20.834394169994169
 20
3.3745742686047668
 30
0.0
 40
0.2650000000000006
  0
LINE
  5
D99
  8
0
 10
21.054536043594169
 20
3.2270594487047668
 30
0.0
 11
21.057845976813979
 21
2.4684834412835812
 31
0.0
  0
ARC
  5
D9A
  8
0
 10
21.307843596986022
 20
2.469574268596582
 30
0.0
 40
0.2499999999918158
 50
180.24999999813139
 51
270.00000000186782
  0
LINE
  5
D9B
  8
0
 10
20.614252268003881
 20
3.227052937984082
 30
0.0
 11
20.610942363174349
 21
2.4684834412835812
 31
0.0
  0
ARC
  5
D9C
  8
0
 10
20.360944742996299
 20
2.4695742686026301
 30
0.0
 40
0.2499999999978604
 50
269.99999999951149
 51
359.75000000048738
  0
ARC
  5
D9D
  8
0
 10
20.300006620594178
 20
2.2095742686047588
 30
0.0
 40
0.0100000000000079
 50
90.000000000040714
 51
178.99999864970391
  0
LINE
  5
D9E
  8
0
 10
20.300006620594171
 20
2.2195742686047679
 30
0.0
 11
21.368781719494169
 21
2.2195742686055269
 31
0.0
  0
ARC
  5
D9F
  8
0
 10
21.368781719494169
 20
2.2095742686538329
 30
0.0
 40
0.0099999999516944
 50
1.0000010739087131
 51
90.000000000040714
  0
ARC
  5
DA0
  8
0
 10
20.371513562955929
 20
2.174574267950395
 30
0.0
 40
1.007880607038234
 50
358.00000013516512
 51
1.9999999449677259
  0
ARC
  5
DA1
  8
0
 10
21.36860324694544
 20
2.139755441460184
 30
0.0
 40
0.010183163628197
 50
271.00419171702742
 51
357.9982560096654
  0
ARC
  5
DA2
  8
0
 10
20.300184327434259
 20
2.1397551045799621
 30
0.0
 40
0.0101823866751059
 50
182.00000002817811
 51
269.0000409139202
  0
LINE
  5
DA3
  8
0
 10
20.289398670694169
 20
2.1295742686047672
 30
0.0
 11
21.379486117534022
 21
2.1295748909741632
 31
0.0
  0
LINE
  5
DCC
  8
0
 10
20.29000814364672
 20
2.209748792904767
 30
0.0
 11
20.290008143594171
 21
2.1393997444047659
 31
0.0
  0
LINE
  5
DCD
  8
0
 10
20.898617096115281
 20
3.6316742798074961
 30
0.0
 11
21.3644418686868
 21
3.6316742798085642
 31
0.0
  0
LINE
  5
1005
  8
0
 10
21.395721258144398
 20
0.3866739591155543
 30
0.0
 11
21.769444747144401
 21
0.3866739591155543
 31
0.0
  0
LINE
  5
100D
  8
0
 10
21.749444375444408
 20
0.8266739591155543
 30
0.0
 11
21.415721132944402
 21
0.8266739591155543
 31
0.0
  0
LINE
  5
103B
  8
0
 10
21.395721093044401
 20
0.8066739591155542
 30
0.0
 11
21.395721093044401
 21
0.3866739591155543
 31
0.0
  0
LINE
  5
103E
  8
0
 10
21.471444869244401
 20
0.3866739591155543
 30
0.0
 11
21.471444869244401
 21
0.2633961855155544
 31
0.0
  0
LINE
  5
1042
  8
0
 10
21.6274448692444
 20
0.3866739591155543
 30
0.0
 11
21.6274448692444
 21
0.1934340883155545
 31
0.0
  0
LINE
  5
1043
  8
0
 10
21.769444869244399
 20
0.3866739591155543
 30
0.0
 11
21.769444869244399
 21
0.8066739591155542
 31
0.0
  0
ARC
  5
105C
  8
0
 10
21.7494448692444
 20
0.8066739591155542
 30
0.0
 40
0.02
 50
0.0
 51
90.0
  0
ARC
  5
106D
  8
0
 10
21.415721092922901
 20
0.8066739592370947
 30
0.0
 40
0.0199999998784997
 50
89.999885346834887
 51
180.0000003481874
  0
ENDSEC
  0
EOF
