  0
SECTION
  2
HEADER
  9
$ACADVER
  1
AC1009
  9
$INSBASE
 10
4.0580708314703973
 20
0.0116629007560798
 30
0.0
  9
$EXTMIN
 10
-3.122836451161902
 20
0.0003896656237075
 30
-0.0000000349181948
  9
$EXTMAX
 10
11.23897790537927
 20
8.5122022724352
 30
0.0000000814935746
  9
$LIMMIN
 10
0.0
 20
0.0
  9
$LIMMAX
 10
11.692913385800001
 20
8.2677165353999982
  9
$ORTHOMODE
 70
     0
  9
$REGENMODE
 70
     1
  9
$FILLMODE
 70
     1
  9
$QTEXTMODE
 70
     0
  9
$MIRRTEXT
 70
     0
  9
$DRAGMODE
 70
     2
  9
$LTSCALE
 40
0.6431102362
  9
$OSMODE
 70
    39
  9
$ATTMODE
 70
     1
  9
$TEXTSIZE
 40
0.2
  9
$TRACEWID
 40
0.05
  9
$TEXTSTYLE
  7
STANDARD
  9
$CLAYER
  8
0
  9
$CELTYPE
  6
BYLAYER
  9
$CECOLOR
 62
   256
  9
$DIMSCALE
 40
1.0
  9
$DIMASZ
 40
0.1875
  9
$DIMEXO
 40
0.0625
  9
$DIMDLI
 40
0.38
  9
$DIMRND
 40
0.0
  9
$DIMDLE
 40
0.0
  9
$DIMEXE
 40
0.125
  9
$DIMTP
 40
0.01
  9
$DIMTM
 40
0.01
  9
$DIMTXT
 40
0.15625
  9
$DIMCEN
 40
0.09
  9
$DIMTSZ
 40
0.0
  9
$DIMTOL
 70
     1
  9
$DIMLIM
 70
     0
  9
$DIMTIH
 70
     1
  9
$DIMTOH
 70
     1
  9
$DIMSE1
 70
     0
  9
$DIMSE2
 70
     0
  9
$DIMTAD
 70
     0
  9
$DIMZIN
 70
     4
  9
$DIMBLK
  1

  9
$DIMASO
 70
     1
  9
$DIMSHO
 70
     1
  9
$DIMPOST
  1

  9
$DIMAPOST
  1

  9
$DIMALT
 70
     1
  9
$DIMALTD
 70
     2
  9
$DIMALTF
 40
25.399999999999999
  9
$DIMLFAC
 40
1.0
  9
$DIMTOFL
 70
     0
  9
$DIMTVP
 40
0.0
  9
$DIMTIX
 70
     0
  9
$DIMSOXD
 70
     0
  9
$DIMSAH
 70
     0
  9
$DIMBLK1
  1

  9
$DIMBLK2
  1

  9
$DIMSTYLE
  2
STANDARD
  9
$DIMCLRD
 70
     0
  9
$DIMCLRE
 70
     0
  9
$DIMCLRT
 70
     0
  9
$DIMTFAC
 40
1.0
  9
$DIMGAP
 40
0.09
  9
$LUNITS
 70
     2
  9
$LUPREC
 70
     4
  9
$SKETCHINC
 40
0.1
  9
$FILLETRAD
 40
0.0
  9
$AUNITS
 70
     0
  9
$AUPREC
 70
     0
  9
$MENU
  1
.
  9
$ELEVATION
 40
0.0
  9
$PELEVATION
 40
0.0
  9
$THICKNESS
 40
0.0
  9
$LIMCHECK
 70
     0
  9
$BLIPMODE
 70
     0
  9
$CHAMFERA
 40
0.0
  9
$CHAMFERB
 40
0.0
  9
$SKPOLY
 70
     0
  9
$TDCREATE
 40
2457589.4331851271
  9
$TDUPDATE
 40
2457591.5197734032
  9
$TDINDWG
 40
0.1602203819
  9
$TDUSRTIMER
 40
0.1602203819
  9
$USRTIMER
 70
     1
  9
$ANGBASE
 50
0.0
  9
$ANGDIR
 70
     0
  9
$PDMODE
 70
     0
  9
$PDSIZE
 40
0.3125
  9
$PLINEWID
 40
0.0
  9
$COORDS
 70
     1
  9
$SPLFRAME
 70
     0
  9
$SPLINETYPE
 70
     6
  9
$SPLINESEGS
 70
     8
  9
$ATTDIA
 70
     1
  9
$ATTREQ
 70
     1
  9
$HANDLING
 70
     1
  9
$HANDSEED
  5
F57
  9
$SURFTAB1
 70
     6
  9
$SURFTAB2
 70
     6
  9
$SURFTYPE
 70
     6
  9
$SURFU
 70
     6
  9
$SURFV
 70
     6
  9
$UCSNAME
  2

  9
$UCSORG
 10
0.0
 20
0.0
 30
0.0
  9
$UCSXDIR
 10
1.0
 20
0.0
 30
0.0
  9
$UCSYDIR
 10
0.0
 20
1.0
 30
0.0
  9
$PUCSNAME
  2

  9
$PUCSORG
 10
0.0
 20
0.0
 30
0.0
  9
$PUCSXDIR
 10
1.0
 20
0.0
 30
0.0
  9
$PUCSYDIR
 10
0.0
 20
1.0
 30
0.0
  9
$USERI1
 70
     0
  9
$USERI2
 70
     0
  9
$USERI3
 70
     0
  9
$USERI4
 70
     0
  9
$USERI5
 70
     0
  9
$USERR1
 40
0.0
  9
$USERR2
 40
0.0
  9
$USERR3
 40
0.0
  9
$USERR4
 40
0.0
  9
$USERR5
 40
0.0
  9
$WORLDVIEW
 70
     1
  9
$SHADEDGE
 70
     3
  9
$SHADEDIF
 70
    70
  9
$TILEMODE
 70
     1
  9
$MAXACTVP
 70
    64
  9
$PLIMCHECK
 70
     0
  9
$PEXTMIN
 10
1.0000000000000000E+020
 20
1.0000000000000000E+020
 30
1.0000000000000000E+020
  9
$PEXTMAX
 10
-1.0000000000000000E+020
 20
-1.0000000000000000E+020
 30
-1.0000000000000000E+020
  9
$PLIMMIN
 10
0.0
 20
0.0
  9
$PLIMMAX
 10
12.0
 20
9.0
  9
$UNITMODE
 70
     0
  9
$VISRETAIN
 70
     1
  9
$PLINEGEN
 70
     0
  9
$PSLTSCALE
 70
     1
  0
ENDSEC
  0
SECTION
  2
TABLES
  0
TABLE
  2
VPORT
 70
     1
  0
VPORT
  2
*ACTIVE
 70
     0
 10
0.0
 20
0.0
 11
1.0
 21
1.0
 12
3.4133563169458969
 22
-2.59597370692489
 13
0.0
 23
0.0
 14
1.0
 24
1.0
 15
0.0
 25
0.0
 16
-0.0000000000000107
 26
0.0
 36
47.417068228320318
 17
4.058069109916687
 27
4.1176740974187851
 37
0.0
 40
21.913669483583771
 41
1.786624203821656
 42
50.0
 43
0.0
 44
0.0
 50
0.0
 51
0.0
 71
     0
 72
   100
 73
     1
 74
     1
 75
     0
 76
     0
 77
     0
 78
     0
  0
ENDTAB
  0
TABLE
  2
LTYPE
 70
     1
  0
LTYPE
  2
CONTINUOUS
 70
     0
  3
Solid line
 72
    65
 73
     0
 40
0.0
  0
ENDTAB
  0
TABLE
  2
LAYER
 70
     2
  0
LAYER
  2
0
 70
     0
 62
     7
  6
CONTINUOUS
  0
LAYER
  2
DEFPOINTS
 70
     0
 62
     7
  6
CONTINUOUS
  0
ENDTAB
  0
TABLE
  2
STYLE
 70
     1
  0
STYLE
  2
STANDARD
 70
     0
 40
0.0
 41
0.8
 50
0.0
 71
     0
 42
0.2
  3
txt
  4

  0
ENDTAB
  0
TABLE
  2
VIEW
 70
     5
  0
ENDTAB
  0
TABLE
  2
UCS
 70
     0
  0
ENDTAB
  0
TABLE
  2
APPID
 70
     7
  0
APPID
  2
ACAD
 70
     0
  0
APPID
  2
ACAD_MLEADERVER
 70
     0
  0
APPID
  2
ACAD_DSTYLE_DIMJAG
 70
     0
  0
APPID
  2
ACAD_DSTYLE_DIMTALN
 70
     0
  0
APPID
  2
ACAD_NAV_VCDISPLAY
 70
     0
  0
APPID
  2
ACAD_EXEMPT_FROM_CAD_STANDARDS
 70
     0
  0
APPID
  2
ACDBATTR
 70
     0
  0
ENDTAB
  0
TABLE
  2
DIMSTYLE
 70
     1
  0
DIMSTYLE
  2
STANDARD
 70
     0
  3

  4

  5

  6

  7

 40
1.0
 41
0.1875
 42
0.0625
 43
0.38
 44
0.125
 45
0.0
 46
0.0
 47
0.01
 48
0.01
140
0.15625
141
0.09
142
0.0
143
25.399999999999999
144
1.0
145
0.0
146
1.0
147
0.09
 71
     1
 72
     0
 73
     1
 74
     1
 75
     0
 76
     0
 77
     0
 78
     4
170
     1
171
     2
172
     0
173
     0
174
     0
175
     0
176
     0
177
     0
178
     0
  0
ENDTAB
  0
ENDSEC
  0
SECTION
  2
BLOCKS
  0
BLOCK
  8
0
  2
$MODEL_SPACE
 70
     0
 10
0.0
 20
0.0
 30
0.0
  3
$MODEL_SPACE
  1

  0
ENDBLK
  5
21
  8
0
  0
BLOCK
 67
     1
  8
0
  2
$PAPER_SPACE
 70
     0
 10
0.0
 20
0.0
 30
0.0
  3
$PAPER_SPACE
  1

  0
ENDBLK
  5
1D
 67
     1
  8
0
  0
BLOCK
  8
0
  2
*D0
 70
     1
 10
0.0
 20
0.0
 30
0.0
  3
*D0
  1

  0
LINE
  5
E2D
  8
0
 62
     0
 10
4.120570831486801
 20
8.5116742798085632
 30
0.0
 11
15.60938540650463
 21
8.5116742798085632
 31
0.0
  0
LINE
  5
E2E
  8
0
 62
     0
 10
4.120570831503203
 20
0.0116629007560797
 30
0.0
 11
15.60938540650463
 21
0.0116629007560765
 31
0.0
  0
LINE
  5
E2F
  8
0
 62
     0
 10
15.48438540650463
 20
8.3241742798085632
 30
0.0
 11
15.48438540650463
 21
4.42979359028232
 31
0.0
  0
LINE
  5
E30
  8
0
 62
     0
 10
15.48438540650463
 20
0.1991629007560765
 30
0.0
 11
15.48438540650463
 21
4.0935435902823203
 31
0.0
  0
SOLID
  5
E31
  8
0
 62
     0
 10
15.45313540650463
 20
8.3241742798085632
 30
0.0
 11
15.51563540650463
 21
8.3241742798085632
 31
0.0
 12
15.48438540650463
 22
8.5116742798085632
 32
0.0
 13
15.48438540650463
 23
8.5116742798085632
 33
0.0
  0
SOLID
  5
E32
  8
0
 62
     0
 10
15.45313540650463
 20
0.1991629007560765
 30
0.0
 11
15.51563540650463
 21
0.1991629007560765
 31
0.0
 12
15.48438540650463
 22
0.0116629007560765
 32
0.0
 13
15.48438540650463
 23
0.0116629007560765
 33
0.0
  0
INSERT
  5
E33
  8
0
  2
*U1
 10
0.0
 20
0.0
 30
0.0
  0
POINT
  5
E34
  8
DEFPOINTS
 62
     0
 10
4.058070831486801
 20
8.5116742798085632
 30
0.0
  0
POINT
  5
E35
  8
DEFPOINTS
 62
     0
 10
4.058070831503203
 20
0.0116629007560798
 30
0.0
  0
POINT
  5
E36
  8
DEFPOINTS
 62
     0
 10
15.48438540650463
 20
0.0116629007560765
 30
0.0
  0
ENDBLK
  5
E21
  8
0
  0
BLOCK
  8
0
  2
*U1
 70
     1
 10
0.0
 20
0.0
 30
0.0
  3
*U1
  1

  0
TEXT
  5
F54
  8
0
 62
     0
 10
14.317718739837961
 20
4.1835435902823219
 30
0.0
 40
0.15625
  1
8.500±.010 [215.90±0.25]
 41
0.8
  0
ENDBLK
  5
F56
  8
0
  0
ENDSEC
  0
SECTION
  2
ENTITIES
  0
ARC
  5
8FD
  8
0
 10
8.8155674576488678
 20
3.118669974740012
 30
0.0
 40
0.0149956953083709
 50
270.01284637091169
 51
314.1154681713175
  0
ARC
  5
8FF
  8
0
 10
11.5678551794339
 20
0.3177662028659733
 30
0.0
 40
3.9118544779631832
 50
131.8347256030508
 51
134.49987831806331
  0
ARC
  5
900
  8
0
 10
9.0592012478650599
 20
2.8311658208062549
 30
0.0
 40
0.4201549368598224
 50
82.020737863490936
 51
99.410016528715843
  0
ARC
  5
901
  8
0
 10
9.0042116082057966
 20
3.1681862789594502
 30
0.0
 40
0.0786834628680458
 50
100.0309048971625
 51
125.3299617311354
  0
ARC
  5
902
  8
0
 10
9.1047764934926292
 20
3.1504237795914101
 30
0.0
 40
0.0976648122343967
 50
58.572860696435562
 51
82.499640625275504
  0
ARC
  5
904
  8
0
 10
6.6324373816651967
 20
0.4039045635741085
 30
0.0
 40
3.791430627716986
 50
45.4948221841398
 51
48.277971950694251
  0
ARC
  5
905
  8
0
 10
9.3004654598966621
 20
3.1184189213510831
 30
0.0
 40
0.0147435701894664
 50
225.49482218414519
 51
270.40949329004582
  0
LINE
  5
906
  8
0
 10
9.3005708313868016
 20
3.103675727708564
 30
0.0
 11
11.2280708314868
 21
3.1036742798085641
 31
0.0
  0
ARC
  5
907
  8
0
 10
11.2280708314868
 20
3.113674279808559
 30
0.0
 40
0.009999999999994
 50
269.99999635164431
 51
0.0000000000305333
  0
LINE
  5
908
  8
0
 10
11.2380708314868
 20
3.1136742798085639
 30
0.0
 11
11.23807083148653
 21
3.6236742798085642
 31
0.0
  0
ARC
  5
909
  8
0
 10
11.228070831486519
 20
3.6236742798085579
 30
0.0
 40
0.0100000000000051
 50
0.0000000000279889
 51
89.999999998402089
  0
LINE
  5
90A
  8
0
 10
11.2280708314868
 20
3.6336742798085631
 30
0.0
 11
8.0980708314868011
 21
3.6336742798958559
 31
0.0
  0
ARC
  5
90B
  8
0
 10
8.0980708314865222
 20
3.623674279896135
 30
0.0
 40
0.0099999999997209
 50
89.999999998402103
 51
180.0000005017414
  0
LINE
  5
90C
  8
0
 10
8.0880708314868013
 20
3.623674279808565
 30
0.0
 11
8.0880708359528803
 21
3.1136756246085642
 31
0.0
  0
ARC
  5
90D
  8
0
 10
8.0980721809314993
 20
3.1136756246961461
 30
0.0
 40
0.0100013449786189
 50
180.0000005017454
 51
269.99226929115099
  0
LINE
  5
90E
  8
0
 10
8.0980708314868011
 20
3.1036742798085641
 30
0.0
 11
8.8155708198557186
 21
3.1036742798085641
 31
0.0
  0
LINE
  5
90F
  8
0
 10
9.2786699519903841
 20
3.1191208327763551
 30
0.0
 11
9.2815226383066172
 21
2.4625834524873769
 31
0.0
  0
LINE
  5
910
  8
0
 10
9.2815226382868001
 20
2.4625834525085639
 30
0.0
 11
8.8346190246669831
 21
2.4625834524873769
 31
0.0
  0
LINE
  5
911
  8
0
 10
8.8346190246669831
 20
2.4625834524873769
 30
0.0
 11
8.8374817516825814
 21
3.1186679886481512
 31
0.0
  0
ARC
  5
91D
  8
0
 10
9.531520258500775
 20
2.4636742798424098
 30
0.0
 40
0.2500000000338444
 50
180.25000000286741
 51
269.99999999679773
  0
ARC
  5
91E
  8
0
 10
8.5846214044728253
 20
2.4636742798424112
 30
0.0
 40
0.250000000033848
 50
270.00000000320313
 51
359.74999999227668
  0
LINE
  5
91F
  8
0
 10
8.523683281986802
 20
2.213674279808564
 30
0.0
 11
9.5924583808868018
 21
2.213674279808564
 31
0.0
  0
ARC
  5
920
  8
0
 10
9.5924583808868018
 20
2.2036742798085629
 30
0.0
 40
0.0100000000000007
 50
1.000001350253505
 51
89.999999999999915
  0
LINE
  5
921
  8
0
 10
9.6024568578342535
 20
2.2038488041085631
 30
0.0
 11
9.6024568578868017
 21
2.1334997556085642
 31
0.0
  0
ARC
  5
922
  8
0
 10
9.5924583808518147
 20
2.1336742798940911
 30
0.0
 40
0.0100000000855248
 50
270.00000020046139
 51
358.99999931428607
  0
ARC
  5
923
  8
0
 10
8.5236832819504702
 20
2.2036742798973741
 30
0.0
 40
0.0099999999111891
 50
89.999999791833986
 51
178.99999914979509
  0
ARC
  5
925
  8
0
 10
9.5209514342311543
 20
2.1686742805879851
 30
0.0
 40
1.0078806027443521
 50
178.00000012806581
 51
181.9999999492284
  0
ARC
  5
926
  8
0
 10
8.5238609891479733
 20
2.133855115877441
 30
0.0
 40
0.0101823868958343
 50
181.99999994923661
 51
268.99999996306201
  0
LINE
  5
927
  8
0
 10
8.5130708314868002
 20
2.1236742798085642
 30
0.0
 11
9.6030708314868019
 21
2.1236742798085642
 31
0.0
  0
LINE
  5
928
  8
0
 10
9.6030708314868019
 20
2.1236742798085642
 30
0.0
 11
9.6030708314868019
 21
0.4836742798085643
 31
0.0
  0
ARC
  5
929
  8
0
 10
9.5930708314868021
 20
0.4836742798085643
 30
0.0
 40
0.0099999999999998
 50
270.00000326240428
 51
359.99999999999858
  0
LINE
  5
92A
  8
0
 10
9.593070832056199
 20
0.4736742798085643
 30
0.0
 11
8.5229736648868037
 21
0.4736742188775555
 31
0.0
  0
ARC
  5
92B
  8
0
 10
8.5229736643229117
 20
0.483577524375908
 30
0.0
 40
0.0099033054983525
 50
179.4402105302631
 51
270.0000032624045
  0
LINE
  5
92C
  8
0
 10
8.5130708314868002
 20
0.4836742798085643
 30
0.0
 11
8.5130708314868002
 21
2.1236742798085642
 31
0.0
  0
ARC
  5
92D
  8
0
 10
8.5229744738310433
 20
0.4636739262236153
 30
0.0
 40
0.0100008177976517
 50
89.447947904471164
 51
178.513582060597
  0
ARC
  5
92E
  8
0
 10
8.2335615370446398
 20
0.4711838182471963
 30
0.0
 40
0.2795095385931641
 50
270.0019052384099
 51
358.51358206059678
  0
LINE
  5
92F
  8
0
 10
8.0830790129868006
 20
0.1916742798085642
 30
0.0
 11
10.0330708317885
 21
0.1916742798085642
 31
0.0
  0
ARC
  5
930
  8
0
 10
10.0330708317885
 20
0.1766742801102618
 30
0.0
 40
0.0149999996983024
 50
359.9999988475999
 51
89.999999999999943
  0
LINE
  5
931
  8
0
 10
10.0480708314868
 20
0.1766742798085642
 30
0.0
 11
10.04807082846982
 21
0.0266742798085642
 31
0.0
  0
ARC
  5
932
  8
0
 10
10.03307082816813
 20
0.0266742801102619
 30
0.0
 40
0.015000000301697
 50
270.00001884559521
 51
359.99999884759433
  0
LINE
  5
933
  8
0
 10
10.03307083310189
 20
0.0116742798085643
 30
0.0
 11
8.083070829871815
 21
0.0116736384190758
 31
0.0
  0
ARC
  5
934
  8
0
 10
8.0830708249380514
 20
0.0266736318843187
 30
0.0
 40
0.0149999934652437
 50
179.99752511060689
 51
270.00001884559521
  0
LINE
  5
935
  8
0
 10
8.0680708314868017
 20
0.0266742798085642
 30
0.0
 11
8.0680773107320771
 21
0.1766742796686288
 31
0.0
  0
ARC
  5
936
  8
0
 10
8.0830779605047827
 20
0.1766736317160336
 30
0.0
 40
0.0150006497866979
 50
90.027230816635964
 51
179.99752511060939
  0
ARC
  5
93B
  8
0
 10
-0.6994289060945996
 20
3.118669974740012
 30
0.0
 40
0.0149956953083709
 50
225.88453182868261
 51
269.98715362908843
  0
ARC
  5
93C
  8
0
 10
-3.4517166278796299
 20
0.3177662028659733
 30
0.0
 40
3.9118544779631832
 50
45.500121681936719
 51
48.165274396949222
  0
ARC
  5
93D
  8
0
 10
-0.9430626963107915
 20
2.8311658208062549
 30
0.0
 40
0.4201549368598224
 50
80.589983471284185
 51
97.979262136509035
  0
ARC
  5
93E
  8
0
 10
-0.8880730566515283
 20
3.1681862789594502
 30
0.0
 40
0.0786834628680458
 50
54.670038268864538
 51
79.969095102837514
  0
ARC
  5
93F
  8
0
 10
-0.9886379419383626
 20
3.1504237795914101
 30
0.0
 40
0.0976648122343967
 50
97.500359374724496
 51
121.4271393035644
  0
ARC
  5
940
  8
0
 10
1.4837011698890701
 20
0.4039045635741085
 30
0.0
 40
3.791430627716986
 50
131.72202804930569
 51
134.50517781586021
  0
ARC
  5
941
  8
0
 10
-1.1843269083423931
 20
3.1184189213510831
 30
0.0
 40
0.0147435701894664
 50
269.5905067099543
 51
314.50517781585489
  0
LINE
  5
942
  8
0
 10
-1.1844322798325331
 20
3.103675727708564
 30
0.0
 11
-3.1119322799325331
 21
3.1036742798085641
 31
0.0
  0
ARC
  5
943
  8
0
 10
-3.1119322799325349
 20
3.113674279808559
 30
0.0
 40
0.009999999999994
 50
179.99999999996939
 51
270.0000036483558
  0
LINE
  5
944
  8
0
 10
-3.1219322799325311
 20
3.1136742798085639
 30
0.0
 11
-3.1219322799322589
 21
3.6236742798085642
 31
0.0
  0
ARC
  5
945
  8
0
 10
-3.1119322799322542
 20
3.6236742798085579
 30
0.0
 40
0.0100000000000051
 50
90.000000001597897
 51
179.999999999972
  0
LINE
  5
946
  8
0
 10
-3.1119322799325331
 20
3.6336742798085631
 30
0.0
 11
0.0180677200674673
 21
3.6336742798958559
 31
0.0
  0
ARC
  5
947
  8
0
 10
0.0180677200677444
 20
3.623674279896135
 30
0.0
 40
0.0099999999997209
 50
359.9999994982586
 51
90.000000001597897
  0
LINE
  5
948
  8
0
 10
0.0280677200674671
 20
3.623674279808565
 30
0.0
 11
0.028067715601388
 21
3.1136756246085642
 31
0.0
  0
ARC
  5
949
  8
0
 10
0.0180663706227691
 20
3.1136756246961461
 30
0.0
 40
0.0100013449786189
 50
270.00773070884901
 51
359.99999949825462
  0
LINE
  5
94A
  8
0
 10
0.0180677200674673
 20
3.1036742798085641
 30
0.0
 11
-0.6994322683014503
 21
3.1036742798085641
 31
0.0
  0
LINE
  5
94B
  8
0
 10
-1.1625314004361169
 20
3.1191208327763551
 30
0.0
 11
-1.1653840867523499
 21
2.4625834524873769
 31
0.0
  0
LINE
  5
94C
  8
0
 10
-1.1653840867325329
 20
2.4625834525085639
 30
0.0
 11
-0.7184804731127166
 21
2.4625834524873769
 31
0.0
  0
LINE
  5
94D
  8
0
 10
-0.7184804731127166
 20
2.4625834524873769
 30
0.0
 11
-0.7213432001283131
 21
3.1186679886481512
 31
0.0
  0
ARC
  5
94E
  8
0
 10
-1.415381706946506
 20
2.4636742798424098
 30
0.0
 40
0.2500000000338444
 50
270.00000000320227
 51
359.74999999713248
  0
ARC
  5
94F
  8
0
 10
-0.468482852918557
 20
2.4636742798424112
 30
0.0
 40
0.250000000033848
 50
180.2500000077234
 51
269.99999999679687
  0
LINE
  5
950
  8
0
 10
-0.4075447304325337
 20
2.213674279808564
 30
0.0
 11
-1.476319829332533
 21
2.213674279808564
 31
0.0
  0
ARC
  5
951
  8
0
 10
-1.476319829332533
 20
2.2036742798085629
 30
0.0
 40
0.0100000000000007
 50
90.000000000000099
 51
178.99999864974649
  0
LINE
  5
952
  8
0
 10
-1.486318306279985
 20
2.2038488041085631
 30
0.0
 11
-1.4863183063325329
 21
2.1334997556085642
 31
0.0
  0
ARC
  5
953
  8
0
 10
-1.4763198292975459
 20
2.1336742798940911
 30
0.0
 40
0.0100000000855248
 50
181.0000006857139
 51
269.9999997995385
  0
ARC
  5
954
  8
0
 10
-0.4075447303962019
 20
2.2036742798973741
 30
0.0
 40
0.0099999999111891
 50
1.0000008502048561
 51
90.000000208166014
  0
ARC
  5
955
  8
0
 10
-1.4048128826768851
 20
2.1686742805879851
 30
0.0
 40
1.0078806027443521
 50
358.00000005077152
 51
1.999999871934161
  0
ARC
  5
956
  8
0
 10
-0.407722437593705
 20
2.133855115877441
 30
0.0
 40
0.0101823868958343
 50
271.00000003693799
 51
358.00000005076339
  0
LINE
  5
957
  8
0
 10
-0.3969322799325336
 20
2.1236742798085642
 30
0.0
 11
-1.4869322799325331
 21
2.1236742798085642
 31
0.0
  0
LINE
  5
958
  8
0
 10
-1.4869322799325331
 20
2.1236742798085642
 30
0.0
 11
-1.4869322799325331
 21
0.4836742798085643
 31
0.0
  0
ARC
  5
959
  8
0
 10
-1.4769322799325331
 20
0.4836742798085643
 30
0.0
 40
0.0099999999999998
 50
180.00000000000139
 51
269.99999673759572
  0
LINE
  5
95A
  8
0
 10
-1.47693228050193
 20
0.4736742798085643
 30
0.0
 11
-0.4068351133325355
 21
0.4736742188775555
 31
0.0
  0
ARC
  5
95B
  8
0
 10
-0.4068351127686434
 20
0.483577524375908
 30
0.0
 40
0.0099033054983525
 50
269.9999967375955
 51
0.5597894697368618
  0
LINE
  5
95C
  8
0
 10
-0.3969322799325336
 20
0.4836742798085643
 30
0.0
 11
-0.3969322799325336
 21
2.1236742798085642
 31
0.0
  0
ARC
  5
95D
  8
0
 10
-0.406835922276775
 20
0.4636739262236153
 30
0.0
 40
0.0100008177976517
 50
1.486417939403029
 51
90.552052095528865
  0
ARC
  5
95E
  8
0
 10
-0.1174229854903714
 20
0.4711838182471963
 30
0.0
 40
0.2795095385931641
 50
181.4864179394032
 51
269.9980947615901
  0
LINE
  5
95F
  8
0
 10
0.0330595385674677
 20
0.1916742798085642
 30
0.0
 11
-1.916932280234231
 21
0.1916742798085642
 31
0.0
  0
ARC
  5
960
  8
0
 10
-1.916932280234231
 20
0.1766742801102618
 30
0.0
 40
0.0149999996983024
 50
90.000000000000099
 51
180.0000011524001
  0
LINE
  5
961
  8
0
 10
-1.9319322799325329
 20
0.1766742798085642
 30
0.0
 11
-1.931932276915556
 21
0.0266742798085642
 31
0.0
  0
ARC
  5
962
  8
0
 10
-1.916932276613859
 20
0.0266742801102619
 30
0.0
 40
0.015000000301697
 50
180.0000011524057
 51
269.99998115440479
  0
LINE
  5
963
  8
0
 10
-1.9169322815476251
 20
0.0116742798085643
 30
0.0
 11
0.0330677216824533
 21
0.0116736384190758
 31
0.0
  0
ARC
  5
964
  8
0
 10
0.0330677266162169
 20
0.0266736318843187
 30
0.0
 40
0.0149999934652437
 50
269.99998115440479
 51
0.0024748893930784
  0
LINE
  5
965
  8
0
 10
0.0480677200674666
 20
0.0266742798085642
 30
0.0
 11
0.0480612408221894
 21
0.1766742796686288
 31
0.0
  0
ARC
  5
966
  8
0
 10
0.0330605910494857
 20
0.1766736317160336
 30
0.0
 40
0.0150006497866979
 50
0.0024748893905594
 51
89.972769183364065
  0
ARC
  5
96A
  8
0
 10
9.5931671889693995
 20
0.4636739260378057
 30
0.0
 40
0.0100008179817844
 50
1.4864189769107981
 51
90.552051093259692
  0
ARC
  5
96B
  8
0
 10
9.8825801309966863
 20
0.4711838234415778
 30
0.0
 40
0.2795095437877134
 50
181.48641897691101
 51
269.99809372280902
  0
ARC
  5
96C
  8
0
 10
-1.4770263351424591
 20
0.4636742798805214
 30
0.0
 40
0.0099999999280428
 50
89.999999832345324
 51
178.5154874497911
  0
ARC
  5
96D
  8
0
 10
-1.7664291677776429
 20
0.4711742790600753
 30
0.0
 40
0.2794999992515112
 50
269.99999984921578
 51
358.51548744979118
  0
ARC
  5
97D
  8
0
 10
4.0580708314868001
 20
8.1681742798085626
 30
0.0
 40
0.3435000000000024
 50
0.0000000000002963
 51
89.999999999999687
  0
LINE
  5
97E
  8
0
 10
4.4015708314868007
 20
8.1681742798085644
 30
0.0
 11
4.4015708314868229
 21
3.7916742798085639
 31
0.0
  0
ARC
  5
97F
  8
0
 10
4.561570831486824
 20
3.7916742798085652
 30
0.0
 40
0.160000000000001
 50
180.0000000000002
 51
269.99999999999181
  0
LINE
  5
980
  8
0
 10
4.5615708314868009
 20
3.6316742798085642
 30
0.0
 11
4.5880708314868013
 21
3.6316742798085602
 31
0.0
  0
ARC
  5
981
  8
0
 10
4.5880708314867986
 20
3.6166742798085569
 30
0.0
 40
0.0150000000000024
 50
0.0000000000254197
 51
89.999999999992866
  0
LINE
  5
982
  8
0
 10
4.6030708314868001
 20
3.616674279808564
 30
0.0
 11
4.6030708314881972
 21
0.4716742798085641
 31
0.0
  0
ARC
  5
983
  8
0
 10
4.88307083148832
 20
0.4716742798086886
 30
0.0
 40
0.2800000000001237
 50
180.00000000002561
 51
269.99999999968901
  0
LINE
  5
984
  8
0
 10
4.058070831486801
 20
0.1916742798085642
 30
0.0
 11
5.0330708430129896
 21
0.1916742798085598
 31
0.0
  0
ARC
  5
985
  8
0
 10
5.0330708430129896
 20
0.1766742913347445
 30
0.0
 40
0.0149999884738153
 50
359.9999559732006
 51
89.999999999999687
  0
LINE
  5
986
  8
0
 10
5.0480708314868012
 20
0.1766742798085642
 30
0.0
 11
5.0480707162249088
 21
0.0266742798086085
 31
0.0
  0
ARC
  5
987
  8
0
 10
5.0330707046977272
 20
0.0266742913348065
 30
0.0
 40
0.0150000115271869
 50
270.0006686888762
 51
359.99995597320321
  0
LINE
  5
988
  8
0
 10
5.0330708797602002
 20
0.0116742798086419
 30
0.0
 11
4.058070831503203
 21
0.0116629007560798
 31
0.0
  0
LINE
  5
989
  8
0
 10
4.058070831486801
 20
3.6316742798085642
 30
0.0
 11
4.5615708314867769
 21
3.6316742798085642
 31
0.0
  0
LINE
  5
998
  8
0
 10
4.058070831486801
 20
6.5191742798085643
 30
0.0
 11
4.4015697879868023
 21
6.5191742798085643
 31
0.0
  0
ARC
  5
999
  8
0
 10
4.3958208314868026
 20
6.5141742798085662
 30
0.0
 40
0.0049999999999981
 50
359.99999999997971
 51
90.000000000020364
  0
LINE
  5
99A
  8
0
 10
4.4008208314868007
 20
6.5141742798085636
 30
0.0
 11
4.4008208314865582
 21
5.829174279808564
 31
0.0
  0
ARC
  5
99B
  8
0
 10
4.3908208314848656
 20
5.8291742798085684
 30
0.0
 40
0.0100000000016918
 50
269.99894748761858
 51
359.9999999999813
  0
LINE
  5
99C
  8
0
 10
4.3908206477868008
 20
5.8191742798085642
 30
0.0
 11
4.0580708315429446
 21
5.8191803923582928
 31
0.0
  0
ARC
  5
99D
  8
0
 10
4.0580708314868001
 20
8.1681742798085626
 30
0.0
 40
0.3435000000000024
 50
90.000000000000298
 51
179.99999999999969
  0
LINE
  5
99E
  8
0
 10
3.7145708314867978
 20
8.1681742798085644
 30
0.0
 11
3.714570831486776
 21
3.7916742798085639
 31
0.0
  0
ARC
  5
99F
  8
0
 10
3.554570831486775
 20
3.7916742798085652
 30
0.0
 40
0.160000000000001
 50
270.00000000000819
 51
359.99999999999977
  0
LINE
  5
9A0
  8
0
 10
3.5545708314867981
 20
3.6316742798085642
 30
0.0
 11
3.528070831486799
 21
3.6316742798085602
 31
0.0
  0
ARC
  5
9A1
  8
0
 10
3.5280708314867999
 20
3.6166742798085569
 30
0.0
 40
0.0150000000000024
 50
90.000000000007134
 51
179.99999999997459
  0
LINE
  5
9A2
  8
0
 10
3.5130708314867989
 20
3.616674279808564
 30
0.0
 11
3.5130708314854031
 21
0.4716742798085641
 31
0.0
  0
ARC
  5
9A3
  8
0
 10
3.233070831485279
 20
0.4716742798086886
 30
0.0
 40
0.2800000000001237
 50
270.0000000003111
 51
359.99999999997442
  0
LINE
  5
9A4
  8
0
 10
4.0580708314867984
 20
0.1916742798085642
 30
0.0
 11
3.0830708199606089
 21
0.1916742798085598
 31
0.0
  0
ARC
  5
9A5
  8
0
 10
3.0830708199606089
 20
0.1766742913347445
 30
0.0
 40
0.0149999884738153
 50
90.000000000000298
 51
180.00004402679949
  0
LINE
  5
9A6
  8
0
 10
3.068070831486799
 20
0.1766742798085642
 30
0.0
 11
3.0680709467486902
 21
0.0266742798086085
 31
0.0
  0
ARC
  5
9A7
  8
0
 10
3.0830709582758731
 20
0.0266742913348065
 30
0.0
 40
0.0150000115271869
 50
180.00004402679679
 51
269.99933131112368
  0
LINE
  5
9A8
  8
0
 10
3.0830707832134001
 20
0.0116742798086419
 30
0.0
 11
4.0580708314703973
 21
0.0116629007560798
 31
0.0
  0
LINE
  5
9A9
  8
0
 10
4.0580708314867984
 20
3.6316742798085642
 30
0.0
 11
3.5545708314868221
 21
3.6316742798085642
 31
0.0
  0
LINE
  5
9AA
  8
0
 10
4.0580708314867984
 20
6.5191742798085643
 30
0.0
 11
3.7145718749867971
 21
6.5191742798085643
 31
0.0
  0
ARC
  5
9AB
  8
0
 10
3.7203208314867959
 20
6.5141742798085662
 30
0.0
 40
0.0049999999999981
 50
89.999999999979664
 51
180.00000000002041
  0
LINE
  5
9AC
  8
0
 10
3.7153208314867978
 20
6.5141742798085636
 30
0.0
 11
3.7153208314870421
 21
5.829174279808564
 31
0.0
  0
ARC
  5
9AD
  8
0
 10
3.7253208314887329
 20
5.8291742798085684
 30
0.0
 40
0.0100000000016918
 50
180.0000000000187
 51
270.00105251238142
  0
LINE
  5
9AE
  8
0
 10
3.7253210151867981
 20
5.8191742798085642
 30
0.0
 11
4.0580708314306539
 21
5.8191803923582928
 31
0.0
  0
ATTDEF
  5
AA0
  8
DEFPOINTS
 10
4.0535858633022448
 20
0.0006239909622749
 30
0.0
 40
0.001
  1
METAL
  3

  2
MATERIAL
 70
     0
1001
ACDBATTR
1070
     0
1070
     1
  0
ATTDEF
  5
AA1
  8
DEFPOINTS
 10
4.0535858633022448
 20
0.0022906576289401
 30
0.0
 40
0.001
  1
BATHROOM SINK FAUCET
  3

  2
PRODUCT
 70
     0
1001
ACDBATTR
1070
     0
1070
     1
  0
ATTDEF
  5
AA2
  8
DEFPOINTS
 10
4.0535858633022448
 20
0.0039573242956052
 30
0.0
 40
0.001
  1
PURIST
  3

  2
TRADENAME
 70
     0
1001
ACDBATTR
1070
     0
1070
     1
  0
ATTDEF
  5
AA3
  8
DEFPOINTS
 10
4.0535858633022448
 20
0.0056239909622704
 30
0.0
 40
0.001
  1
K-14406-4
  3

  2
MODELNUMBER
 70
     0
1001
ACDBATTR
1070
     0
1070
     1
  0
ENDSEC
  0
EOF
