  0
SECTION
  2
HEADER
  9
$ACADVER
  1
AC1009
  9
$INSBASE
 10
5.7520989403499989
 20
10.07578834325
 30
0.0
  9
$EXTMIN
 10
1.628083192299999
 20
9.1311089279194917
 30
0.0
  9
$EXTMAX
 10
9.8170595702999996
 20
11.02046775868051
 30
0.0
  9
$LIMMIN
 10
0.0
 20
0.0
  9
$LIMMAX
 10
11.692913385800001
 20
8.2677165353999982
  9
$ORTHOMODE
 70
     0
  9
$REGENMODE
 70
     1
  9
$FILLMODE
 70
     1
  9
$QTEXTMODE
 70
     0
  9
$MIRRTEXT
 70
     0
  9
$DRAGMODE
 70
     2
  9
$LTSCALE
 40
0.6431102362
  9
$OSMODE
 70
    39
  9
$ATTMODE
 70
     1
  9
$TEXTSIZE
 40
0.2
  9
$TRACEWID
 40
0.05
  9
$TEXTSTYLE
  7
STANDARD
  9
$CLAYER
  8
0
  9
$CELTYPE
  6
BYLAYER
  9
$CECOLOR
 62
   256
  9
$DIMSCALE
 40
1.0
  9
$DIMASZ
 40
0.1875
  9
$DIMEXO
 40
0.0625
  9
$DIMDLI
 40
0.4443307087
  9
$DIMRND
 40
0.0
  9
$DIMDLE
 40
0.0
  9
$DIMEXE
 40
0.125
  9
$DIMTP
 40
0.0
  9
$DIMTM
 40
0.0
  9
$DIMTXT
 40
0.15625
  9
$DIMCEN
 40
0.1052362205
  9
$DIMTSZ
 40
0.0
  9
$DIMTOL
 70
     0
  9
$DIMLIM
 70
     0
  9
$DIMTIH
 70
     1
  9
$DIMTOH
 70
     1
  9
$DIMSE1
 70
     0
  9
$DIMSE2
 70
     0
  9
$DIMTAD
 70
     0
  9
$DIMZIN
 70
     0
  9
$DIMBLK
  1

  9
$DIMASO
 70
     1
  9
$DIMSHO
 70
     1
  9
$DIMPOST
  1

  9
$DIMAPOST
  1

  9
$DIMALT
 70
     0
  9
$DIMALTD
 70
     2
  9
$DIMALTF
 40
25.399999999999999
  9
$DIMLFAC
 40
1.0
  9
$DIMTOFL
 70
     0
  9
$DIMTVP
 40
0.0
  9
$DIMTIX
 70
     0
  9
$DIMSOXD
 70
     0
  9
$DIMSAH
 70
     0
  9
$DIMBLK1
  1

  9
$DIMBLK2
  1

  9
$DIMSTYLE
  2
STANDARD
  9
$DIMCLRD
 70
     0
  9
$DIMCLRE
 70
     0
  9
$DIMCLRT
 70
     0
  9
$DIMTFAC
 40
1.0
  9
$DIMGAP
 40
0.09
  9
$LUNITS
 70
     2
  9
$LUPREC
 70
     4
  9
$SKETCHINC
 40
0.1
  9
$FILLETRAD
 40
0.0
  9
$AUNITS
 70
     0
  9
$AUPREC
 70
     0
  9
$MENU
  1
.
  9
$ELEVATION
 40
0.0
  9
$PELEVATION
 40
0.0
  9
$THICKNESS
 40
0.0
  9
$LIMCHECK
 70
     0
  9
$BLIPMODE
 70
     0
  9
$CHAMFERA
 40
0.0
  9
$CHAMFERB
 40
0.0
  9
$SKPOLY
 70
     0
  9
$TDCREATE
 40
2457470.4248351972
  9
$TDUPDATE
 40
2457470.5007062969
  9
$TDINDWG
 40
0.0697695602
  9
$TDUSRTIMER
 40
0.0697695602
  9
$USRTIMER
 70
     1
  9
$ANGBASE
 50
0.0
  9
$ANGDIR
 70
     0
  9
$PDMODE
 70
     0
  9
$PDSIZE
 40
0.3125
  9
$PLINEWID
 40
0.0
  9
$COORDS
 70
     1
  9
$SPLFRAME
 70
     0
  9
$SPLINETYPE
 70
     6
  9
$SPLINESEGS
 70
     8
  9
$ATTDIA
 70
     1
  9
$ATTREQ
 70
     1
  9
$HANDLING
 70
     1
  9
$HANDSEED
  5
476
  9
$SURFTAB1
 70
     6
  9
$SURFTAB2
 70
     6
  9
$SURFTYPE
 70
     6
  9
$SURFU
 70
     6
  9
$SURFV
 70
     6
  9
$UCSNAME
  2

  9
$UCSORG
 10
0.0
 20
0.0
 30
0.0
  9
$UCSXDIR
 10
1.0
 20
0.0
 30
0.0
  9
$UCSYDIR
 10
0.0
 20
1.0
 30
0.0
  9
$PUCSNAME
  2

  9
$PUCSORG
 10
0.0
 20
0.0
 30
0.0
  9
$PUCSXDIR
 10
1.0
 20
0.0
 30
0.0
  9
$PUCSYDIR
 10
0.0
 20
1.0
 30
0.0
  9
$USERI1
 70
     0
  9
$USERI2
 70
     0
  9
$USERI3
 70
     0
  9
$USERI4
 70
     0
  9
$USERI5
 70
     0
  9
$USERR1
 40
0.0
  9
$USERR2
 40
0.0
  9
$USERR3
 40
0.0
  9
$USERR4
 40
0.0
  9
$USERR5
 40
0.0
  9
$WORLDVIEW
 70
     1
  9
$SHADEDGE
 70
     3
  9
$SHADEDIF
 70
    70
  9
$TILEMODE
 70
     1
  9
$MAXACTVP
 70
    48
  9
$PLIMCHECK
 70
     0
  9
$PEXTMIN
 10
1.0000000000000000E+020
 20
1.0000000000000000E+020
 30
1.0000000000000000E+020
  9
$PEXTMAX
 10
-1.0000000000000000E+020
 20
-1.0000000000000000E+020
 30
-1.0000000000000000E+020
  9
$PLIMMIN
 10
0.0
 20
0.0
  9
$PLIMMAX
 10
12.0
 20
9.0
  9
$UNITMODE
 70
     0
  9
$VISRETAIN
 70
     1
  9
$PLINEGEN
 70
     0
  9
$PSLTSCALE
 70
     1
  0
ENDSEC
  0
SECTION
  2
TABLES
  0
TABLE
  2
VPORT
 70
     1
  0
VPORT
  2
*ACTIVE
 70
     0
 10
0.0
 20
0.0
 11
1.0
 21
1.0
 12
6.6102210633712764
 22
9.3681503184464425
 13
0.0
 23
0.0
 14
1.0
 24
1.0
 15
0.0
 25
0.0
 16
0.0
 26
0.0
 36
1.0
 17
0.0
 27
0.0
 37
0.0
 40
6.3925929055195851
 41
1.910633484162896
 42
50.0
 43
0.0
 44
0.0
 50
0.0
 51
0.0
 71
     0
 72
   100
 73
     1
 74
     1
 75
     0
 76
     0
 77
     0
 78
     0
  0
ENDTAB
  0
TABLE
  2
LTYPE
 70
     2
  0
LTYPE
  2
CONTINUOUS
 70
     0
  3
Solid line
 72
    65
 73
     0
 40
0.0
  0
ENDTAB
  0
TABLE
  2
LAYER
 70
     3
  0
LAYER
  2
0
 70
     0
 62
     7
  6
CONTINUOUS
  0
LAYER
  2
DEFPOINTS
 70
     0
 62
     7
  6
CONTINUOUS
  0
ENDTAB
  0
TABLE
  2
STYLE
 70
     1
  0
STYLE
  2
STANDARD
 70
     0
 40
0.0
 41
0.8
 50
0.0
 71
     0
 42
0.2
  3
txt
  4

  0
ENDTAB
  0
TABLE
  2
VIEW
 70
     4
  0
ENDTAB
  0
TABLE
  2
UCS
 70
     0
  0
ENDTAB
  0
TABLE
  2
APPID
 70
     5
  0
APPID
  2
ACAD
 70
     0
  0
APPID
  2
ACAD_MLEADERVER
 70
     0
  0
APPID
  2
ACAD_NAV_VCDISPLAY
 70
     0
  0
APPID
  2
ACAD_EXEMPT_FROM_CAD_STANDARDS
 70
     0
  0
APPID
  2
AcDbAttr
 70
     0
  0
ENDTAB
  0
TABLE
  2
DIMSTYLE
 70
     2
  0
DIMSTYLE
  2
STANDARD
 70
     0
  3

  4

  5

  6

  7

 40
1.0
 41
0.1875
 42
0.0625
 43
0.38
 44
0.125
 45
0.0
 46
0.0
 47
1.5
 48
1.5
140
0.15625
141
0.09
142
0.0
143
25.399999999999999
144
1.0
145
0.0
146
1.0
147
0.09
 71
     0
 72
     0
 73
     1
 74
     1
 75
     0
 76
     0
 77
     0
 78
     4
170
     0
171
     2
172
     0
173
     0
174
     0
175
     0
176
     0
177
     0
178
     0
  0
ENDTAB
  0
ENDSEC
  0
SECTION
  2
BLOCKS
  0
BLOCK
  8
0
  2
$MODEL_SPACE
 70
     0
 10
0.0
 20
0.0
 30
0.0
  3
$MODEL_SPACE
  1

  0
ENDBLK
  5
21
  8
0
  0
BLOCK
 67
     1
  8
0
  2
$PAPER_SPACE
 70
     0
 10
0.0
 20
0.0
 30
0.0
  3
$PAPER_SPACE
  1

  0
ENDBLK
  5
1D
 67
     1
  8
0
  0
ENDSEC
  0
SECTION
  2
ENTITIES
  0
LINE
  5
21C
  8
0
 10
2.021783979799999
 20
10.5757819493
 30
0.0
 11
2.021783979799999
 21
9.5757947372000007
 31
0.0
  0
LINE
  5
21D
  8
0
 10
3.478476893099999
 20
9.5757947372000007
 30
0.0
 11
3.478476893099999
 21
10.5757819493
 31
0.0
  0
LINE
  5
21F
  8
0
 10
9.3013115388000003
 20
9.5757883433000011
 30
0.0
 11
9.0690290089999994
 21
9.5757883433000011
 31
0.0
  0
LINE
  5
220
  8
0
 10
8.6753263327999992
 20
9.5757883433000011
 30
0.0
 11
8.4430438222999982
 21
9.5757883433000011
 31
0.0
  0
LINE
  5
221
  8
0
 10
3.478476893099999
 20
9.5757883433000011
 30
0.0
 11
2.021783979799999
 21
9.5757883433000011
 31
0.0
  0
LINE
  5
222
  8
0
 10
8.0257209875999997
 20
9.5757883433000011
 30
0.0
 11
8.4391068144000005
 21
9.5757883433000011
 31
0.0
  0
LINE
  5
223
  8
0
 10
9.3052485466999997
 20
9.5757883433000011
 30
0.0
 11
9.482413901000001
 21
9.5757883433000011
 31
0.0
  0
LINE
  5
225
  8
0
 10
9.2265083891999993
 20
9.6372403018000004
 30
0.0
 11
8.5178469718999992
 21
9.6372403018000004
 31
0.0
  0
LINE
  5
226
  8
0
 10
3.478476893099999
 20
9.7017725951999996
 30
0.0
 11
8.0257209875999997
 21
9.7017725951999996
 31
0.0
  0
LINE
  5
228
  8
0
 10
3.478476893099999
 20
10.449804091300001
 30
0.0
 11
8.0257209875999997
 21
10.449804091300001
 31
0.0
  0
LINE
  5
229
  8
0
 10
3.478476893099999
 20
10.575788343299999
 30
0.0
 11
2.021783979799999
 21
10.575788343299999
 31
0.0
  0
LINE
  5
22A
  8
0
 10
8.0257209875999997
 20
10.575788343299999
 30
0.0
 11
9.482413901000001
 21
10.575788343299999
 31
0.0
  0
LINE
  5
22E
  8
0
 10
8.0257209875999997
 20
10.5757819493
 30
0.0
 11
8.0257209875999997
 21
9.5757947372000007
 31
0.0
  0
LINE
  5
22F
  8
0
 10
8.4391068144000005
 20
9.5757908453000002
 30
0.0
 11
8.4391068144000005
 21
9.6025606519000011
 31
0.0
  0
LINE
  5
235
  8
0
 10
9.3052485466999997
 20
9.6025606519000011
 30
0.0
 11
9.3052485466999997
 21
9.5757910126999999
 31
0.0
  0
LINE
  5
237
  8
0
 10
9.482413901000001
 20
9.5757947372000007
 30
0.0
 11
9.482413901000001
 21
10.5757819493
 31
0.0
  0
ARC
  5
272
  8
0
 10
8.8721776805000001
 20
10.075788343299999
 30
0.0
 40
0.9448818898
 50
211.97692618630001
 51
148.02307381369999
  0
ARC
  5
274
  8
0
 10
2.5729650821000001
 20
10.075788343299999
 30
0.0
 40
0.9448818898
 50
31.976926186299998
 51
328.02307381370002
  0
ARC
  5
38A
  8
0
 10
8.8720891571818186
 20
9.1131473298142716
 30
0.0
 40
0.5027447825863672
 50
67.235794515407747
 51
113.04021738963669
  0
ARC
  5
38B
  8
0
 10
9.2268877461897763
 20
9.5005593055038364
 30
0.0
 40
0.1366815227462647
 50
74.912821000647313
 51
90.159023560114662
  0
ARC
  5
38C
  8
0
 10
9.240573186619212
 20
9.5420964658157761
 30
0.0
 40
0.0930529796378464
 50
54.609907626853577
 51
76.579571244922732
  0
ARC
  5
38D
  8
0
 10
9.282263271246407
 20
9.5979340480459836
 30
0.0
 40
0.0234462865055347
 50
11.38073867847822
 51
58.643231002034717
  0
ARC
  5
391
  8
0
 10
8.5204127733683972
 20
9.4837405662652543
 30
0.0
 40
0.1535211781690468
 50
90.957629701165288
 51
109.1400236293225
  0
ARC
  5
392
  8
0
 10
8.492432957227507
 20
9.5646573661765721
 30
0.0
 40
0.067903557187751
 50
109.2224916649205
 51
138.636727999746
  0
LINE
  5
393
  8
0
 10
8.4414689722999672
 20
9.6095301342999626
 30
0.0
 11
8.4391068144000005
 21
9.6025606519000011
 31
0.0
  0
ATTDEF
  5
3BE
  8
DEFPOINTS
 10
5.7486391777186077
 20
10.07879340158577
 30
0.0
 40
0.001
  1
BRASS
  3

  2
MATERIAL
 70
     0
1001
AcDbAttr
1070
     0
1070
     1
  0
ATTDEF
  5
3BF
  8
DEFPOINTS
 10
5.7486391777186077
 20
10.08046006825243
 30
0.0
 40
0.001
  1
TOILET TISSUE HOLDER
  3

  2
PRODUCT
 70
     0
1001
AcDbAttr
1070
     0
1070
     1
  0
ATTDEF
  5
3C0
  8
DEFPOINTS
 10
5.7486391777186077
 20
10.0821267349191
 30
0.0
 40
0.001
  1
STILLNESS
  3

  2
TRADENAME
 70
     0
1001
AcDbAttr
1070
     0
1070
     1
  0
ATTDEF
  5
3C1
  8
DEFPOINTS
 10
5.7486391777186077
 20
10.083793401585771
 30
0.0
 40
0.001
  1
K-14393
  3

  2
MODELNUMBER
 70
     0
1001
AcDbAttr
1070
     0
1070
     1
  0
ENDSEC
  0
EOF
