  0
SECTION
  2
HEADER
  9
$ACADVER
  1
AC1009
  9
$INSBASE
 10
0.0
 20
0.0
 30
0.0
  9
$EXTMIN
 10
-1.187686401917488
 20
-0.0058280796349663
 30
-0.0015258207003583
  9
$EXTMAX
 10
1.9792207479478341
 20
6.8760387000483263
 30
0.0000000349246037
  9
$LIMMIN
 10
0.0
 20
0.0
  9
$LIMMAX
 10
12.0
 20
9.0
  9
$ORTHOMODE
 70
     0
  9
$REGENMODE
 70
     1
  9
$FILLMODE
 70
     1
  9
$QTEXTMODE
 70
     0
  9
$MIRRTEXT
 70
     1
  9
$DRAGMODE
 70
     2
  9
$LTSCALE
 40
1.0
  9
$OSMODE
 70
    37
  9
$ATTMODE
 70
     1
  9
$TEXTSIZE
 40
0.001
  9
$TRACEWID
 40
0.05
  9
$TEXTSTYLE
  7
STANDARD
  9
$CLAYER
  8
0
  9
$CELTYPE
  6
BYLAYER
  9
$CECOLOR
 62
   256
  9
$DIMSCALE
 40
1.0
  9
$DIMASZ
 40
0.18
  9
$DIMEXO
 40
0.0625
  9
$DIMDLI
 40
0.38
  9
$DIMRND
 40
0.0
  9
$DIMDLE
 40
0.0
  9
$DIMEXE
 40
0.18
  9
$DIMTP
 40
0.0
  9
$DIMTM
 40
0.0
  9
$DIMTXT
 40
0.18
  9
$DIMCEN
 40
0.09
  9
$DIMTSZ
 40
0.0
  9
$DIMTOL
 70
     0
  9
$DIMLIM
 70
     0
  9
$DIMTIH
 70
     1
  9
$DIMTOH
 70
     1
  9
$DIMSE1
 70
     0
  9
$DIMSE2
 70
     0
  9
$DIMTAD
 70
     0
  9
$DIMZIN
 70
     0
  9
$DIMBLK
  1

  9
$DIMASO
 70
     1
  9
$DIMSHO
 70
     1
  9
$DIMPOST
  1

  9
$DIMAPOST
  1

  9
$DIMALT
 70
     0
  9
$DIMALTD
 70
     2
  9
$DIMALTF
 40
25.399999999999999
  9
$DIMLFAC
 40
1.0
  9
$DIMTOFL
 70
     0
  9
$DIMTVP
 40
0.0
  9
$DIMTIX
 70
     0
  9
$DIMSOXD
 70
     0
  9
$DIMSAH
 70
     0
  9
$DIMBLK1
  1

  9
$DIMBLK2
  1

  9
$DIMSTYLE
  2
STANDARD
  9
$DIMCLRD
 70
     0
  9
$DIMCLRE
 70
     0
  9
$DIMCLRT
 70
     0
  9
$DIMTFAC
 40
1.0
  9
$DIMGAP
 40
0.09
  9
$LUNITS
 70
     2
  9
$LUPREC
 70
     4
  9
$SKETCHINC
 40
0.1
  9
$FILLETRAD
 40
0.0
  9
$AUNITS
 70
     0
  9
$AUPREC
 70
     0
  9
$MENU
  1
.
  9
$ELEVATION
 40
0.0
  9
$PELEVATION
 40
0.0
  9
$THICKNESS
 40
0.0
  9
$LIMCHECK
 70
     0
  9
$BLIPMODE
 70
     0
  9
$CHAMFERA
 40
0.5
  9
$CHAMFERB
 40
0.5
  9
$SKPOLY
 70
     0
  9
$TDCREATE
 40
2451380.5970990621
  9
$TDUPDATE
 40
2456485.5718134949
  9
$TDINDWG
 40
0.9268904861
  9
$TDUSRTIMER
 40
0.9268814468
  9
$USRTIMER
 70
     1
  9
$ANGBASE
 50
0.0
  9
$ANGDIR
 70
     0
  9
$PDMODE
 70
     0
  9
$PDSIZE
 40
0.0
  9
$PLINEWID
 40
0.0
  9
$COORDS
 70
     1
  9
$SPLFRAME
 70
     0
  9
$SPLINETYPE
 70
     6
  9
$SPLINESEGS
 70
     8
  9
$ATTDIA
 70
     0
  9
$ATTREQ
 70
     1
  9
$HANDLING
 70
     1
  9
$HANDSEED
  5
DCF
  9
$SURFTAB1
 70
     6
  9
$SURFTAB2
 70
     6
  9
$SURFTYPE
 70
     6
  9
$SURFU
 70
     6
  9
$SURFV
 70
     6
  9
$UCSNAME
  2

  9
$UCSORG
 10
0.0
 20
0.0
 30
0.0
  9
$UCSXDIR
 10
1.0
 20
0.0
 30
0.0
  9
$UCSYDIR
 10
0.0
 20
1.0
 30
0.0
  9
$PUCSNAME
  2

  9
$PUCSORG
 10
0.0
 20
0.0
 30
0.0
  9
$PUCSXDIR
 10
1.0
 20
0.0
 30
0.0
  9
$PUCSYDIR
 10
0.0
 20
1.0
 30
0.0
  9
$USERI1
 70
     0
  9
$USERI2
 70
     0
  9
$USERI3
 70
     0
  9
$USERI4
 70
     0
  9
$USERI5
 70
     0
  9
$USERR1
 40
0.0
  9
$USERR2
 40
0.0
  9
$USERR3
 40
0.0
  9
$USERR4
 40
0.0
  9
$USERR5
 40
0.0
  9
$WORLDVIEW
 70
     1
  9
$SHADEDGE
 70
     3
  9
$SHADEDIF
 70
    70
  9
$TILEMODE
 70
     1
  9
$MAXACTVP
 70
    64
  9
$PLIMCHECK
 70
     0
  9
$PEXTMIN
 10
1.0000000000000000E+020
 20
1.0000000000000000E+020
 30
1.0000000000000000E+020
  9
$PEXTMAX
 10
-1.0000000000000000E+020
 20
-1.0000000000000000E+020
 30
-1.0000000000000000E+020
  9
$PLIMMIN
 10
0.0
 20
0.0
  9
$PLIMMAX
 10
12.0
 20
9.0
  9
$UNITMODE
 70
     0
  9
$VISRETAIN
 70
     1
  9
$PLINEGEN
 70
     0
  9
$PSLTSCALE
 70
     1
  0
ENDSEC
  0
SECTION
  2
TABLES
  0
TABLE
  2
VPORT
 70
     1
  0
VPORT
  2
*ACTIVE
 70
     0
 10
0.0
 20
0.0
 11
1.0
 21
1.0
 12
0.3957671730151722
 22
3.4351053102066791
 13
0.0
 23
0.0
 14
0.5
 24
0.5
 15
0.5
 25
0.5
 16
0.0
 26
0.0
 36
1.0
 17
0.0
 27
0.0
 37
0.0
 40
6.9252398896392791
 41
1.9926393270241849
 42
50.0
 43
0.0
 44
0.0
 50
0.0
 51
0.0
 71
     0
 72
  5500
 73
     1
 74
     1
 75
     0
 76
     0
 77
     0
 78
     0
  0
ENDTAB
  0
TABLE
  2
LTYPE
 70
     2
  0
LTYPE
  2
CONTINUOUS
 70
     0
  3
Solid line
 72
    65
 73
     0
 40
0.0
  0
LTYPE
  2
PHANTOM2
 70
     0
  3
Phantom (.5x) ___ _ _ ___ _ _ ___ _ _ ___ _ _
 72
    65
 73
     6
 40
1.25
 49
0.625
 49
-0.125
 49
0.125
 49
-0.125
 49
0.125
 49
-0.125
  0
ENDTAB
  0
TABLE
  2
LAYER
 70
     2
  0
LAYER
  2
0
 70
     0
 62
     7
  6
CONTINUOUS
  0
LAYER
  2
DEFPOINTS
 70
     0
 62
     7
  6
CONTINUOUS
  0
ENDTAB
  0
TABLE
  2
STYLE
 70
     1
  0
STYLE
  2
STANDARD
 70
     0
 40
0.0
 41
1.0
 50
0.0
 71
     0
 42
0.001
  3
txt
  4

  0
ENDTAB
  0
TABLE
  2
VIEW
 70
     0
  0
ENDTAB
  0
TABLE
  2
UCS
 70
     0
  0
ENDTAB
  0
TABLE
  2
APPID
 70
     4
  0
APPID
  2
ACAD
 70
     0
  0
APPID
  2
ACAD_NAV_VCDISPLAY
 70
     0
  0
APPID
  2
AcDbAttr
 70
     0
  0
APPID
  2
ACAD_MLEADERVER
 70
     0
  0
ENDTAB
  0
TABLE
  2
DIMSTYLE
 70
     1
  0
DIMSTYLE
  2
STANDARD
 70
     0
  3

  4

  5

  6

  7

 40
1.0
 41
0.18
 42
0.0625
 43
0.38
 44
0.18
 45
0.0
 46
0.0
 47
0.0
 48
0.0
140
0.18
141
0.09
142
0.0
143
25.399999999999999
144
1.0
145
0.0
146
1.0
147
0.09
 71
     0
 72
     0
 73
     1
 74
     1
 75
     0
 76
     0
 77
     0
 78
     0
170
     0
171
     2
172
     0
173
     0
174
     0
175
     0
176
     0
177
     0
178
     0
  0
ENDTAB
  0
ENDSEC
  0
SECTION
  2
BLOCKS
  0
BLOCK
  8
0
  2
$MODEL_SPACE
 70
     2
 10
0.0
 20
0.0
 30
0.0
  3
$MODEL_SPACE
  1

  0
ENDBLK
  5
16
  8
0
  0
BLOCK
 67
     1
  8
0
  2
$PAPER_SPACE
 70
     0
 10
0.0
 20
0.0
 30
0.0
  3
$PAPER_SPACE
  1

  0
ENDBLK
  5
1D
 67
     1
  8
0
  0
ENDSEC
  0
SECTION
  2
ENTITIES
  0
POLYLINE
  5
70
  8
0
 66
     1
 10
0.0
 20
0.0
 30
0.0
  0
VERTEX
  5
71
  8
0
 10
-1.1677130269545151
 20
0.0
 30
0.0
  0
VERTEX
  5
72
  8
0
 10
1.167706208530489
 20
0.0
 30
0.0
  0
SEQEND
  5
73
  8
0
  0
POLYLINE
  5
74
  8
0
 66
     1
 10
0.0
 20
0.0
 30
0.0
  0
VERTEX
  5
75
  8
0
 10
-1.1677130269545151
 20
0.1187496683519384
 30
0.0
  0
VERTEX
  5
76
  8
0
 10
1.16771302695497
 20
0.1187496683519384
 30
0.0
  0
SEQEND
  5
77
  8
0
  0
POLYLINE
  5
78
  8
0
 66
     1
 10
0.0
 20
0.0
 30
0.0
  0
VERTEX
  5
79
  8
0
 10
-1.1875000927307151
 20
5.1052129342239141
 30
0.0
  0
VERTEX
  5
7A
  8
0
 10
-1.1875000927307151
 20
5.0260510342717453
 30
0.0
  0
SEQEND
  5
7B
  8
0
  0
POLYLINE
  5
7C
  8
0
 66
     1
 10
0.0
 20
0.0
 30
0.0
  0
VERTEX
  5
7D
  8
0
 10
-1.1875000927307151
 20
4.9864632658719747
 30
0.0
  0
VERTEX
  5
7E
  8
0
 10
-1.1875000927307151
 20
0.1385503709755085
 30
0.0
  0
SEQEND
  5
7F
  8
0
  0
POLYLINE
  5
80
  8
0
 66
     1
 10
0.0
 20
0.0
 30
0.0
  0
VERTEX
  5
81
  8
0
 10
-1.1875000927307151
 20
0.0989626025757389
 30
0.0
  0
VERTEX
  5
82
  8
0
 10
-1.1875000927307151
 20
0.0198007026236837
 30
0.0
  0
SEQEND
  5
83
  8
0
  0
POLYLINE
  5
84
  8
0
 66
     1
 10
0.0
 20
0.0
 30
0.0
  0
VERTEX
  5
85
  8
0
 10
-0.5937517509714781
 20
5.6176290500240489
 30
0.0
  0
VERTEX
  5
86
  8
0
 10
-0.5937517509714781
 20
5.1250068184236852
 30
0.0
  0
SEQEND
  5
87
  8
0
  0
POLYLINE
  5
88
  8
0
 66
     1
 10
0.0
 20
0.0
 30
0.0
  0
VERTEX
  5
89
  8
0
 10
-0.3958333642435718
 20
6.8552061158000006
 30
0.0
  0
VERTEX
  5
8A
  8
0
 10
-0.3958333642435718
 20
5.9726476942047384
 30
0.0
  0
SEQEND
  5
8B
  8
0
  0
POLYLINE
  5
8C
  8
0
 66
     1
 10
0.0
 20
0.0
 30
0.0
  0
VERTEX
  5
8D
  8
0
 10
0.3953424377318697
 20
6.7074576911609247
 30
0.0
  0
VERTEX
  5
8E
  8
0
 10
0.3947560532878924
 20
6.7051530639271268
 30
0.0
  0
VERTEX
  5
8F
  8
0
 10
0.3943060373194385
 20
6.7033802737473698
 30
0.0
  0
SEQEND
  5
90
  8
0
  0
POLYLINE
  5
91
  8
0
 66
     1
 10
0.0
 20
0.0
 30
0.0
  0
VERTEX
  5
92
  8
0
 10
0.3958333642435718
 20
6.7093123024258139
 30
0.0
  0
VERTEX
  5
93
  8
0
 10
0.3953424377318697
 20
6.7074576911609247
 30
0.0
  0
SEQEND
  5
94
  8
0
  0
POLYLINE
  5
95
  8
0
 66
     1
 10
0.0
 20
0.0
 30
0.0
  0
VERTEX
  5
96
  8
0
 10
-0.3166646458676041
 20
5.9607700000000241
 30
0.0
  0
VERTEX
  5
97
  8
0
 10
-0.3166646458676041
 20
5.6967909499759912
 30
0.0
  0
SEQEND
  5
98
  8
0
  0
POLYLINE
  5
99
  8
0
 66
     1
 10
0.0
 20
0.0
 30
0.0
  0
VERTEX
  5
9A
  8
0
 10
1.8648968572815641
 20
6.5054618870195782
 30
0.0
  0
VERTEX
  5
9B
  8
0
 10
1.9791668212174041
 20
6.7033734553235709
 30
0.0
  0
SEQEND
  5
9C
  8
0
  0
POLYLINE
  5
9D
  8
0
 66
     1
 10
0.0
 20
0.0
 30
0.0
  0
VERTEX
  5
9E
  8
0
 10
0.3166646458676041
 20
5.6967909499759912
 30
0.0
  0
VERTEX
  5
9F
  8
0
 10
0.3166646458676041
 20
5.9607700000000241
 30
0.0
  0
SEQEND
  5
A0
  8
0
  0
POLYLINE
  5
A1
  8
0
 66
     1
 10
0.0
 20
0.0
 30
0.0
  0
VERTEX
  5
A2
  8
0
 10
0.3958333642435718
 20
5.9726476942047384
 30
0.0
  0
VERTEX
  5
A3
  8
0
 10
0.3958333642435718
 20
6.4995230399172206
 30
0.0
  0
SEQEND
  5
A4
  8
0
  0
POLYLINE
  5
A5
  8
0
 66
     1
 10
0.0
 20
0.0
 30
0.0
  0
VERTEX
  5
A6
  8
0
 10
0.3958333642435718
 20
6.7093123024258139
 30
0.0
  0
VERTEX
  5
A7
  8
0
 10
0.3958333642435718
 20
6.8552129342238004
 30
0.0
  0
SEQEND
  5
A8
  8
0
  0
POLYLINE
  5
A9
  8
0
 66
     1
 10
0.0
 20
0.0
 30
0.0
  0
VERTEX
  5
AA
  8
0
 10
0.5937517509710233
 20
5.125
 30
0.0
  0
VERTEX
  5
AB
  8
0
 10
0.5937517509710233
 20
5.61762223160025
 30
0.0
  0
SEQEND
  5
AC
  8
0
  0
POLYLINE
  5
AD
  8
0
 66
     1
 10
0.0
 20
0.0
 30
0.0
  0
VERTEX
  5
AE
  8
0
 10
1.1875000927307151
 20
5.1052129342239141
 30
0.0
  0
VERTEX
  5
AF
  8
0
 10
1.1875000927307151
 20
5.0260510342717453
 30
0.0
  0
SEQEND
  5
B0
  8
0
  0
POLYLINE
  5
B1
  8
0
 66
     1
 10
0.0
 20
0.0
 30
0.0
  0
VERTEX
  5
B2
  8
0
 10
1.1875000927307151
 20
4.9864632658719747
 30
0.0
  0
VERTEX
  5
B3
  8
0
 10
1.1875000927307151
 20
0.1385503709755085
 30
0.0
  0
SEQEND
  5
B4
  8
0
  0
POLYLINE
  5
B5
  8
0
 66
     1
 10
0.0
 20
0.0
 30
0.0
  0
VERTEX
  5
B6
  8
0
 10
1.1875000927307151
 20
0.0198007026236837
 30
0.0
  0
VERTEX
  5
B7
  8
0
 10
1.1875000927307151
 20
0.0989626025757389
 30
0.0
  0
SEQEND
  5
B8
  8
0
  0
POLYLINE
  5
B9
  8
0
 66
     1
 10
0.0
 20
0.0
 30
0.0
  0
VERTEX
  5
BA
  8
0
 10
0.3943060373194385
 20
6.5054618870195782
 30
0.0
  0
VERTEX
  5
BB
  8
0
 10
0.3947560532878924
 20
6.5036686415685381
 30
0.0
  0
VERTEX
  5
BC
  8
0
 10
0.3953424377318697
 20
6.5013640143347402
 30
0.0
  0
VERTEX
  5
BD
  8
0
 10
0.3958265458195456
 20
6.4995230399172206
 30
0.0
  0
SEQEND
  5
BE
  8
0
  0
POLYLINE
  5
BF
  8
0
 66
     1
 10
0.0
 20
0.0
 30
0.0
  0
VERTEX
  5
C0
  8
0
 10
1.1677062085313989
 20
5.0062503316481752
 30
0.0
  0
VERTEX
  5
C1
  8
0
 10
-1.167706208530489
 20
5.0062503316481752
 30
0.0
  0
SEQEND
  5
C2
  8
0
  0
POLYLINE
  5
C3
  8
0
 66
     1
 10
0.0
 20
0.0
 30
0.0
  0
VERTEX
  5
C4
  8
0
 10
1.16771302695497
 20
5.125
 30
0.0
  0
VERTEX
  5
C5
  8
0
 10
-1.167706208530489
 20
5.125
 30
0.0
  0
SEQEND
  5
C6
  8
0
  0
POLYLINE
  5
C7
  8
0
 66
     1
 10
0.0
 20
0.0
 30
0.0
  0
VERTEX
  5
C8
  8
0
 10
0.3493248957188371
 20
5.125
 30
0.0
  0
VERTEX
  5
C9
  8
0
 10
0.4651017313076409
 20
5.125
 30
0.0
  0
SEQEND
  5
CA
  8
0
  0
POLYLINE
  5
CB
  8
0
 66
     1
 10
0.0
 20
0.0
 30
0.0
  0
VERTEX
  5
CC
  8
0
 10
-0.5541708009955073
 20
5.6572100000000196
 30
0.0
  0
VERTEX
  5
CD
  8
0
 10
0.5549063584135184
 20
5.6572100000000196
 30
0.0
  0
SEQEND
  5
CE
  8
0
  0
POLYLINE
  5
CF
  8
0
 66
     1
 10
0.0
 20
0.0
 30
0.0
  0
VERTEX
  5
D0
  8
0
 10
-0.3839624884626573
 20
5.9607700000000241
 30
0.0
  0
VERTEX
  5
D1
  8
0
 10
0.3839556700390858
 20
5.9607700000000241
 30
0.0
  0
SEQEND
  5
D2
  8
0
  0
POLYLINE
  5
D3
  8
0
 66
     1
 10
0.0
 20
0.0
 30
0.0
  0
VERTEX
  5
1BE
  8
0
 10
1.9791736396414299
 20
6.7033734553235709
 30
0.0
  0
VERTEX
  5
1BF
  8
0
 10
0.1583340275396949
 20
6.7033734553235709
 30
0.0
  0
VERTEX
  5
1C0
  8
0
 10
0.1070938759607998
 20
6.7033734553235709
 30
0.0
  0
VERTEX
  5
1C1
  8
0
 10
0.0987069116840758
 20
6.6931730933658846
 30
0.0
  0
VERTEX
  5
1C2
  8
0
 10
0.0979773403410036
 20
6.692361700937453
 30
0.0
  0
VERTEX
  5
1C3
  8
0
 10
0.0967772977578534
 20
6.691045745150177
 30
0.0
  0
VERTEX
  5
1C4
  8
0
 10
0.095120420782223
 20
6.6891911338850596
 30
0.0
  0
VERTEX
  5
1C5
  8
0
 10
0.0930339831088532
 20
6.6868319592612124
 30
0.0
  0
VERTEX
  5
1C6
  8
0
 10
0.0905793505521615
 20
6.6840636792112491
 30
0.0
  0
VERTEX
  5
1C7
  8
0
 10
0.0877974336549414
 20
6.6808999305826537
 30
0.0
  0
VERTEX
  5
1C8
  8
0
 10
0.0847291429590769
 20
6.6773202581041451
 30
0.0
  0
VERTEX
  5
1C9
  8
0
 10
0.0814358442789853
 20
6.6734814855225286
 30
0.0
  0
VERTEX
  5
1CA
  8
0
 10
0.0779857218517464
 20
6.6693904312614896
 30
0.0
  0
VERTEX
  5
1CB
  8
0
 10
0.0744060493734651
 20
6.6650334584733173
 30
0.0
  0
VERTEX
  5
1CC
  8
0
 10
0.0708059216235597
 20
6.6605673909050429
 30
0.0
  0
VERTEX
  5
1CD
  8
0
 10
0.06723306756885
 20
6.6559990469801269
 30
0.0
  0
VERTEX
  5
1CE
  8
0
 10
0.0637147609045314
 20
6.6513216082748841
 30
0.0
  0
VERTEX
  5
1CF
  8
0
 10
0.0603328227152815
 20
6.6466032590271871
 30
0.0
  0
VERTEX
  5
1D0
  8
0
 10
0.0570940714251265
 20
6.6418371808130132
 30
0.0
  0
VERTEX
  5
1D1
  8
0
 10
0.0540598728484838
 20
6.6370370104799568
 30
0.0
  0
VERTEX
  5
1D2
  8
0
 10
0.0513120480695761
 20
6.632216384875619
 30
0.0
  0
VERTEX
  5
1D3
  8
0
 10
0.0488846892080801
 20
6.6274434882377591
 30
0.0
  0
VERTEX
  5
1D4
  8
0
 10
0.0467846146871125
 20
6.6226705915997854
 30
0.0
  0
VERTEX
  5
1D5
  8
0
 10
0.0451550114066777
 20
6.617747689638918
 30
0.0
  0
VERTEX
  5
1D6
  8
0
 10
0.0439549688235275
 20
6.6126543270838729
 30
0.0
  0
VERTEX
  5
1D7
  8
0
 10
0.0432390343275984
 20
6.6074177776297338
 30
0.0
  0
VERTEX
  5
1D8
  8
0
 10
0.0431981237852597
 20
6.602038041276387
 30
0.0
  0
VERTEX
  5
1D9
  8
0
 10
0.0439413319759297
 20
6.5964401153623831
 30
0.0
  0
VERTEX
  5
1DA
  8
0
 10
0.0453322904245397
 20
6.5907194578206818
 30
0.0
  0
VERTEX
  5
1DB
  8
0
 10
0.0472755411988146
 20
6.5850601660928296
 30
0.0
  0
VERTEX
  5
1DC
  8
0
 10
0.0497506290266756
 20
6.579557698111671
 30
0.0
  0
VERTEX
  5
1DD
  8
0
 10
0.0527098249422124
 20
6.5741097775206754
 30
0.0
  0
VERTEX
  5
1DE
  8
0
 10
0.0559894867747062
 20
6.5687232227435279
 30
0.0
  0
VERTEX
  5
1DF
  8
0
 10
0.0595350671342203
 20
6.5633503048139801
 30
0.0
  0
VERTEX
  5
1E0
  8
0
 10
0.0633329291736118
 20
6.5580251158507963
 30
0.0
  0
VERTEX
  5
1E1
  8
0
 10
0.0672603412640456
 20
6.5528022032441413
 30
0.0
  0
VERTEX
  5
1E2
  8
0
 10
0.071283211287664
 20
6.5476815669940152
 30
0.0
  0
VERTEX
  5
1E3
  8
0
 10
0.075312899734854
 20
6.5426632071004169
 30
0.0
  0
VERTEX
  5
1E4
  8
0
 10
0.07922667497769
 20
6.537958494700205
 30
0.0
  0
VERTEX
  5
1E5
  8
0
 10
0.0829563527790924
 20
6.5335606113694658
 30
0.0
  0
VERTEX
  5
1E6
  8
0
 10
0.0864610225962679
 20
6.5294695571084267
 30
0.0
  0
VERTEX
  5
1E7
  8
0
 10
0.0896315896484339
 20
6.5258421556636668
 30
0.0
  0
VERTEX
  5
1E8
  8
0
 10
0.0924475986648759
 20
6.5226852254587584
 30
0.0
  0
VERTEX
  5
1E9
  8
0
 10
0.0948408654076047
 20
6.5199987664939272
 30
0.0
  0
VERTEX
  5
1EA
  8
0
 10
0.0966682029775257
 20
6.5179055103970986
 30
0.0
  0
VERTEX
  5
1EB
  8
0
 10
0.097950066645808
 20
6.516453186134413
 30
0.0
  0
VERTEX
  5
1EC
  8
0
 10
0.0987069116840758
 20
6.5156077015870997
 30
0.0
  0
VERTEX
  5
1ED
  8
0
 10
0.1085857311313703
 20
6.5054618870195782
 30
0.0
  0
VERTEX
  5
1EE
  8
0
 10
0.1583340275396949
 20
6.5054618870195782
 30
0.0
  0
VERTEX
  5
1EF
  8
0
 10
1.864903675705136
 20
6.5054618870195782
 30
0.0
  0
SEQEND
  5
1F0
  8
0
  0
POLYLINE
  5
D4
  8
0
 66
     1
 10
0.0
 20
0.0
 30
0.0
  0
VERTEX
  5
D5
  8
0
 10
0.3707415647754715
 20
6.8742772470804994
 30
0.0
  0
VERTEX
  5
D6
  8
0
 10
-0.3707483831994978
 20
6.8742772470804994
 30
0.0
  0
SEQEND
  5
D7
  8
0
  0
POLYLINE
  5
D8
  8
0
 66
     1
 10
0.0
 20
0.0
 30
0.0
  0
VERTEX
  5
D9
  8
0
 10
-0.3764049846095077
 20
6.875
 30
0.0
  0
VERTEX
  5
DA
  8
0
 10
0.3760462984673722
 20
6.875
 30
0.0
  0
SEQEND
  5
DB
  8
0
  0
POLYLINE
  8
0
  5
221
  66
     1
 10
0.000000
 20
0.000000
 30
0.000000
  70
     8
  0
VERTEX
  8
0
  5
222
 10
-1.18750
 20
0.0198007
 30
0.000000
  70
    32
  0
VERTEX
  8
0
  5
223
 10
-1.18750
 20
0.0195427
 30
0.000000
  70
    32
  0
VERTEX
  8
0
  5
224
 10
-1.18749
 20
0.0192856
 30
0.000000
  70
    32
  0
VERTEX
  8
0
  5
225
 10
-1.18749
 20
0.0190292
 30
0.000000
  70
    32
  0
VERTEX
  8
0
  5
226
 10
-1.18747
 20
0.0187737
 30
0.000000
  70
    32
  0
VERTEX
  8
0
  5
227
 10
-1.18746
 20
0.0185191
 30
0.000000
  70
    32
  0
VERTEX
  8
0
  5
228
 10
-1.18744
 20
0.0182653
 30
0.000000
  70
    32
  0
VERTEX
  8
0
  5
229
 10
-1.18742
 20
0.0180124
 30
0.000000
  70
    32
  0
VERTEX
  8
0
  5
22A
 10
-1.18740
 20
0.0177604
 30
0.000000
  70
    32
  0
VERTEX
  8
0
  5
22B
 10
-1.18737
 20
0.0175094
 30
0.000000
  70
    32
  0
VERTEX
  8
0
  5
22C
 10
-1.18734
 20
0.0172593
 30
0.000000
  70
    32
  0
VERTEX
  8
0
  5
22D
 10
-1.18731
 20
0.0170102
 30
0.000000
  70
    32
  0
VERTEX
  8
0
  5
22E
 10
-1.18727
 20
0.0167621
 30
0.000000
  70
    32
  0
VERTEX
  8
0
  5
22F
 10
-1.18723
 20
0.0165150
 30
0.000000
  70
    32
  0
VERTEX
  8
0
  5
230
 10
-1.18719
 20
0.0162689
 30
0.000000
  70
    32
  0
VERTEX
  8
0
  5
231
 10
-1.18714
 20
0.0160239
 30
0.000000
  70
    32
  0
VERTEX
  8
0
  5
232
 10
-1.18709
 20
0.0157800
 30
0.000000
  70
    32
  0
VERTEX
  8
0
  5
233
 10
-1.18704
 20
0.0155372
 30
0.000000
  70
    32
  0
VERTEX
  8
0
  5
234
 10
-1.18699
 20
0.0152954
 30
0.000000
  70
    32
  0
VERTEX
  8
0
  5
235
 10
-1.18693
 20
0.0150548
 30
0.000000
  70
    32
  0
VERTEX
  8
0
  5
236
 10
-1.18687
 20
0.0148154
 30
0.000000
  70
    32
  0
VERTEX
  8
0
  5
237
 10
-1.18680
 20
0.0145771
 30
0.000000
  70
    32
  0
VERTEX
  8
0
  5
238
 10
-1.18674
 20
0.0143400
 30
0.000000
  70
    32
  0
VERTEX
  8
0
  5
239
 10
-1.18667
 20
0.0141042
 30
0.000000
  70
    32
  0
VERTEX
  8
0
  5
23A
 10
-1.18660
 20
0.0138695
 30
0.000000
  70
    32
  0
VERTEX
  8
0
  5
23B
 10
-1.18652
 20
0.0136361
 30
0.000000
  70
    32
  0
VERTEX
  8
0
  5
23C
 10
-1.18644
 20
0.0134040
 30
0.000000
  70
    32
  0
VERTEX
  8
0
  5
23D
 10
-1.18636
 20
0.0131732
 30
0.000000
  70
    32
  0
VERTEX
  8
0
  5
23E
 10
-1.18628
 20
0.0129437
 30
0.000000
  70
    32
  0
VERTEX
  8
0
  5
23F
 10
-1.18619
 20
0.0127155
 30
0.000000
  70
    32
  0
VERTEX
  8
0
  5
240
 10
-1.18611
 20
0.0124887
 30
0.000000
  70
    32
  0
VERTEX
  8
0
  5
241
 10
-1.18601
 20
0.0122632
 30
0.000000
  70
    32
  0
VERTEX
  8
0
  5
242
 10
-1.18592
 20
0.0120391
 30
0.000000
  70
    32
  0
VERTEX
  8
0
  5
243
 10
-1.18582
 20
0.0118165
 30
0.000000
  70
    32
  0
VERTEX
  8
0
  5
244
 10
-1.18572
 20
0.0115953
 30
0.000000
  70
    32
  0
VERTEX
  8
0
  5
245
 10
-1.18562
 20
0.0113755
 30
0.000000
  70
    32
  0
VERTEX
  8
0
  5
246
 10
-1.18552
 20
0.0111572
 30
0.000000
  70
    32
  0
VERTEX
  8
0
  5
247
 10
-1.18541
 20
0.0109403
 30
0.000000
  70
    32
  0
VERTEX
  8
0
  5
248
 10
-1.18530
 20
0.0107250
 30
0.000000
  70
    32
  0
VERTEX
  8
0
  5
249
 10
-1.18519
 20
0.0105113
 30
0.000000
  70
    32
  0
VERTEX
  8
0
  5
24A
 10
-1.18507
 20
0.0102990
 30
0.000000
  70
    32
  0
VERTEX
  8
0
  5
24B
 10
-1.18496
 20
0.0100884
 30
0.000000
  70
    32
  0
VERTEX
  8
0
  5
24C
 10
-1.18484
 20
0.00987928
 30
0.000000
  70
    32
  0
VERTEX
  8
0
  5
24D
 10
-1.18472
 20
0.00967181
 30
0.000000
  70
    32
  0
VERTEX
  8
0
  5
24E
 10
-1.18459
 20
0.00946597
 30
0.000000
  70
    32
  0
VERTEX
  8
0
  5
24F
 10
-1.18446
 20
0.00926178
 30
0.000000
  70
    32
  0
VERTEX
  8
0
  5
250
 10
-1.18433
 20
0.00905926
 30
0.000000
  70
    32
  0
VERTEX
  8
0
  5
251
 10
-1.18420
 20
0.00885842
 30
0.000000
  70
    32
  0
VERTEX
  8
0
  5
252
 10
-1.18407
 20
0.00865929
 30
0.000000
  70
    32
  0
VERTEX
  8
0
  5
253
 10
-1.18393
 20
0.00846189
 30
0.000000
  70
    32
  0
VERTEX
  8
0
  5
254
 10
-1.18379
 20
0.00826623
 30
0.000000
  70
    32
  0
VERTEX
  8
0
  5
255
 10
-1.18365
 20
0.00807234
 30
0.000000
  70
    32
  0
VERTEX
  8
0
  5
256
 10
-1.18351
 20
0.00788024
 30
0.000000
  70
    32
  0
VERTEX
  8
0
  5
257
 10
-1.18336
 20
0.00768995
 30
0.000000
  70
    32
  0
VERTEX
  8
0
  5
258
 10
-1.18322
 20
0.00750148
 30
0.000000
  70
    32
  0
VERTEX
  8
0
  5
259
 10
-1.18307
 20
0.00731485
 30
0.000000
  70
    32
  0
VERTEX
  8
0
  5
25A
 10
-1.18291
 20
0.00713010
 30
0.000000
  70
    32
  0
VERTEX
  8
0
  5
25B
 10
-1.18276
 20
0.00694722
 30
0.000000
  70
    32
  0
VERTEX
  8
0
  5
25C
 10
-1.18260
 20
0.00676626
 30
0.000000
  70
    32
  0
VERTEX
  8
0
  5
25D
 10
-1.18244
 20
0.00658722
 30
0.000000
  70
    32
  0
VERTEX
  8
0
  5
25E
 10
-1.18228
 20
0.00641012
 30
0.000000
  70
    32
  0
VERTEX
  8
0
  5
25F
 10
-1.18212
 20
0.00623499
 30
0.000000
  70
    32
  0
VERTEX
  8
0
  5
260
 10
-1.18195
 20
0.00606184
 30
0.000000
  70
    32
  0
VERTEX
  8
0
  5
261
 10
-1.18179
 20
0.00589070
 30
0.000000
  70
    32
  0
VERTEX
  8
0
  5
262
 10
-1.18162
 20
0.00572158
 30
0.000000
  70
    32
  0
VERTEX
  8
0
  5
263
 10
-1.18145
 20
0.00555451
 30
0.000000
  70
    32
  0
VERTEX
  8
0
  5
264
 10
-1.18127
 20
0.00538950
 30
0.000000
  70
    32
  0
VERTEX
  8
0
  5
265
 10
-1.18110
 20
0.00522657
 30
0.000000
  70
    32
  0
VERTEX
  8
0
  5
266
 10
-1.18092
 20
0.00506575
 30
0.000000
  70
    32
  0
VERTEX
  8
0
  5
267
 10
-1.18074
 20
0.00490705
 30
0.000000
  70
    32
  0
VERTEX
  8
0
  5
268
 10
-1.18056
 20
0.00475050
 30
0.000000
  70
    32
  0
VERTEX
  8
0
  5
269
 10
-1.18038
 20
0.00459611
 30
0.000000
  70
    32
  0
VERTEX
  8
0
  5
26A
 10
-1.18019
 20
0.00444390
 30
0.000000
  70
    32
  0
VERTEX
  8
0
  5
26B
 10
-1.18001
 20
0.00429389
 30
0.000000
  70
    32
  0
VERTEX
  8
0
  5
26C
 10
-1.17982
 20
0.00414610
 30
0.000000
  70
    32
  0
VERTEX
  8
0
  5
26D
 10
-1.17963
 20
0.00400056
 30
0.000000
  70
    32
  0
VERTEX
  8
0
  5
26E
 10
-1.17944
 20
0.00385728
 30
0.000000
  70
    32
  0
VERTEX
  8
0
  5
26F
 10
-1.17924
 20
0.00371628
 30
0.000000
  70
    32
  0
VERTEX
  8
0
  5
270
 10
-1.17905
 20
0.00357759
 30
0.000000
  70
    32
  0
VERTEX
  8
0
  5
271
 10
-1.17885
 20
0.00344121
 30
0.000000
  70
    32
  0
VERTEX
  8
0
  5
272
 10
-1.17865
 20
0.00330718
 30
0.000000
  70
    32
  0
VERTEX
  8
0
  5
273
 10
-1.17845
 20
0.00317551
 30
0.000000
  70
    32
  0
VERTEX
  8
0
  5
274
 10
-1.17825
 20
0.00304621
 30
0.000000
  70
    32
  0
VERTEX
  8
0
  5
275
 10
-1.17804
 20
0.00291932
 30
0.000000
  70
    32
  0
VERTEX
  8
0
  5
276
 10
-1.17784
 20
0.00279485
 30
0.000000
  70
    32
  0
VERTEX
  8
0
  5
277
 10
-1.17763
 20
0.00267282
 30
0.000000
  70
    32
  0
VERTEX
  8
0
  5
278
 10
-1.17742
 20
0.00255325
 30
0.000000
  70
    32
  0
VERTEX
  8
0
  5
279
 10
-1.17721
 20
0.00243616
 30
0.000000
  70
    32
  0
VERTEX
  8
0
  5
27A
 10
-1.17700
 20
0.00232157
 30
0.000000
  70
    32
  0
VERTEX
  8
0
  5
27B
 10
-1.17678
 20
0.00220950
 30
0.000000
  70
    32
  0
VERTEX
  8
0
  5
27C
 10
-1.17657
 20
0.00209997
 30
0.000000
  70
    32
  0
VERTEX
  8
0
  5
27D
 10
-1.17635
 20
0.00199300
 30
0.000000
  70
    32
  0
VERTEX
  8
0
  5
27E
 10
-1.17613
 20
0.00188861
 30
0.000000
  70
    32
  0
VERTEX
  8
0
  5
27F
 10
-1.17591
 20
0.00178682
 30
0.000000
  70
    32
  0
VERTEX
  8
0
  5
280
 10
-1.17569
 20
0.00168764
 30
0.000000
  70
    32
  0
VERTEX
  8
0
  5
281
 10
-1.17547
 20
0.00159110
 30
0.000000
  70
    32
  0
VERTEX
  8
0
  5
282
 10
-1.17524
 20
0.00149723
 30
0.000000
  70
    32
  0
VERTEX
  8
0
  5
283
 10
-1.17502
 20
0.00140603
 30
0.000000
  70
    32
  0
VERTEX
  8
0
  5
284
 10
-1.17479
 20
0.00131752
 30
0.000000
  70
    32
  0
VERTEX
  8
0
  5
285
 10
-1.17456
 20
0.00123174
 30
0.000000
  70
    32
  0
VERTEX
  8
0
  5
286
 10
-1.17434
 20
0.00114869
 30
0.000000
  70
    32
  0
VERTEX
  8
0
  5
287
 10
-1.17410
 20
0.00106841
 30
0.000000
  70
    32
  0
VERTEX
  8
0
  5
288
 10
-1.17387
 20
0.000990893
 30
0.000000
  70
    32
  0
VERTEX
  8
0
  5
289
 10
-1.17364
 20
0.000916178
 30
0.000000
  70
    32
  0
VERTEX
  8
0
  5
28A
 10
-1.17340
 20
0.000844280
 30
0.000000
  70
    32
  0
VERTEX
  8
0
  5
28B
 10
-1.17317
 20
0.000775219
 30
0.000000
  70
    32
  0
VERTEX
  8
0
  5
28C
 10
-1.17293
 20
0.000709014
 30
0.000000
  70
    32
  0
VERTEX
  8
0
  5
28D
 10
-1.17269
 20
0.000645685
 30
0.000000
  70
    32
  0
VERTEX
  8
0
  5
28E
 10
-1.17245
 20
0.000585252
 30
0.000000
  70
    32
  0
VERTEX
  8
0
  5
28F
 10
-1.17221
 20
0.000527736
 30
0.000000
  70
    32
  0
VERTEX
  8
0
  5
290
 10
-1.17197
 20
0.000473155
 30
0.000000
  70
    32
  0
VERTEX
  8
0
  5
291
 10
-1.17173
 20
0.000421529
 30
0.000000
  70
    32
  0
VERTEX
  8
0
  5
292
 10
-1.17149
 20
0.000372879
 30
0.000000
  70
    32
  0
VERTEX
  8
0
  5
293
 10
-1.17124
 20
0.000327224
 30
0.000000
  70
    32
  0
VERTEX
  8
0
  5
294
 10
-1.17100
 20
0.000284584
 30
0.000000
  70
    32
  0
VERTEX
  8
0
  5
295
 10
-1.17075
 20
0.000244978
 30
0.000000
  70
    32
  0
VERTEX
  8
0
  5
296
 10
-1.17050
 20
0.000208427
 30
0.000000
  70
    32
  0
VERTEX
  8
0
  5
297
 10
-1.17025
 20
0.000174951
 30
0.000000
  70
    32
  0
VERTEX
  8
0
  5
298
 10
-1.17000
 20
0.000144569
 30
0.000000
  70
    32
  0
VERTEX
  8
0
  5
299
 10
-1.16975
 20
0.000117301
 30
0.000000
  70
    32
  0
VERTEX
  8
0
  5
29A
 10
-1.16950
 20
9.31662e-005
 30
0.000000
  70
    32
  0
VERTEX
  8
0
  5
29B
 10
-1.16925
 20
7.21854e-005
 30
0.000000
  70
    32
  0
VERTEX
  8
0
  5
29C
 10
-1.16899
 20
5.43781e-005
 30
0.000000
  70
    32
  0
VERTEX
  8
0
  5
29D
 10
-1.16874
 20
3.97641e-005
 30
0.000000
  70
    32
  0
VERTEX
  8
0
  5
29E
 10
-1.16848
 20
2.83631e-005
 30
0.000000
  70
    32
  0
VERTEX
  8
0
  5
29F
 10
-1.16823
 20
2.01951e-005
 30
0.000000
  70
    32
  0
VERTEX
  8
0
  5
2A0
 10
-1.16797
 20
1.52797e-005
 30
0.000000
  70
    32
  0
VERTEX
  8
0
  5
2A1
 10
-1.16771
 20
1.36368e-005
 30
0.000000
  70
    32
  0
SEQEND
  8
0
  5
2A2
  0
POLYLINE
  8
0
  5
2A3
  66
     1
 10
0.000000
 20
0.000000
 30
0.000000
  70
     8
  0
VERTEX
  8
0
  5
2A4
 10
-1.16771
 20
0.118750
 30
0.000000
  70
    32
  0
VERTEX
  8
0
  5
2A5
 10
-1.16797
 20
0.118748
 30
0.000000
  70
    32
  0
VERTEX
  8
0
  5
2A6
 10
-1.16823
 20
0.118743
 30
0.000000
  70
    32
  0
VERTEX
  8
0
  5
2A7
 10
-1.16848
 20
0.118735
 30
0.000000
  70
    32
  0
VERTEX
  8
0
  5
2A8
 10
-1.16874
 20
0.118724
 30
0.000000
  70
    32
  0
VERTEX
  8
0
  5
2A9
 10
-1.16899
 20
0.118709
 30
0.000000
  70
    32
  0
VERTEX
  8
0
  5
2AA
 10
-1.16925
 20
0.118691
 30
0.000000
  70
    32
  0
VERTEX
  8
0
  5
2AB
 10
-1.16950
 20
0.118670
 30
0.000000
  70
    32
  0
VERTEX
  8
0
  5
2AC
 10
-1.16975
 20
0.118646
 30
0.000000
  70
    32
  0
VERTEX
  8
0
  5
2AD
 10
-1.17000
 20
0.118619
 30
0.000000
  70
    32
  0
VERTEX
  8
0
  5
2AE
 10
-1.17025
 20
0.118588
 30
0.000000
  70
    32
  0
VERTEX
  8
0
  5
2AF
 10
-1.17050
 20
0.118555
 30
0.000000
  70
    32
  0
VERTEX
  8
0
  5
2B0
 10
-1.17075
 20
0.118518
 30
0.000000
  70
    32
  0
VERTEX
  8
0
  5
2B1
 10
-1.17100
 20
0.118478
 30
0.000000
  70
    32
  0
VERTEX
  8
0
  5
2B2
 10
-1.17124
 20
0.118436
 30
0.000000
  70
    32
  0
VERTEX
  8
0
  5
2B3
 10
-1.17149
 20
0.118390
 30
0.000000
  70
    32
  0
VERTEX
  8
0
  5
2B4
 10
-1.17173
 20
0.118341
 30
0.000000
  70
    32
  0
VERTEX
  8
0
  5
2B5
 10
-1.17197
 20
0.118290
 30
0.000000
  70
    32
  0
VERTEX
  8
0
  5
2B6
 10
-1.17222
 20
0.118235
 30
0.000000
  70
    32
  0
VERTEX
  8
0
  5
2B7
 10
-1.17246
 20
0.118177
 30
0.000000
  70
    32
  0
VERTEX
  8
0
  5
2B8
 10
-1.17270
 20
0.118117
 30
0.000000
  70
    32
  0
VERTEX
  8
0
  5
2B9
 10
-1.17293
 20
0.118053
 30
0.000000
  70
    32
  0
VERTEX
  8
0
  5
2BA
 10
-1.17317
 20
0.117987
 30
0.000000
  70
    32
  0
VERTEX
  8
0
  5
2BB
 10
-1.17341
 20
0.117918
 30
0.000000
  70
    32
  0
VERTEX
  8
0
  5
2BC
 10
-1.17364
 20
0.117846
 30
0.000000
  70
    32
  0
VERTEX
  8
0
  5
2BD
 10
-1.17387
 20
0.117771
 30
0.000000
  70
    32
  0
VERTEX
  8
0
  5
2BE
 10
-1.17411
 20
0.117694
 30
0.000000
  70
    32
  0
VERTEX
  8
0
  5
2BF
 10
-1.17434
 20
0.117613
 30
0.000000
  70
    32
  0
VERTEX
  8
0
  5
2C0
 10
-1.17457
 20
0.117530
 30
0.000000
  70
    32
  0
VERTEX
  8
0
  5
2C1
 10
-1.17480
 20
0.117444
 30
0.000000
  70
    32
  0
VERTEX
  8
0
  5
2C2
 10
-1.17502
 20
0.117356
 30
0.000000
  70
    32
  0
VERTEX
  8
0
  5
2C3
 10
-1.17525
 20
0.117264
 30
0.000000
  70
    32
  0
VERTEX
  8
0
  5
2C4
 10
-1.17547
 20
0.117170
 30
0.000000
  70
    32
  0
VERTEX
  8
0
  5
2C5
 10
-1.17569
 20
0.117074
 30
0.000000
  70
    32
  0
VERTEX
  8
0
  5
2C6
 10
-1.17592
 20
0.116974
 30
0.000000
  70
    32
  0
VERTEX
  8
0
  5
2C7
 10
-1.17614
 20
0.116872
 30
0.000000
  70
    32
  0
VERTEX
  8
0
  5
2C8
 10
-1.17635
 20
0.116768
 30
0.000000
  70
    32
  0
VERTEX
  8
0
  5
2C9
 10
-1.17657
 20
0.116661
 30
0.000000
  70
    32
  0
VERTEX
  8
0
  5
2CA
 10
-1.17679
 20
0.116551
 30
0.000000
  70
    32
  0
VERTEX
  8
0
  5
2CB
 10
-1.17700
 20
0.116439
 30
0.000000
  70
    32
  0
VERTEX
  8
0
  5
2CC
 10
-1.17721
 20
0.116324
 30
0.000000
  70
    32
  0
VERTEX
  8
0
  5
2CD
 10
-1.17742
 20
0.116207
 30
0.000000
  70
    32
  0
VERTEX
  8
0
  5
2CE
 10
-1.17763
 20
0.116087
 30
0.000000
  70
    32
  0
VERTEX
  8
0
  5
2CF
 10
-1.17784
 20
0.115965
 30
0.000000
  70
    32
  0
VERTEX
  8
0
  5
2D0
 10
-1.17804
 20
0.115841
 30
0.000000
  70
    32
  0
VERTEX
  8
0
  5
2D1
 10
-1.17825
 20
0.115714
 30
0.000000
  70
    32
  0
VERTEX
  8
0
  5
2D2
 10
-1.17845
 20
0.115584
 30
0.000000
  70
    32
  0
VERTEX
  8
0
  5
2D3
 10
-1.17865
 20
0.115453
 30
0.000000
  70
    32
  0
VERTEX
  8
0
  5
2D4
 10
-1.17885
 20
0.115318
 30
0.000000
  70
    32
  0
VERTEX
  8
0
  5
2D5
 10
-1.17905
 20
0.115182
 30
0.000000
  70
    32
  0
VERTEX
  8
0
  5
2D6
 10
-1.17924
 20
0.115043
 30
0.000000
  70
    32
  0
VERTEX
  8
0
  5
2D7
 10
-1.17944
 20
0.114902
 30
0.000000
  70
    32
  0
VERTEX
  8
0
  5
2D8
 10
-1.17963
 20
0.114759
 30
0.000000
  70
    32
  0
VERTEX
  8
0
  5
2D9
 10
-1.17982
 20
0.114613
 30
0.000000
  70
    32
  0
VERTEX
  8
0
  5
2DA
 10
-1.18001
 20
0.114465
 30
0.000000
  70
    32
  0
VERTEX
  8
0
  5
2DB
 10
-1.18020
 20
0.114315
 30
0.000000
  70
    32
  0
VERTEX
  8
0
  5
2DC
 10
-1.18038
 20
0.114163
 30
0.000000
  70
    32
  0
VERTEX
  8
0
  5
2DD
 10
-1.18056
 20
0.114008
 30
0.000000
  70
    32
  0
VERTEX
  8
0
  5
2DE
 10
-1.18074
 20
0.113852
 30
0.000000
  70
    32
  0
VERTEX
  8
0
  5
2DF
 10
-1.18092
 20
0.113693
 30
0.000000
  70
    32
  0
VERTEX
  8
0
  5
2E0
 10
-1.18110
 20
0.113532
 30
0.000000
  70
    32
  0
VERTEX
  8
0
  5
2E1
 10
-1.18128
 20
0.113369
 30
0.000000
  70
    32
  0
VERTEX
  8
0
  5
2E2
 10
-1.18145
 20
0.113204
 30
0.000000
  70
    32
  0
VERTEX
  8
0
  5
2E3
 10
-1.18162
 20
0.113037
 30
0.000000
  70
    32
  0
VERTEX
  8
0
  5
2E4
 10
-1.18179
 20
0.112867
 30
0.000000
  70
    32
  0
VERTEX
  8
0
  5
2E5
 10
-1.18196
 20
0.112696
 30
0.000000
  70
    32
  0
VERTEX
  8
0
  5
2E6
 10
-1.18212
 20
0.112523
 30
0.000000
  70
    32
  0
VERTEX
  8
0
  5
2E7
 10
-1.18228
 20
0.112348
 30
0.000000
  70
    32
  0
VERTEX
  8
0
  5
2E8
 10
-1.18245
 20
0.112171
 30
0.000000
  70
    32
  0
VERTEX
  8
0
  5
2E9
 10
-1.18260
 20
0.111992
 30
0.000000
  70
    32
  0
VERTEX
  8
0
  5
2EA
 10
-1.18276
 20
0.111811
 30
0.000000
  70
    32
  0
VERTEX
  8
0
  5
2EB
 10
-1.18292
 20
0.111628
 30
0.000000
  70
    32
  0
VERTEX
  8
0
  5
2EC
 10
-1.18307
 20
0.111443
 30
0.000000
  70
    32
  0
VERTEX
  8
0
  5
2ED
 10
-1.18322
 20
0.111256
 30
0.000000
  70
    32
  0
VERTEX
  8
0
  5
2EE
 10
-1.18337
 20
0.111068
 30
0.000000
  70
    32
  0
VERTEX
  8
0
  5
2EF
 10
-1.18351
 20
0.110877
 30
0.000000
  70
    32
  0
VERTEX
  8
0
  5
2F0
 10
-1.18365
 20
0.110685
 30
0.000000
  70
    32
  0
VERTEX
  8
0
  5
2F1
 10
-1.18380
 20
0.110491
 30
0.000000
  70
    32
  0
VERTEX
  8
0
  5
2F2
 10
-1.18393
 20
0.110295
 30
0.000000
  70
    32
  0
VERTEX
  8
0
  5
2F3
 10
-1.18407
 20
0.110098
 30
0.000000
  70
    32
  0
VERTEX
  8
0
  5
2F4
 10
-1.18420
 20
0.109899
 30
0.000000
  70
    32
  0
VERTEX
  8
0
  5
2F5
 10
-1.18434
 20
0.109698
 30
0.000000
  70
    32
  0
VERTEX
  8
0
  5
2F6
 10
-1.18447
 20
0.109495
 30
0.000000
  70
    32
  0
VERTEX
  8
0
  5
2F7
 10
-1.18459
 20
0.109291
 30
0.000000
  70
    32
  0
VERTEX
  8
0
  5
2F8
 10
-1.18472
 20
0.109085
 30
0.000000
  70
    32
  0
VERTEX
  8
0
  5
2F9
 10
-1.18484
 20
0.108878
 30
0.000000
  70
    32
  0
VERTEX
  8
0
  5
2FA
 10
-1.18496
 20
0.108669
 30
0.000000
  70
    32
  0
VERTEX
  8
0
  5
2FB
 10
-1.18508
 20
0.108458
 30
0.000000
  70
    32
  0
VERTEX
  8
0
  5
2FC
 10
-1.18519
 20
0.108246
 30
0.000000
  70
    32
  0
VERTEX
  8
0
  5
2FD
 10
-1.18530
 20
0.108032
 30
0.000000
  70
    32
  0
VERTEX
  8
0
  5
2FE
 10
-1.18541
 20
0.107817
 30
0.000000
  70
    32
  0
VERTEX
  8
0
  5
2FF
 10
-1.18552
 20
0.107600
 30
0.000000
  70
    32
  0
VERTEX
  8
0
  5
300
 10
-1.18562
 20
0.107382
 30
0.000000
  70
    32
  0
VERTEX
  8
0
  5
301
 10
-1.18573
 20
0.107162
 30
0.000000
  70
    32
  0
VERTEX
  8
0
  5
302
 10
-1.18583
 20
0.106941
 30
0.000000
  70
    32
  0
VERTEX
  8
0
  5
303
 10
-1.18592
 20
0.106718
 30
0.000000
  70
    32
  0
VERTEX
  8
0
  5
304
 10
-1.18602
 20
0.106494
 30
0.000000
  70
    32
  0
VERTEX
  8
0
  5
305
 10
-1.18611
 20
0.106269
 30
0.000000
  70
    32
  0
VERTEX
  8
0
  5
306
 10
-1.18620
 20
0.106042
 30
0.000000
  70
    32
  0
VERTEX
  8
0
  5
307
 10
-1.18628
 20
0.105814
 30
0.000000
  70
    32
  0
VERTEX
  8
0
  5
308
 10
-1.18636
 20
0.105585
 30
0.000000
  70
    32
  0
VERTEX
  8
0
  5
309
 10
-1.18644
 20
0.105354
 30
0.000000
  70
    32
  0
VERTEX
  8
0
  5
30A
 10
-1.18652
 20
0.105122
 30
0.000000
  70
    32
  0
VERTEX
  8
0
  5
30B
 10
-1.18660
 20
0.104889
 30
0.000000
  70
    32
  0
VERTEX
  8
0
  5
30C
 10
-1.18667
 20
0.104654
 30
0.000000
  70
    32
  0
VERTEX
  8
0
  5
30D
 10
-1.18674
 20
0.104418
 30
0.000000
  70
    32
  0
VERTEX
  8
0
  5
30E
 10
-1.18680
 20
0.104181
 30
0.000000
  70
    32
  0
VERTEX
  8
0
  5
30F
 10
-1.18687
 20
0.103943
 30
0.000000
  70
    32
  0
VERTEX
  8
0
  5
310
 10
-1.18693
 20
0.103704
 30
0.000000
  70
    32
  0
VERTEX
  8
0
  5
311
 10
-1.18699
 20
0.103464
 30
0.000000
  70
    32
  0
VERTEX
  8
0
  5
312
 10
-1.18704
 20
0.103222
 30
0.000000
  70
    32
  0
VERTEX
  8
0
  5
313
 10
-1.18709
 20
0.102979
 30
0.000000
  70
    32
  0
VERTEX
  8
0
  5
314
 10
-1.18714
 20
0.102736
 30
0.000000
  70
    32
  0
VERTEX
  8
0
  5
315
 10
-1.18719
 20
0.102491
 30
0.000000
  70
    32
  0
VERTEX
  8
0
  5
316
 10
-1.18723
 20
0.102245
 30
0.000000
  70
    32
  0
VERTEX
  8
0
  5
317
 10
-1.18727
 20
0.101998
 30
0.000000
  70
    32
  0
VERTEX
  8
0
  5
318
 10
-1.18731
 20
0.101750
 30
0.000000
  70
    32
  0
VERTEX
  8
0
  5
319
 10
-1.18734
 20
0.101501
 30
0.000000
  70
    32
  0
VERTEX
  8
0
  5
31A
 10
-1.18737
 20
0.101251
 30
0.000000
  70
    32
  0
VERTEX
  8
0
  5
31B
 10
-1.18740
 20
0.101001
 30
0.000000
  70
    32
  0
VERTEX
  8
0
  5
31C
 10
-1.18742
 20
0.100749
 30
0.000000
  70
    32
  0
VERTEX
  8
0
  5
31D
 10
-1.18744
 20
0.100496
 30
0.000000
  70
    32
  0
VERTEX
  8
0
  5
31E
 10
-1.18746
 20
0.100243
 30
0.000000
  70
    32
  0
VERTEX
  8
0
  5
31F
 10
-1.18747
 20
0.0999884
 30
0.000000
  70
    32
  0
VERTEX
  8
0
  5
320
 10
-1.18749
 20
0.0997331
 30
0.000000
  70
    32
  0
VERTEX
  8
0
  5
321
 10
-1.18749
 20
0.0994771
 30
0.000000
  70
    32
  0
VERTEX
  8
0
  5
322
 10
-1.18750
 20
0.0992202
 30
0.000000
  70
    32
  0
VERTEX
  8
0
  5
323
 10
-1.18750
 20
0.0989626
 30
0.000000
  70
    32
  0
SEQEND
  8
0
  5
324
  0
POLYLINE
  8
0
  5
325
  66
     1
 10
0.000000
 20
0.000000
 30
0.000000
  70
     8
  0
VERTEX
  8
0
  5
326
 10
-1.18750
 20
0.138550
 30
0.000000
  70
    32
  0
VERTEX
  8
0
  5
327
 10
-1.18750
 20
0.138292
 30
0.000000
  70
    32
  0
VERTEX
  8
0
  5
328
 10
-1.18749
 20
0.138035
 30
0.000000
  70
    32
  0
VERTEX
  8
0
  5
329
 10
-1.18749
 20
0.137779
 30
0.000000
  70
    32
  0
VERTEX
  8
0
  5
32A
 10
-1.18747
 20
0.137523
 30
0.000000
  70
    32
  0
VERTEX
  8
0
  5
32B
 10
-1.18746
 20
0.137269
 30
0.000000
  70
    32
  0
VERTEX
  8
0
  5
32C
 10
-1.18744
 20
0.137015
 30
0.000000
  70
    32
  0
VERTEX
  8
0
  5
32D
 10
-1.18742
 20
0.136762
 30
0.000000
  70
    32
  0
VERTEX
  8
0
  5
32E
 10
-1.18740
 20
0.136510
 30
0.000000
  70
    32
  0
VERTEX
  8
0
  5
32F
 10
-1.18737
 20
0.136259
 30
0.000000
  70
    32
  0
VERTEX
  8
0
  5
330
 10
-1.18734
 20
0.136009
 30
0.000000
  70
    32
  0
VERTEX
  8
0
  5
331
 10
-1.18731
 20
0.135760
 30
0.000000
  70
    32
  0
VERTEX
  8
0
  5
332
 10
-1.18727
 20
0.135512
 30
0.000000
  70
    32
  0
VERTEX
  8
0
  5
333
 10
-1.18723
 20
0.135265
 30
0.000000
  70
    32
  0
VERTEX
  8
0
  5
334
 10
-1.18719
 20
0.135019
 30
0.000000
  70
    32
  0
VERTEX
  8
0
  5
335
 10
-1.18714
 20
0.134774
 30
0.000000
  70
    32
  0
VERTEX
  8
0
  5
336
 10
-1.18709
 20
0.134530
 30
0.000000
  70
    32
  0
VERTEX
  8
0
  5
337
 10
-1.18704
 20
0.134287
 30
0.000000
  70
    32
  0
VERTEX
  8
0
  5
338
 10
-1.18699
 20
0.134045
 30
0.000000
  70
    32
  0
VERTEX
  8
0
  5
339
 10
-1.18693
 20
0.133804
 30
0.000000
  70
    32
  0
VERTEX
  8
0
  5
33A
 10
-1.18687
 20
0.133565
 30
0.000000
  70
    32
  0
VERTEX
  8
0
  5
33B
 10
-1.18680
 20
0.133327
 30
0.000000
  70
    32
  0
VERTEX
  8
0
  5
33C
 10
-1.18674
 20
0.133090
 30
0.000000
  70
    32
  0
VERTEX
  8
0
  5
33D
 10
-1.18667
 20
0.132854
 30
0.000000
  70
    32
  0
VERTEX
  8
0
  5
33E
 10
-1.18660
 20
0.132619
 30
0.000000
  70
    32
  0
VERTEX
  8
0
  5
33F
 10
-1.18652
 20
0.132386
 30
0.000000
  70
    32
  0
VERTEX
  8
0
  5
340
 10
-1.18644
 20
0.132154
 30
0.000000
  70
    32
  0
VERTEX
  8
0
  5
341
 10
-1.18636
 20
0.131923
 30
0.000000
  70
    32
  0
VERTEX
  8
0
  5
342
 10
-1.18628
 20
0.131693
 30
0.000000
  70
    32
  0
VERTEX
  8
0
  5
343
 10
-1.18619
 20
0.131465
 30
0.000000
  70
    32
  0
VERTEX
  8
0
  5
344
 10
-1.18611
 20
0.131238
 30
0.000000
  70
    32
  0
VERTEX
  8
0
  5
345
 10
-1.18601
 20
0.131013
 30
0.000000
  70
    32
  0
VERTEX
  8
0
  5
346
 10
-1.18592
 20
0.130789
 30
0.000000
  70
    32
  0
VERTEX
  8
0
  5
347
 10
-1.18582
 20
0.130566
 30
0.000000
  70
    32
  0
VERTEX
  8
0
  5
348
 10
-1.18572
 20
0.130345
 30
0.000000
  70
    32
  0
VERTEX
  8
0
  5
349
 10
-1.18562
 20
0.130125
 30
0.000000
  70
    32
  0
VERTEX
  8
0
  5
34A
 10
-1.18552
 20
0.129907
 30
0.000000
  70
    32
  0
VERTEX
  8
0
  5
34B
 10
-1.18541
 20
0.129690
 30
0.000000
  70
    32
  0
VERTEX
  8
0
  5
34C
 10
-1.18530
 20
0.129475
 30
0.000000
  70
    32
  0
VERTEX
  8
0
  5
34D
 10
-1.18519
 20
0.129261
 30
0.000000
  70
    32
  0
VERTEX
  8
0
  5
34E
 10
-1.18507
 20
0.129049
 30
0.000000
  70
    32
  0
VERTEX
  8
0
  5
34F
 10
-1.18496
 20
0.128838
 30
0.000000
  70
    32
  0
VERTEX
  8
0
  5
350
 10
-1.18484
 20
0.128629
 30
0.000000
  70
    32
  0
VERTEX
  8
0
  5
351
 10
-1.18472
 20
0.128421
 30
0.000000
  70
    32
  0
VERTEX
  8
0
  5
352
 10
-1.18459
 20
0.128216
 30
0.000000
  70
    32
  0
VERTEX
  8
0
  5
353
 10
-1.18446
 20
0.128011
 30
0.000000
  70
    32
  0
VERTEX
  8
0
  5
354
 10
-1.18433
 20
0.127809
 30
0.000000
  70
    32
  0
VERTEX
  8
0
  5
355
 10
-1.18420
 20
0.127608
 30
0.000000
  70
    32
  0
VERTEX
  8
0
  5
356
 10
-1.18407
 20
0.127409
 30
0.000000
  70
    32
  0
VERTEX
  8
0
  5
357
 10
-1.18393
 20
0.127212
 30
0.000000
  70
    32
  0
VERTEX
  8
0
  5
358
 10
-1.18379
 20
0.127016
 30
0.000000
  70
    32
  0
VERTEX
  8
0
  5
359
 10
-1.18365
 20
0.126822
 30
0.000000
  70
    32
  0
VERTEX
  8
0
  5
35A
 10
-1.18351
 20
0.126630
 30
0.000000
  70
    32
  0
VERTEX
  8
0
  5
35B
 10
-1.18336
 20
0.126440
 30
0.000000
  70
    32
  0
VERTEX
  8
0
  5
35C
 10
-1.18322
 20
0.126251
 30
0.000000
  70
    32
  0
VERTEX
  8
0
  5
35D
 10
-1.18307
 20
0.126065
 30
0.000000
  70
    32
  0
VERTEX
  8
0
  5
35E
 10
-1.18291
 20
0.125880
 30
0.000000
  70
    32
  0
VERTEX
  8
0
  5
35F
 10
-1.18276
 20
0.125697
 30
0.000000
  70
    32
  0
VERTEX
  8
0
  5
360
 10
-1.18260
 20
0.125516
 30
0.000000
  70
    32
  0
VERTEX
  8
0
  5
361
 10
-1.18244
 20
0.125337
 30
0.000000
  70
    32
  0
VERTEX
  8
0
  5
362
 10
-1.18228
 20
0.125160
 30
0.000000
  70
    32
  0
VERTEX
  8
0
  5
363
 10
-1.18212
 20
0.124985
 30
0.000000
  70
    32
  0
VERTEX
  8
0
  5
364
 10
-1.18195
 20
0.124812
 30
0.000000
  70
    32
  0
VERTEX
  8
0
  5
365
 10
-1.18179
 20
0.124640
 30
0.000000
  70
    32
  0
VERTEX
  8
0
  5
366
 10
-1.18162
 20
0.124471
 30
0.000000
  70
    32
  0
VERTEX
  8
0
  5
367
 10
-1.18145
 20
0.124304
 30
0.000000
  70
    32
  0
VERTEX
  8
0
  5
368
 10
-1.18127
 20
0.124139
 30
0.000000
  70
    32
  0
VERTEX
  8
0
  5
369
 10
-1.18110
 20
0.123976
 30
0.000000
  70
    32
  0
VERTEX
  8
0
  5
36A
 10
-1.18092
 20
0.123815
 30
0.000000
  70
    32
  0
VERTEX
  8
0
  5
36B
 10
-1.18074
 20
0.123657
 30
0.000000
  70
    32
  0
VERTEX
  8
0
  5
36C
 10
-1.18056
 20
0.123500
 30
0.000000
  70
    32
  0
VERTEX
  8
0
  5
36D
 10
-1.18038
 20
0.123346
 30
0.000000
  70
    32
  0
VERTEX
  8
0
  5
36E
 10
-1.18019
 20
0.123194
 30
0.000000
  70
    32
  0
VERTEX
  8
0
  5
36F
 10
-1.18001
 20
0.123044
 30
0.000000
  70
    32
  0
VERTEX
  8
0
  5
370
 10
-1.17982
 20
0.122896
 30
0.000000
  70
    32
  0
VERTEX
  8
0
  5
371
 10
-1.17963
 20
0.122750
 30
0.000000
  70
    32
  0
VERTEX
  8
0
  5
372
 10
-1.17944
 20
0.122607
 30
0.000000
  70
    32
  0
VERTEX
  8
0
  5
373
 10
-1.17924
 20
0.122466
 30
0.000000
  70
    32
  0
VERTEX
  8
0
  5
374
 10
-1.17905
 20
0.122327
 30
0.000000
  70
    32
  0
VERTEX
  8
0
  5
375
 10
-1.17885
 20
0.122191
 30
0.000000
  70
    32
  0
VERTEX
  8
0
  5
376
 10
-1.17865
 20
0.122057
 30
0.000000
  70
    32
  0
VERTEX
  8
0
  5
377
 10
-1.17845
 20
0.121925
 30
0.000000
  70
    32
  0
VERTEX
  8
0
  5
378
 10
-1.17825
 20
0.121796
 30
0.000000
  70
    32
  0
VERTEX
  8
0
  5
379
 10
-1.17804
 20
0.121669
 30
0.000000
  70
    32
  0
VERTEX
  8
0
  5
37A
 10
-1.17784
 20
0.121545
 30
0.000000
  70
    32
  0
VERTEX
  8
0
  5
37B
 10
-1.17763
 20
0.121422
 30
0.000000
  70
    32
  0
VERTEX
  8
0
  5
37C
 10
-1.17742
 20
0.121303
 30
0.000000
  70
    32
  0
VERTEX
  8
0
  5
37D
 10
-1.17721
 20
0.121186
 30
0.000000
  70
    32
  0
VERTEX
  8
0
  5
37E
 10
-1.17700
 20
0.121071
 30
0.000000
  70
    32
  0
VERTEX
  8
0
  5
37F
 10
-1.17678
 20
0.120959
 30
0.000000
  70
    32
  0
VERTEX
  8
0
  5
380
 10
-1.17657
 20
0.120850
 30
0.000000
  70
    32
  0
VERTEX
  8
0
  5
381
 10
-1.17635
 20
0.120743
 30
0.000000
  70
    32
  0
VERTEX
  8
0
  5
382
 10
-1.17613
 20
0.120638
 30
0.000000
  70
    32
  0
VERTEX
  8
0
  5
383
 10
-1.17591
 20
0.120536
 30
0.000000
  70
    32
  0
VERTEX
  8
0
  5
384
 10
-1.17569
 20
0.120437
 30
0.000000
  70
    32
  0
VERTEX
  8
0
  5
385
 10
-1.17547
 20
0.120341
 30
0.000000
  70
    32
  0
VERTEX
  8
0
  5
386
 10
-1.17524
 20
0.120247
 30
0.000000
  70
    32
  0
VERTEX
  8
0
  5
387
 10
-1.17502
 20
0.120156
 30
0.000000
  70
    32
  0
VERTEX
  8
0
  5
388
 10
-1.17479
 20
0.120067
 30
0.000000
  70
    32
  0
VERTEX
  8
0
  5
389
 10
-1.17456
 20
0.119981
 30
0.000000
  70
    32
  0
VERTEX
  8
0
  5
38A
 10
-1.17434
 20
0.119898
 30
0.000000
  70
    32
  0
VERTEX
  8
0
  5
38B
 10
-1.17410
 20
0.119818
 30
0.000000
  70
    32
  0
VERTEX
  8
0
  5
38C
 10
-1.17387
 20
0.119741
 30
0.000000
  70
    32
  0
VERTEX
  8
0
  5
38D
 10
-1.17364
 20
0.119666
 30
0.000000
  70
    32
  0
VERTEX
  8
0
  5
38E
 10
-1.17340
 20
0.119594
 30
0.000000
  70
    32
  0
VERTEX
  8
0
  5
38F
 10
-1.17317
 20
0.119525
 30
0.000000
  70
    32
  0
VERTEX
  8
0
  5
390
 10
-1.17293
 20
0.119459
 30
0.000000
  70
    32
  0
VERTEX
  8
0
  5
391
 10
-1.17269
 20
0.119395
 30
0.000000
  70
    32
  0
VERTEX
  8
0
  5
392
 10
-1.17245
 20
0.119335
 30
0.000000
  70
    32
  0
VERTEX
  8
0
  5
393
 10
-1.17221
 20
0.119277
 30
0.000000
  70
    32
  0
VERTEX
  8
0
  5
394
 10
-1.17197
 20
0.119223
 30
0.000000
  70
    32
  0
VERTEX
  8
0
  5
395
 10
-1.17173
 20
0.119171
 30
0.000000
  70
    32
  0
VERTEX
  8
0
  5
396
 10
-1.17149
 20
0.119123
 30
0.000000
  70
    32
  0
VERTEX
  8
0
  5
397
 10
-1.17124
 20
0.119077
 30
0.000000
  70
    32
  0
VERTEX
  8
0
  5
398
 10
-1.17100
 20
0.119034
 30
0.000000
  70
    32
  0
VERTEX
  8
0
  5
399
 10
-1.17075
 20
0.118995
 30
0.000000
  70
    32
  0
VERTEX
  8
0
  5
39A
 10
-1.17050
 20
0.118958
 30
0.000000
  70
    32
  0
VERTEX
  8
0
  5
39B
 10
-1.17025
 20
0.118925
 30
0.000000
  70
    32
  0
VERTEX
  8
0
  5
39C
 10
-1.17000
 20
0.118894
 30
0.000000
  70
    32
  0
VERTEX
  8
0
  5
39D
 10
-1.16975
 20
0.118867
 30
0.000000
  70
    32
  0
VERTEX
  8
0
  5
39E
 10
-1.16950
 20
0.118843
 30
0.000000
  70
    32
  0
VERTEX
  8
0
  5
39F
 10
-1.16925
 20
0.118822
 30
0.000000
  70
    32
  0
VERTEX
  8
0
  5
3A0
 10
-1.16899
 20
0.118804
 30
0.000000
  70
    32
  0
VERTEX
  8
0
  5
3A1
 10
-1.16874
 20
0.118789
 30
0.000000
  70
    32
  0
VERTEX
  8
0
  5
3A2
 10
-1.16848
 20
0.118778
 30
0.000000
  70
    32
  0
VERTEX
  8
0
  5
3A3
 10
-1.16823
 20
0.118770
 30
0.000000
  70
    32
  0
VERTEX
  8
0
  5
3A4
 10
-1.16797
 20
0.118765
 30
0.000000
  70
    32
  0
VERTEX
  8
0
  5
3A5
 10
-1.16771
 20
0.118763
 30
0.000000
  70
    32
  0
SEQEND
  8
0
  5
3A6
  0
POLYLINE
  8
0
  5
3A7
  66
     1
 10
0.000000
 20
0.000000
 30
0.000000
  70
     8
  0
VERTEX
  8
0
  5
3A8
 10
-1.18750
 20
5.02604
 30
0.000000
  70
    32
  0
VERTEX
  8
0
  5
3A9
 10
-1.18750
 20
5.02579
 30
0.000000
  70
    32
  0
VERTEX
  8
0
  5
3AA
 10
-1.18749
 20
5.02553
 30
0.000000
  70
    32
  0
VERTEX
  8
0
  5
3AB
 10
-1.18749
 20
5.02527
 30
0.000000
  70
    32
  0
VERTEX
  8
0
  5
3AC
 10
-1.18747
 20
5.02502
 30
0.000000
  70
    32
  0
VERTEX
  8
0
  5
3AD
 10
-1.18746
 20
5.02476
 30
0.000000
  70
    32
  0
VERTEX
  8
0
  5
3AE
 10
-1.18744
 20
5.02451
 30
0.000000
  70
    32
  0
VERTEX
  8
0
  5
3AF
 10
-1.18742
 20
5.02426
 30
0.000000
  70
    32
  0
VERTEX
  8
0
  5
3B0
 10
-1.18740
 20
5.02401
 30
0.000000
  70
    32
  0
VERTEX
  8
0
  5
3B1
 10
-1.18737
 20
5.02375
 30
0.000000
  70
    32
  0
VERTEX
  8
0
  5
3B2
 10
-1.18734
 20
5.02350
 30
0.000000
  70
    32
  0
VERTEX
  8
0
  5
3B3
 10
-1.18731
 20
5.02326
 30
0.000000
  70
    32
  0
VERTEX
  8
0
  5
3B4
 10
-1.18727
 20
5.02301
 30
0.000000
  70
    32
  0
VERTEX
  8
0
  5
3B5
 10
-1.18723
 20
5.02276
 30
0.000000
  70
    32
  0
VERTEX
  8
0
  5
3B6
 10
-1.18719
 20
5.02251
 30
0.000000
  70
    32
  0
VERTEX
  8
0
  5
3B7
 10
-1.18714
 20
5.02227
 30
0.000000
  70
    32
  0
VERTEX
  8
0
  5
3B8
 10
-1.18709
 20
5.02203
 30
0.000000
  70
    32
  0
VERTEX
  8
0
  5
3B9
 10
-1.18704
 20
5.02178
 30
0.000000
  70
    32
  0
VERTEX
  8
0
  5
3BA
 10
-1.18699
 20
5.02154
 30
0.000000
  70
    32
  0
VERTEX
  8
0
  5
3BB
 10
-1.18693
 20
5.02130
 30
0.000000
  70
    32
  0
VERTEX
  8
0
  5
3BC
 10
-1.18687
 20
5.02106
 30
0.000000
  70
    32
  0
VERTEX
  8
0
  5
3BD
 10
-1.18680
 20
5.02082
 30
0.000000
  70
    32
  0
VERTEX
  8
0
  5
3BE
 10
-1.18674
 20
5.02059
 30
0.000000
  70
    32
  0
VERTEX
  8
0
  5
3BF
 10
-1.18667
 20
5.02035
 30
0.000000
  70
    32
  0
VERTEX
  8
0
  5
3C0
 10
-1.18660
 20
5.02012
 30
0.000000
  70
    32
  0
VERTEX
  8
0
  5
3C1
 10
-1.18652
 20
5.01988
 30
0.000000
  70
    32
  0
VERTEX
  8
0
  5
3C2
 10
-1.18644
 20
5.01965
 30
0.000000
  70
    32
  0
VERTEX
  8
0
  5
3C3
 10
-1.18636
 20
5.01942
 30
0.000000
  70
    32
  0
VERTEX
  8
0
  5
3C4
 10
-1.18628
 20
5.01919
 30
0.000000
  70
    32
  0
VERTEX
  8
0
  5
3C5
 10
-1.18619
 20
5.01896
 30
0.000000
  70
    32
  0
VERTEX
  8
0
  5
3C6
 10
-1.18611
 20
5.01874
 30
0.000000
  70
    32
  0
VERTEX
  8
0
  5
3C7
 10
-1.18601
 20
5.01851
 30
0.000000
  70
    32
  0
VERTEX
  8
0
  5
3C8
 10
-1.18592
 20
5.01829
 30
0.000000
  70
    32
  0
VERTEX
  8
0
  5
3C9
 10
-1.18582
 20
5.01806
 30
0.000000
  70
    32
  0
VERTEX
  8
0
  5
3CA
 10
-1.18572
 20
5.01784
 30
0.000000
  70
    32
  0
VERTEX
  8
0
  5
3CB
 10
-1.18562
 20
5.01762
 30
0.000000
  70
    32
  0
VERTEX
  8
0
  5
3CC
 10
-1.18552
 20
5.01740
 30
0.000000
  70
    32
  0
VERTEX
  8
0
  5
3CD
 10
-1.18541
 20
5.01719
 30
0.000000
  70
    32
  0
VERTEX
  8
0
  5
3CE
 10
-1.18530
 20
5.01697
 30
0.000000
  70
    32
  0
VERTEX
  8
0
  5
3CF
 10
-1.18519
 20
5.01676
 30
0.000000
  70
    32
  0
VERTEX
  8
0
  5
3D0
 10
-1.18507
 20
5.01655
 30
0.000000
  70
    32
  0
VERTEX
  8
0
  5
3D1
 10
-1.18496
 20
5.01633
 30
0.000000
  70
    32
  0
VERTEX
  8
0
  5
3D2
 10
-1.18484
 20
5.01613
 30
0.000000
  70
    32
  0
VERTEX
  8
0
  5
3D3
 10
-1.18472
 20
5.01592
 30
0.000000
  70
    32
  0
VERTEX
  8
0
  5
3D4
 10
-1.18459
 20
5.01571
 30
0.000000
  70
    32
  0
VERTEX
  8
0
  5
3D5
 10
-1.18446
 20
5.01551
 30
0.000000
  70
    32
  0
VERTEX
  8
0
  5
3D6
 10
-1.18433
 20
5.01531
 30
0.000000
  70
    32
  0
VERTEX
  8
0
  5
3D7
 10
-1.18420
 20
5.01510
 30
0.000000
  70
    32
  0
VERTEX
  8
0
  5
3D8
 10
-1.18407
 20
5.01491
 30
0.000000
  70
    32
  0
VERTEX
  8
0
  5
3D9
 10
-1.18393
 20
5.01471
 30
0.000000
  70
    32
  0
VERTEX
  8
0
  5
3DA
 10
-1.18379
 20
5.01451
 30
0.000000
  70
    32
  0
VERTEX
  8
0
  5
3DB
 10
-1.18365
 20
5.01432
 30
0.000000
  70
    32
  0
VERTEX
  8
0
  5
3DC
 10
-1.18351
 20
5.01413
 30
0.000000
  70
    32
  0
VERTEX
  8
0
  5
3DD
 10
-1.18336
 20
5.01394
 30
0.000000
  70
    32
  0
VERTEX
  8
0
  5
3DE
 10
-1.18322
 20
5.01375
 30
0.000000
  70
    32
  0
VERTEX
  8
0
  5
3DF
 10
-1.18307
 20
5.01356
 30
0.000000
  70
    32
  0
VERTEX
  8
0
  5
3E0
 10
-1.18291
 20
5.01338
 30
0.000000
  70
    32
  0
VERTEX
  8
0
  5
3E1
 10
-1.18276
 20
5.01319
 30
0.000000
  70
    32
  0
VERTEX
  8
0
  5
3E2
 10
-1.18260
 20
5.01301
 30
0.000000
  70
    32
  0
VERTEX
  8
0
  5
3E3
 10
-1.18244
 20
5.01283
 30
0.000000
  70
    32
  0
VERTEX
  8
0
  5
3E4
 10
-1.18228
 20
5.01266
 30
0.000000
  70
    32
  0
VERTEX
  8
0
  5
3E5
 10
-1.18212
 20
5.01248
 30
0.000000
  70
    32
  0
VERTEX
  8
0
  5
3E6
 10
-1.18195
 20
5.01231
 30
0.000000
  70
    32
  0
VERTEX
  8
0
  5
3E7
 10
-1.18179
 20
5.01214
 30
0.000000
  70
    32
  0
VERTEX
  8
0
  5
3E8
 10
-1.18162
 20
5.01197
 30
0.000000
  70
    32
  0
VERTEX
  8
0
  5
3E9
 10
-1.18145
 20
5.01180
 30
0.000000
  70
    32
  0
VERTEX
  8
0
  5
3EA
 10
-1.18127
 20
5.01164
 30
0.000000
  70
    32
  0
VERTEX
  8
0
  5
3EB
 10
-1.18110
 20
5.01147
 30
0.000000
  70
    32
  0
VERTEX
  8
0
  5
3EC
 10
-1.18092
 20
5.01131
 30
0.000000
  70
    32
  0
VERTEX
  8
0
  5
3ED
 10
-1.18074
 20
5.01115
 30
0.000000
  70
    32
  0
VERTEX
  8
0
  5
3EE
 10
-1.18056
 20
5.01100
 30
0.000000
  70
    32
  0
VERTEX
  8
0
  5
3EF
 10
-1.18038
 20
5.01084
 30
0.000000
  70
    32
  0
VERTEX
  8
0
  5
3F0
 10
-1.18019
 20
5.01069
 30
0.000000
  70
    32
  0
VERTEX
  8
0
  5
3F1
 10
-1.18001
 20
5.01054
 30
0.000000
  70
    32
  0
VERTEX
  8
0
  5
3F2
 10
-1.17982
 20
5.01039
 30
0.000000
  70
    32
  0
VERTEX
  8
0
  5
3F3
 10
-1.17963
 20
5.01025
 30
0.000000
  70
    32
  0
VERTEX
  8
0
  5
3F4
 10
-1.17944
 20
5.01010
 30
0.000000
  70
    32
  0
VERTEX
  8
0
  5
3F5
 10
-1.17924
 20
5.00996
 30
0.000000
  70
    32
  0
VERTEX
  8
0
  5
3F6
 10
-1.17905
 20
5.00982
 30
0.000000
  70
    32
  0
VERTEX
  8
0
  5
3F7
 10
-1.17885
 20
5.00969
 30
0.000000
  70
    32
  0
VERTEX
  8
0
  5
3F8
 10
-1.17865
 20
5.00955
 30
0.000000
  70
    32
  0
VERTEX
  8
0
  5
3F9
 10
-1.17845
 20
5.00942
 30
0.000000
  70
    32
  0
VERTEX
  8
0
  5
3FA
 10
-1.17825
 20
5.00929
 30
0.000000
  70
    32
  0
VERTEX
  8
0
  5
3FB
 10
-1.17804
 20
5.00916
 30
0.000000
  70
    32
  0
VERTEX
  8
0
  5
3FC
 10
-1.17784
 20
5.00904
 30
0.000000
  70
    32
  0
VERTEX
  8
0
  5
3FD
 10
-1.17763
 20
5.00892
 30
0.000000
  70
    32
  0
VERTEX
  8
0
  5
3FE
 10
-1.17742
 20
5.00880
 30
0.000000
  70
    32
  0
VERTEX
  8
0
  5
3FF
 10
-1.17721
 20
5.00868
 30
0.000000
  70
    32
  0
VERTEX
  8
0
  5
400
 10
-1.17700
 20
5.00857
 30
0.000000
  70
    32
  0
VERTEX
  8
0
  5
401
 10
-1.17678
 20
5.00845
 30
0.000000
  70
    32
  0
VERTEX
  8
0
  5
402
 10
-1.17657
 20
5.00834
 30
0.000000
  70
    32
  0
VERTEX
  8
0
  5
403
 10
-1.17635
 20
5.00824
 30
0.000000
  70
    32
  0
VERTEX
  8
0
  5
404
 10
-1.17613
 20
5.00813
 30
0.000000
  70
    32
  0
VERTEX
  8
0
  5
405
 10
-1.17591
 20
5.00803
 30
0.000000
  70
    32
  0
VERTEX
  8
0
  5
406
 10
-1.17569
 20
5.00793
 30
0.000000
  70
    32
  0
VERTEX
  8
0
  5
407
 10
-1.17547
 20
5.00784
 30
0.000000
  70
    32
  0
VERTEX
  8
0
  5
408
 10
-1.17524
 20
5.00774
 30
0.000000
  70
    32
  0
VERTEX
  8
0
  5
409
 10
-1.17502
 20
5.00765
 30
0.000000
  70
    32
  0
VERTEX
  8
0
  5
40A
 10
-1.17479
 20
5.00756
 30
0.000000
  70
    32
  0
VERTEX
  8
0
  5
40B
 10
-1.17456
 20
5.00748
 30
0.000000
  70
    32
  0
VERTEX
  8
0
  5
40C
 10
-1.17434
 20
5.00739
 30
0.000000
  70
    32
  0
VERTEX
  8
0
  5
40D
 10
-1.17410
 20
5.00731
 30
0.000000
  70
    32
  0
VERTEX
  8
0
  5
40E
 10
-1.17387
 20
5.00724
 30
0.000000
  70
    32
  0
VERTEX
  8
0
  5
40F
 10
-1.17364
 20
5.00716
 30
0.000000
  70
    32
  0
VERTEX
  8
0
  5
410
 10
-1.17340
 20
5.00709
 30
0.000000
  70
    32
  0
VERTEX
  8
0
  5
411
 10
-1.17317
 20
5.00702
 30
0.000000
  70
    32
  0
VERTEX
  8
0
  5
412
 10
-1.17293
 20
5.00695
 30
0.000000
  70
    32
  0
VERTEX
  8
0
  5
413
 10
-1.17269
 20
5.00689
 30
0.000000
  70
    32
  0
VERTEX
  8
0
  5
414
 10
-1.17245
 20
5.00683
 30
0.000000
  70
    32
  0
VERTEX
  8
0
  5
415
 10
-1.17221
 20
5.00677
 30
0.000000
  70
    32
  0
VERTEX
  8
0
  5
416
 10
-1.17197
 20
5.00672
 30
0.000000
  70
    32
  0
VERTEX
  8
0
  5
417
 10
-1.17173
 20
5.00667
 30
0.000000
  70
    32
  0
VERTEX
  8
0
  5
418
 10
-1.17149
 20
5.00662
 30
0.000000
  70
    32
  0
VERTEX
  8
0
  5
419
 10
-1.17124
 20
5.00657
 30
0.000000
  70
    32
  0
VERTEX
  8
0
  5
41A
 10
-1.17100
 20
5.00653
 30
0.000000
  70
    32
  0
VERTEX
  8
0
  5
41B
 10
-1.17075
 20
5.00649
 30
0.000000
  70
    32
  0
VERTEX
  8
0
  5
41C
 10
-1.17050
 20
5.00645
 30
0.000000
  70
    32
  0
VERTEX
  8
0
  5
41D
 10
-1.17025
 20
5.00642
 30
0.000000
  70
    32
  0
VERTEX
  8
0
  5
41E
 10
-1.17000
 20
5.00639
 30
0.000000
  70
    32
  0
VERTEX
  8
0
  5
41F
 10
-1.16975
 20
5.00636
 30
0.000000
  70
    32
  0
VERTEX
  8
0
  5
420
 10
-1.16950
 20
5.00634
 30
0.000000
  70
    32
  0
VERTEX
  8
0
  5
421
 10
-1.16925
 20
5.00632
 30
0.000000
  70
    32
  0
VERTEX
  8
0
  5
422
 10
-1.16899
 20
5.00630
 30
0.000000
  70
    32
  0
VERTEX
  8
0
  5
423
 10
-1.16874
 20
5.00628
 30
0.000000
  70
    32
  0
VERTEX
  8
0
  5
424
 10
-1.16848
 20
5.00627
 30
0.000000
  70
    32
  0
VERTEX
  8
0
  5
425
 10
-1.16823
 20
5.00626
 30
0.000000
  70
    32
  0
VERTEX
  8
0
  5
426
 10
-1.16797
 20
5.00626
 30
0.000000
  70
    32
  0
VERTEX
  8
0
  5
427
 10
-1.16771
 20
5.00626
 30
0.000000
  70
    32
  0
SEQEND
  8
0
  5
428
  0
POLYLINE
  8
0
  5
429
  66
     1
 10
0.000000
 20
0.000000
 30
0.000000
  70
     8
  0
VERTEX
  8
0
  5
42A
 10
-1.16771
 20
5.12500
 30
0.000000
  70
    32
  0
VERTEX
  8
0
  5
42B
 10
-1.16797
 20
5.12500
 30
0.000000
  70
    32
  0
VERTEX
  8
0
  5
42C
 10
-1.16823
 20
5.12499
 30
0.000000
  70
    32
  0
VERTEX
  8
0
  5
42D
 10
-1.16848
 20
5.12499
 30
0.000000
  70
    32
  0
VERTEX
  8
0
  5
42E
 10
-1.16874
 20
5.12497
 30
0.000000
  70
    32
  0
VERTEX
  8
0
  5
42F
 10
-1.16899
 20
5.12496
 30
0.000000
  70
    32
  0
VERTEX
  8
0
  5
430
 10
-1.16925
 20
5.12494
 30
0.000000
  70
    32
  0
VERTEX
  8
0
  5
431
 10
-1.16950
 20
5.12492
 30
0.000000
  70
    32
  0
VERTEX
  8
0
  5
432
 10
-1.16975
 20
5.12490
 30
0.000000
  70
    32
  0
VERTEX
  8
0
  5
433
 10
-1.17000
 20
5.12487
 30
0.000000
  70
    32
  0
VERTEX
  8
0
  5
434
 10
-1.17025
 20
5.12484
 30
0.000000
  70
    32
  0
VERTEX
  8
0
  5
435
 10
-1.17050
 20
5.12480
 30
0.000000
  70
    32
  0
VERTEX
  8
0
  5
436
 10
-1.17075
 20
5.12477
 30
0.000000
  70
    32
  0
VERTEX
  8
0
  5
437
 10
-1.17100
 20
5.12473
 30
0.000000
  70
    32
  0
VERTEX
  8
0
  5
438
 10
-1.17124
 20
5.12469
 30
0.000000
  70
    32
  0
VERTEX
  8
0
  5
439
 10
-1.17149
 20
5.12464
 30
0.000000
  70
    32
  0
VERTEX
  8
0
  5
43A
 10
-1.17173
 20
5.12459
 30
0.000000
  70
    32
  0
VERTEX
  8
0
  5
43B
 10
-1.17197
 20
5.12454
 30
0.000000
  70
    32
  0
VERTEX
  8
0
  5
43C
 10
-1.17222
 20
5.12449
 30
0.000000
  70
    32
  0
VERTEX
  8
0
  5
43D
 10
-1.17246
 20
5.12443
 30
0.000000
  70
    32
  0
VERTEX
  8
0
  5
43E
 10
-1.17270
 20
5.12437
 30
0.000000
  70
    32
  0
VERTEX
  8
0
  5
43F
 10
-1.17293
 20
5.12430
 30
0.000000
  70
    32
  0
VERTEX
  8
0
  5
440
 10
-1.17317
 20
5.12424
 30
0.000000
  70
    32
  0
VERTEX
  8
0
  5
441
 10
-1.17341
 20
5.12417
 30
0.000000
  70
    32
  0
VERTEX
  8
0
  5
442
 10
-1.17364
 20
5.12410
 30
0.000000
  70
    32
  0
VERTEX
  8
0
  5
443
 10
-1.17387
 20
5.12402
 30
0.000000
  70
    32
  0
VERTEX
  8
0
  5
444
 10
-1.17411
 20
5.12394
 30
0.000000
  70
    32
  0
VERTEX
  8
0
  5
445
 10
-1.17434
 20
5.12386
 30
0.000000
  70
    32
  0
VERTEX
  8
0
  5
446
 10
-1.17457
 20
5.12378
 30
0.000000
  70
    32
  0
VERTEX
  8
0
  5
447
 10
-1.17480
 20
5.12369
 30
0.000000
  70
    32
  0
VERTEX
  8
0
  5
448
 10
-1.17502
 20
5.12361
 30
0.000000
  70
    32
  0
VERTEX
  8
0
  5
449
 10
-1.17525
 20
5.12351
 30
0.000000
  70
    32
  0
VERTEX
  8
0
  5
44A
 10
-1.17547
 20
5.12342
 30
0.000000
  70
    32
  0
VERTEX
  8
0
  5
44B
 10
-1.17569
 20
5.12332
 30
0.000000
  70
    32
  0
VERTEX
  8
0
  5
44C
 10
-1.17592
 20
5.12322
 30
0.000000
  70
    32
  0
VERTEX
  8
0
  5
44D
 10
-1.17614
 20
5.12312
 30
0.000000
  70
    32
  0
VERTEX
  8
0
  5
44E
 10
-1.17635
 20
5.12302
 30
0.000000
  70
    32
  0
VERTEX
  8
0
  5
44F
 10
-1.17657
 20
5.12291
 30
0.000000
  70
    32
  0
VERTEX
  8
0
  5
450
 10
-1.17679
 20
5.12280
 30
0.000000
  70
    32
  0
VERTEX
  8
0
  5
451
 10
-1.17700
 20
5.12269
 30
0.000000
  70
    32
  0
VERTEX
  8
0
  5
452
 10
-1.17721
 20
5.12257
 30
0.000000
  70
    32
  0
VERTEX
  8
0
  5
453
 10
-1.17742
 20
5.12246
 30
0.000000
  70
    32
  0
VERTEX
  8
0
  5
454
 10
-1.17763
 20
5.12234
 30
0.000000
  70
    32
  0
VERTEX
  8
0
  5
455
 10
-1.17784
 20
5.12222
 30
0.000000
  70
    32
  0
VERTEX
  8
0
  5
456
 10
-1.17804
 20
5.12209
 30
0.000000
  70
    32
  0
VERTEX
  8
0
  5
457
 10
-1.17825
 20
5.12196
 30
0.000000
  70
    32
  0
VERTEX
  8
0
  5
458
 10
-1.17845
 20
5.12183
 30
0.000000
  70
    32
  0
VERTEX
  8
0
  5
459
 10
-1.17865
 20
5.12170
 30
0.000000
  70
    32
  0
VERTEX
  8
0
  5
45A
 10
-1.17885
 20
5.12157
 30
0.000000
  70
    32
  0
VERTEX
  8
0
  5
45B
 10
-1.17905
 20
5.12143
 30
0.000000
  70
    32
  0
VERTEX
  8
0
  5
45C
 10
-1.17924
 20
5.12129
 30
0.000000
  70
    32
  0
VERTEX
  8
0
  5
45D
 10
-1.17944
 20
5.12115
 30
0.000000
  70
    32
  0
VERTEX
  8
0
  5
45E
 10
-1.17963
 20
5.12101
 30
0.000000
  70
    32
  0
VERTEX
  8
0
  5
45F
 10
-1.17982
 20
5.12086
 30
0.000000
  70
    32
  0
VERTEX
  8
0
  5
460
 10
-1.18001
 20
5.12072
 30
0.000000
  70
    32
  0
VERTEX
  8
0
  5
461
 10
-1.18020
 20
5.12057
 30
0.000000
  70
    32
  0
VERTEX
  8
0
  5
462
 10
-1.18038
 20
5.12041
 30
0.000000
  70
    32
  0
VERTEX
  8
0
  5
463
 10
-1.18056
 20
5.12026
 30
0.000000
  70
    32
  0
VERTEX
  8
0
  5
464
 10
-1.18074
 20
5.12010
 30
0.000000
  70
    32
  0
VERTEX
  8
0
  5
465
 10
-1.18092
 20
5.11994
 30
0.000000
  70
    32
  0
VERTEX
  8
0
  5
466
 10
-1.18110
 20
5.11978
 30
0.000000
  70
    32
  0
VERTEX
  8
0
  5
467
 10
-1.18128
 20
5.11962
 30
0.000000
  70
    32
  0
VERTEX
  8
0
  5
468
 10
-1.18145
 20
5.11945
 30
0.000000
  70
    32
  0
VERTEX
  8
0
  5
469
 10
-1.18162
 20
5.11929
 30
0.000000
  70
    32
  0
VERTEX
  8
0
  5
46A
 10
-1.18179
 20
5.11912
 30
0.000000
  70
    32
  0
VERTEX
  8
0
  5
46B
 10
-1.18196
 20
5.11895
 30
0.000000
  70
    32
  0
VERTEX
  8
0
  5
46C
 10
-1.18212
 20
5.11877
 30
0.000000
  70
    32
  0
VERTEX
  8
0
  5
46D
 10
-1.18228
 20
5.11860
 30
0.000000
  70
    32
  0
VERTEX
  8
0
  5
46E
 10
-1.18245
 20
5.11842
 30
0.000000
  70
    32
  0
VERTEX
  8
0
  5
46F
 10
-1.18260
 20
5.11824
 30
0.000000
  70
    32
  0
VERTEX
  8
0
  5
470
 10
-1.18276
 20
5.11806
 30
0.000000
  70
    32
  0
VERTEX
  8
0
  5
471
 10
-1.18292
 20
5.11788
 30
0.000000
  70
    32
  0
VERTEX
  8
0
  5
472
 10
-1.18307
 20
5.11769
 30
0.000000
  70
    32
  0
VERTEX
  8
0
  5
473
 10
-1.18322
 20
5.11751
 30
0.000000
  70
    32
  0
VERTEX
  8
0
  5
474
 10
-1.18337
 20
5.11732
 30
0.000000
  70
    32
  0
VERTEX
  8
0
  5
475
 10
-1.18351
 20
5.11713
 30
0.000000
  70
    32
  0
VERTEX
  8
0
  5
476
 10
-1.18365
 20
5.11694
 30
0.000000
  70
    32
  0
VERTEX
  8
0
  5
477
 10
-1.18380
 20
5.11674
 30
0.000000
  70
    32
  0
VERTEX
  8
0
  5
478
 10
-1.18393
 20
5.11655
 30
0.000000
  70
    32
  0
VERTEX
  8
0
  5
479
 10
-1.18407
 20
5.11635
 30
0.000000
  70
    32
  0
VERTEX
  8
0
  5
47A
 10
-1.18420
 20
5.11615
 30
0.000000
  70
    32
  0
VERTEX
  8
0
  5
47B
 10
-1.18434
 20
5.11595
 30
0.000000
  70
    32
  0
VERTEX
  8
0
  5
47C
 10
-1.18447
 20
5.11575
 30
0.000000
  70
    32
  0
VERTEX
  8
0
  5
47D
 10
-1.18459
 20
5.11554
 30
0.000000
  70
    32
  0
VERTEX
  8
0
  5
47E
 10
-1.18472
 20
5.11534
 30
0.000000
  70
    32
  0
VERTEX
  8
0
  5
47F
 10
-1.18484
 20
5.11513
 30
0.000000
  70
    32
  0
VERTEX
  8
0
  5
480
 10
-1.18496
 20
5.11492
 30
0.000000
  70
    32
  0
VERTEX
  8
0
  5
481
 10
-1.18508
 20
5.11471
 30
0.000000
  70
    32
  0
VERTEX
  8
0
  5
482
 10
-1.18519
 20
5.11450
 30
0.000000
  70
    32
  0
VERTEX
  8
0
  5
483
 10
-1.18530
 20
5.11428
 30
0.000000
  70
    32
  0
VERTEX
  8
0
  5
484
 10
-1.18541
 20
5.11407
 30
0.000000
  70
    32
  0
VERTEX
  8
0
  5
485
 10
-1.18552
 20
5.11385
 30
0.000000
  70
    32
  0
VERTEX
  8
0
  5
486
 10
-1.18562
 20
5.11363
 30
0.000000
  70
    32
  0
VERTEX
  8
0
  5
487
 10
-1.18573
 20
5.11341
 30
0.000000
  70
    32
  0
VERTEX
  8
0
  5
488
 10
-1.18583
 20
5.11319
 30
0.000000
  70
    32
  0
VERTEX
  8
0
  5
489
 10
-1.18592
 20
5.11297
 30
0.000000
  70
    32
  0
VERTEX
  8
0
  5
48A
 10
-1.18602
 20
5.11274
 30
0.000000
  70
    32
  0
VERTEX
  8
0
  5
48B
 10
-1.18611
 20
5.11252
 30
0.000000
  70
    32
  0
VERTEX
  8
0
  5
48C
 10
-1.18620
 20
5.11229
 30
0.000000
  70
    32
  0
VERTEX
  8
0
  5
48D
 10
-1.18628
 20
5.11206
 30
0.000000
  70
    32
  0
VERTEX
  8
0
  5
48E
 10
-1.18636
 20
5.11184
 30
0.000000
  70
    32
  0
VERTEX
  8
0
  5
48F
 10
-1.18644
 20
5.11160
 30
0.000000
  70
    32
  0
VERTEX
  8
0
  5
490
 10
-1.18652
 20
5.11137
 30
0.000000
  70
    32
  0
VERTEX
  8
0
  5
491
 10
-1.18660
 20
5.11114
 30
0.000000
  70
    32
  0
VERTEX
  8
0
  5
492
 10
-1.18667
 20
5.11090
 30
0.000000
  70
    32
  0
VERTEX
  8
0
  5
493
 10
-1.18674
 20
5.11067
 30
0.000000
  70
    32
  0
VERTEX
  8
0
  5
494
 10
-1.18680
 20
5.11043
 30
0.000000
  70
    32
  0
VERTEX
  8
0
  5
495
 10
-1.18687
 20
5.11019
 30
0.000000
  70
    32
  0
VERTEX
  8
0
  5
496
 10
-1.18693
 20
5.10995
 30
0.000000
  70
    32
  0
VERTEX
  8
0
  5
497
 10
-1.18699
 20
5.10971
 30
0.000000
  70
    32
  0
VERTEX
  8
0
  5
498
 10
-1.18704
 20
5.10947
 30
0.000000
  70
    32
  0
VERTEX
  8
0
  5
499
 10
-1.18709
 20
5.10923
 30
0.000000
  70
    32
  0
VERTEX
  8
0
  5
49A
 10
-1.18714
 20
5.10899
 30
0.000000
  70
    32
  0
VERTEX
  8
0
  5
49B
 10
-1.18719
 20
5.10874
 30
0.000000
  70
    32
  0
VERTEX
  8
0
  5
49C
 10
-1.18723
 20
5.10850
 30
0.000000
  70
    32
  0
VERTEX
  8
0
  5
49D
 10
-1.18727
 20
5.10825
 30
0.000000
  70
    32
  0
VERTEX
  8
0
  5
49E
 10
-1.18731
 20
5.10800
 30
0.000000
  70
    32
  0
VERTEX
  8
0
  5
49F
 10
-1.18734
 20
5.10775
 30
0.000000
  70
    32
  0
VERTEX
  8
0
  5
4A0
 10
-1.18737
 20
5.10750
 30
0.000000
  70
    32
  0
VERTEX
  8
0
  5
4A1
 10
-1.18740
 20
5.10725
 30
0.000000
  70
    32
  0
VERTEX
  8
0
  5
4A2
 10
-1.18742
 20
5.10700
 30
0.000000
  70
    32
  0
VERTEX
  8
0
  5
4A3
 10
-1.18744
 20
5.10675
 30
0.000000
  70
    32
  0
VERTEX
  8
0
  5
4A4
 10
-1.18746
 20
5.10649
 30
0.000000
  70
    32
  0
VERTEX
  8
0
  5
4A5
 10
-1.18747
 20
5.10624
 30
0.000000
  70
    32
  0
VERTEX
  8
0
  5
4A6
 10
-1.18749
 20
5.10598
 30
0.000000
  70
    32
  0
VERTEX
  8
0
  5
4A7
 10
-1.18749
 20
5.10573
 30
0.000000
  70
    32
  0
VERTEX
  8
0
  5
4A8
 10
-1.18750
 20
5.10547
 30
0.000000
  70
    32
  0
VERTEX
  8
0
  5
4A9
 10
-1.18750
 20
5.10521
 30
0.000000
  70
    32
  0
SEQEND
  8
0
  5
4AA
  0
POLYLINE
  8
0
  5
4AB
  66
     1
 10
0.000000
 20
0.000000
 30
0.000000
  70
     8
  0
VERTEX
  8
0
  5
4AC
 10
-1.16771
 20
5.00625
 30
0.000000
  70
    32
  0
VERTEX
  8
0
  5
4AD
 10
-1.16797
 20
5.00625
 30
0.000000
  70
    32
  0
VERTEX
  8
0
  5
4AE
 10
-1.16823
 20
5.00624
 30
0.000000
  70
    32
  0
VERTEX
  8
0
  5
4AF
 10
-1.16848
 20
5.00624
 30
0.000000
  70
    32
  0
VERTEX
  8
0
  5
4B0
 10
-1.16874
 20
5.00622
 30
0.000000
  70
    32
  0
VERTEX
  8
0
  5
4B1
 10
-1.16899
 20
5.00621
 30
0.000000
  70
    32
  0
VERTEX
  8
0
  5
4B2
 10
-1.16925
 20
5.00619
 30
0.000000
  70
    32
  0
VERTEX
  8
0
  5
4B3
 10
-1.16950
 20
5.00617
 30
0.000000
  70
    32
  0
VERTEX
  8
0
  5
4B4
 10
-1.16975
 20
5.00615
 30
0.000000
  70
    32
  0
VERTEX
  8
0
  5
4B5
 10
-1.17000
 20
5.00612
 30
0.000000
  70
    32
  0
VERTEX
  8
0
  5
4B6
 10
-1.17025
 20
5.00609
 30
0.000000
  70
    32
  0
VERTEX
  8
0
  5
4B7
 10
-1.17050
 20
5.00606
 30
0.000000
  70
    32
  0
VERTEX
  8
0
  5
4B8
 10
-1.17075
 20
5.00602
 30
0.000000
  70
    32
  0
VERTEX
  8
0
  5
4B9
 10
-1.17100
 20
5.00598
 30
0.000000
  70
    32
  0
VERTEX
  8
0
  5
4BA
 10
-1.17124
 20
5.00594
 30
0.000000
  70
    32
  0
VERTEX
  8
0
  5
4BB
 10
-1.17149
 20
5.00589
 30
0.000000
  70
    32
  0
VERTEX
  8
0
  5
4BC
 10
-1.17173
 20
5.00584
 30
0.000000
  70
    32
  0
VERTEX
  8
0
  5
4BD
 10
-1.17197
 20
5.00579
 30
0.000000
  70
    32
  0
VERTEX
  8
0
  5
4BE
 10
-1.17222
 20
5.00574
 30
0.000000
  70
    32
  0
VERTEX
  8
0
  5
4BF
 10
-1.17246
 20
5.00568
 30
0.000000
  70
    32
  0
VERTEX
  8
0
  5
4C0
 10
-1.17270
 20
5.00562
 30
0.000000
  70
    32
  0
VERTEX
  8
0
  5
4C1
 10
-1.17293
 20
5.00555
 30
0.000000
  70
    32
  0
VERTEX
  8
0
  5
4C2
 10
-1.17317
 20
5.00549
 30
0.000000
  70
    32
  0
VERTEX
  8
0
  5
4C3
 10
-1.17341
 20
5.00542
 30
0.000000
  70
    32
  0
VERTEX
  8
0
  5
4C4
 10
-1.17364
 20
5.00535
 30
0.000000
  70
    32
  0
VERTEX
  8
0
  5
4C5
 10
-1.17387
 20
5.00527
 30
0.000000
  70
    32
  0
VERTEX
  8
0
  5
4C6
 10
-1.17411
 20
5.00519
 30
0.000000
  70
    32
  0
VERTEX
  8
0
  5
4C7
 10
-1.17434
 20
5.00511
 30
0.000000
  70
    32
  0
VERTEX
  8
0
  5
4C8
 10
-1.17457
 20
5.00503
 30
0.000000
  70
    32
  0
VERTEX
  8
0
  5
4C9
 10
-1.17480
 20
5.00494
 30
0.000000
  70
    32
  0
VERTEX
  8
0
  5
4CA
 10
-1.17502
 20
5.00486
 30
0.000000
  70
    32
  0
VERTEX
  8
0
  5
4CB
 10
-1.17525
 20
5.00476
 30
0.000000
  70
    32
  0
VERTEX
  8
0
  5
4CC
 10
-1.17547
 20
5.00467
 30
0.000000
  70
    32
  0
VERTEX
  8
0
  5
4CD
 10
-1.17569
 20
5.00457
 30
0.000000
  70
    32
  0
VERTEX
  8
0
  5
4CE
 10
-1.17592
 20
5.00448
 30
0.000000
  70
    32
  0
VERTEX
  8
0
  5
4CF
 10
-1.17614
 20
5.00437
 30
0.000000
  70
    32
  0
VERTEX
  8
0
  5
4D0
 10
-1.17635
 20
5.00427
 30
0.000000
  70
    32
  0
VERTEX
  8
0
  5
4D1
 10
-1.17657
 20
5.00416
 30
0.000000
  70
    32
  0
VERTEX
  8
0
  5
4D2
 10
-1.17679
 20
5.00405
 30
0.000000
  70
    32
  0
VERTEX
  8
0
  5
4D3
 10
-1.17700
 20
5.00394
 30
0.000000
  70
    32
  0
VERTEX
  8
0
  5
4D4
 10
-1.17721
 20
5.00383
 30
0.000000
  70
    32
  0
VERTEX
  8
0
  5
4D5
 10
-1.17742
 20
5.00371
 30
0.000000
  70
    32
  0
VERTEX
  8
0
  5
4D6
 10
-1.17763
 20
5.00359
 30
0.000000
  70
    32
  0
VERTEX
  8
0
  5
4D7
 10
-1.17784
 20
5.00347
 30
0.000000
  70
    32
  0
VERTEX
  8
0
  5
4D8
 10
-1.17804
 20
5.00334
 30
0.000000
  70
    32
  0
VERTEX
  8
0
  5
4D9
 10
-1.17825
 20
5.00321
 30
0.000000
  70
    32
  0
VERTEX
  8
0
  5
4DA
 10
-1.17845
 20
5.00309
 30
0.000000
  70
    32
  0
VERTEX
  8
0
  5
4DB
 10
-1.17865
 20
5.00295
 30
0.000000
  70
    32
  0
VERTEX
  8
0
  5
4DC
 10
-1.17885
 20
5.00282
 30
0.000000
  70
    32
  0
VERTEX
  8
0
  5
4DD
 10
-1.17905
 20
5.00268
 30
0.000000
  70
    32
  0
VERTEX
  8
0
  5
4DE
 10
-1.17924
 20
5.00254
 30
0.000000
  70
    32
  0
VERTEX
  8
0
  5
4DF
 10
-1.17944
 20
5.00240
 30
0.000000
  70
    32
  0
VERTEX
  8
0
  5
4E0
 10
-1.17963
 20
5.00226
 30
0.000000
  70
    32
  0
VERTEX
  8
0
  5
4E1
 10
-1.17982
 20
5.00211
 30
0.000000
  70
    32
  0
VERTEX
  8
0
  5
4E2
 10
-1.18001
 20
5.00197
 30
0.000000
  70
    32
  0
VERTEX
  8
0
  5
4E3
 10
-1.18020
 20
5.00182
 30
0.000000
  70
    32
  0
VERTEX
  8
0
  5
4E4
 10
-1.18038
 20
5.00166
 30
0.000000
  70
    32
  0
VERTEX
  8
0
  5
4E5
 10
-1.18056
 20
5.00151
 30
0.000000
  70
    32
  0
VERTEX
  8
0
  5
4E6
 10
-1.18074
 20
5.00135
 30
0.000000
  70
    32
  0
VERTEX
  8
0
  5
4E7
 10
-1.18092
 20
5.00119
 30
0.000000
  70
    32
  0
VERTEX
  8
0
  5
4E8
 10
-1.18110
 20
5.00103
 30
0.000000
  70
    32
  0
VERTEX
  8
0
  5
4E9
 10
-1.18128
 20
5.00087
 30
0.000000
  70
    32
  0
VERTEX
  8
0
  5
4EA
 10
-1.18145
 20
5.00070
 30
0.000000
  70
    32
  0
VERTEX
  8
0
  5
4EB
 10
-1.18162
 20
5.00054
 30
0.000000
  70
    32
  0
VERTEX
  8
0
  5
4EC
 10
-1.18179
 20
5.00037
 30
0.000000
  70
    32
  0
VERTEX
  8
0
  5
4ED
 10
-1.18196
 20
5.00020
 30
0.000000
  70
    32
  0
VERTEX
  8
0
  5
4EE
 10
-1.18212
 20
5.00002
 30
0.000000
  70
    32
  0
VERTEX
  8
0
  5
4EF
 10
-1.18228
 20
4.99985
 30
0.000000
  70
    32
  0
VERTEX
  8
0
  5
4F0
 10
-1.18245
 20
4.99967
 30
0.000000
  70
    32
  0
VERTEX
  8
0
  5
4F1
 10
-1.18260
 20
4.99949
 30
0.000000
  70
    32
  0
VERTEX
  8
0
  5
4F2
 10
-1.18276
 20
4.99931
 30
0.000000
  70
    32
  0
VERTEX
  8
0
  5
4F3
 10
-1.18292
 20
4.99913
 30
0.000000
  70
    32
  0
VERTEX
  8
0
  5
4F4
 10
-1.18307
 20
4.99894
 30
0.000000
  70
    32
  0
VERTEX
  8
0
  5
4F5
 10
-1.18322
 20
4.99876
 30
0.000000
  70
    32
  0
VERTEX
  8
0
  5
4F6
 10
-1.18337
 20
4.99857
 30
0.000000
  70
    32
  0
VERTEX
  8
0
  5
4F7
 10
-1.18351
 20
4.99838
 30
0.000000
  70
    32
  0
VERTEX
  8
0
  5
4F8
 10
-1.18365
 20
4.99819
 30
0.000000
  70
    32
  0
VERTEX
  8
0
  5
4F9
 10
-1.18380
 20
4.99799
 30
0.000000
  70
    32
  0
VERTEX
  8
0
  5
4FA
 10
-1.18393
 20
4.99780
 30
0.000000
  70
    32
  0
VERTEX
  8
0
  5
4FB
 10
-1.18407
 20
4.99760
 30
0.000000
  70
    32
  0
VERTEX
  8
0
  5
4FC
 10
-1.18420
 20
4.99740
 30
0.000000
  70
    32
  0
VERTEX
  8
0
  5
4FD
 10
-1.18434
 20
4.99720
 30
0.000000
  70
    32
  0
VERTEX
  8
0
  5
4FE
 10
-1.18447
 20
4.99700
 30
0.000000
  70
    32
  0
VERTEX
  8
0
  5
4FF
 10
-1.18459
 20
4.99679
 30
0.000000
  70
    32
  0
VERTEX
  8
0
  5
500
 10
-1.18472
 20
4.99659
 30
0.000000
  70
    32
  0
VERTEX
  8
0
  5
501
 10
-1.18484
 20
4.99638
 30
0.000000
  70
    32
  0
VERTEX
  8
0
  5
502
 10
-1.18496
 20
4.99617
 30
0.000000
  70
    32
  0
VERTEX
  8
0
  5
503
 10
-1.18508
 20
4.99596
 30
0.000000
  70
    32
  0
VERTEX
  8
0
  5
504
 10
-1.18519
 20
4.99575
 30
0.000000
  70
    32
  0
VERTEX
  8
0
  5
505
 10
-1.18530
 20
4.99553
 30
0.000000
  70
    32
  0
VERTEX
  8
0
  5
506
 10
-1.18541
 20
4.99532
 30
0.000000
  70
    32
  0
VERTEX
  8
0
  5
507
 10
-1.18552
 20
4.99510
 30
0.000000
  70
    32
  0
VERTEX
  8
0
  5
508
 10
-1.18562
 20
4.99488
 30
0.000000
  70
    32
  0
VERTEX
  8
0
  5
509
 10
-1.18573
 20
4.99466
 30
0.000000
  70
    32
  0
VERTEX
  8
0
  5
50A
 10
-1.18583
 20
4.99444
 30
0.000000
  70
    32
  0
VERTEX
  8
0
  5
50B
 10
-1.18592
 20
4.99422
 30
0.000000
  70
    32
  0
VERTEX
  8
0
  5
50C
 10
-1.18602
 20
4.99400
 30
0.000000
  70
    32
  0
VERTEX
  8
0
  5
50D
 10
-1.18611
 20
4.99377
 30
0.000000
  70
    32
  0
VERTEX
  8
0
  5
50E
 10
-1.18620
 20
4.99354
 30
0.000000
  70
    32
  0
VERTEX
  8
0
  5
50F
 10
-1.18628
 20
4.99331
 30
0.000000
  70
    32
  0
VERTEX
  8
0
  5
510
 10
-1.18636
 20
4.99309
 30
0.000000
  70
    32
  0
VERTEX
  8
0
  5
511
 10
-1.18644
 20
4.99285
 30
0.000000
  70
    32
  0
VERTEX
  8
0
  5
512
 10
-1.18652
 20
4.99262
 30
0.000000
  70
    32
  0
VERTEX
  8
0
  5
513
 10
-1.18660
 20
4.99239
 30
0.000000
  70
    32
  0
VERTEX
  8
0
  5
514
 10
-1.18667
 20
4.99215
 30
0.000000
  70
    32
  0
VERTEX
  8
0
  5
515
 10
-1.18674
 20
4.99192
 30
0.000000
  70
    32
  0
VERTEX
  8
0
  5
516
 10
-1.18680
 20
4.99168
 30
0.000000
  70
    32
  0
VERTEX
  8
0
  5
517
 10
-1.18687
 20
4.99144
 30
0.000000
  70
    32
  0
VERTEX
  8
0
  5
518
 10
-1.18693
 20
4.99120
 30
0.000000
  70
    32
  0
VERTEX
  8
0
  5
519
 10
-1.18699
 20
4.99096
 30
0.000000
  70
    32
  0
VERTEX
  8
0
  5
51A
 10
-1.18704
 20
4.99072
 30
0.000000
  70
    32
  0
VERTEX
  8
0
  5
51B
 10
-1.18709
 20
4.99048
 30
0.000000
  70
    32
  0
VERTEX
  8
0
  5
51C
 10
-1.18714
 20
4.99024
 30
0.000000
  70
    32
  0
VERTEX
  8
0
  5
51D
 10
-1.18719
 20
4.98999
 30
0.000000
  70
    32
  0
VERTEX
  8
0
  5
51E
 10
-1.18723
 20
4.98975
 30
0.000000
  70
    32
  0
VERTEX
  8
0
  5
51F
 10
-1.18727
 20
4.98950
 30
0.000000
  70
    32
  0
VERTEX
  8
0
  5
520
 10
-1.18731
 20
4.98925
 30
0.000000
  70
    32
  0
VERTEX
  8
0
  5
521
 10
-1.18734
 20
4.98900
 30
0.000000
  70
    32
  0
VERTEX
  8
0
  5
522
 10
-1.18737
 20
4.98875
 30
0.000000
  70
    32
  0
VERTEX
  8
0
  5
523
 10
-1.18740
 20
4.98850
 30
0.000000
  70
    32
  0
VERTEX
  8
0
  5
524
 10
-1.18742
 20
4.98825
 30
0.000000
  70
    32
  0
VERTEX
  8
0
  5
525
 10
-1.18744
 20
4.98800
 30
0.000000
  70
    32
  0
VERTEX
  8
0
  5
526
 10
-1.18746
 20
4.98774
 30
0.000000
  70
    32
  0
VERTEX
  8
0
  5
527
 10
-1.18747
 20
4.98749
 30
0.000000
  70
    32
  0
VERTEX
  8
0
  5
528
 10
-1.18749
 20
4.98723
 30
0.000000
  70
    32
  0
VERTEX
  8
0
  5
529
 10
-1.18749
 20
4.98698
 30
0.000000
  70
    32
  0
VERTEX
  8
0
  5
52A
 10
-1.18750
 20
4.98672
 30
0.000000
  70
    32
  0
VERTEX
  8
0
  5
52B
 10
-1.18750
 20
4.98646
 30
0.000000
  70
    32
  0
SEQEND
  8
0
  5
52C
  0
POLYLINE
  8
0
  5
52D
  66
     1
 10
0.000000
 20
0.000000
 30
0.000000
  70
     8
  0
VERTEX
  8
0
  5
52E
 10
-0.554171
 20
5.65721
 30
0.000000
  70
    32
  0
VERTEX
  8
0
  5
52F
 10
-0.554687
 20
5.65721
 30
0.000000
  70
    32
  0
VERTEX
  8
0
  5
530
 10
-0.555201
 20
5.65720
 30
0.000000
  70
    32
  0
VERTEX
  8
0
  5
531
 10
-0.555713
 20
5.65718
 30
0.000000
  70
    32
  0
VERTEX
  8
0
  5
532
 10
-0.556224
 20
5.65716
 30
0.000000
  70
    32
  0
VERTEX
  8
0
  5
533
 10
-0.556733
 20
5.65713
 30
0.000000
  70
    32
  0
VERTEX
  8
0
  5
534
 10
-0.557241
 20
5.65709
 30
0.000000
  70
    32
  0
VERTEX
  8
0
  5
535
 10
-0.557746
 20
5.65705
 30
0.000000
  70
    32
  0
VERTEX
  8
0
  5
536
 10
-0.558250
 20
5.65700
 30
0.000000
  70
    32
  0
VERTEX
  8
0
  5
537
 10
-0.558752
 20
5.65695
 30
0.000000
  70
    32
  0
VERTEX
  8
0
  5
538
 10
-0.559252
 20
5.65689
 30
0.000000
  70
    32
  0
VERTEX
  8
0
  5
539
 10
-0.559751
 20
5.65682
 30
0.000000
  70
    32
  0
VERTEX
  8
0
  5
53A
 10
-0.560247
 20
5.65675
 30
0.000000
  70
    32
  0
VERTEX
  8
0
  5
53B
 10
-0.560741
 20
5.65667
 30
0.000000
  70
    32
  0
VERTEX
  8
0
  5
53C
 10
-0.561233
 20
5.65658
 30
0.000000
  70
    32
  0
VERTEX
  8
0
  5
53D
 10
-0.561723
 20
5.65649
 30
0.000000
  70
    32
  0
VERTEX
  8
0
  5
53E
 10
-0.562211
 20
5.65639
 30
0.000000
  70
    32
  0
VERTEX
  8
0
  5
53F
 10
-0.562697
 20
5.65629
 30
0.000000
  70
    32
  0
VERTEX
  8
0
  5
540
 10
-0.563180
 20
5.65618
 30
0.000000
  70
    32
  0
VERTEX
  8
0
  5
541
 10
-0.563661
 20
5.65607
 30
0.000000
  70
    32
  0
VERTEX
  8
0
  5
542
 10
-0.564140
 20
5.65594
 30
0.000000
  70
    32
  0
VERTEX
  8
0
  5
543
 10
-0.564617
 20
5.65582
 30
0.000000
  70
    32
  0
VERTEX
  8
0
  5
544
 10
-0.565091
 20
5.65569
 30
0.000000
  70
    32
  0
VERTEX
  8
0
  5
545
 10
-0.565563
 20
5.65555
 30
0.000000
  70
    32
  0
VERTEX
  8
0
  5
546
 10
-0.566032
 20
5.65540
 30
0.000000
  70
    32
  0
VERTEX
  8
0
  5
547
 10
-0.566499
 20
5.65525
 30
0.000000
  70
    32
  0
VERTEX
  8
0
  5
548
 10
-0.566963
 20
5.65510
 30
0.000000
  70
    32
  0
VERTEX
  8
0
  5
549
 10
-0.567425
 20
5.65494
 30
0.000000
  70
    32
  0
VERTEX
  8
0
  5
54A
 10
-0.567884
 20
5.65477
 30
0.000000
  70
    32
  0
VERTEX
  8
0
  5
54B
 10
-0.568340
 20
5.65460
 30
0.000000
  70
    32
  0
VERTEX
  8
0
  5
54C
 10
-0.568794
 20
5.65442
 30
0.000000
  70
    32
  0
VERTEX
  8
0
  5
54D
 10
-0.569245
 20
5.65424
 30
0.000000
  70
    32
  0
VERTEX
  8
0
  5
54E
 10
-0.569693
 20
5.65405
 30
0.000000
  70
    32
  0
VERTEX
  8
0
  5
54F
 10
-0.570139
 20
5.65386
 30
0.000000
  70
    32
  0
VERTEX
  8
0
  5
550
 10
-0.570581
 20
5.65366
 30
0.000000
  70
    32
  0
VERTEX
  8
0
  5
551
 10
-0.571021
 20
5.65346
 30
0.000000
  70
    32
  0
VERTEX
  8
0
  5
552
 10
-0.571458
 20
5.65325
 30
0.000000
  70
    32
  0
VERTEX
  8
0
  5
553
 10
-0.571891
 20
5.65303
 30
0.000000
  70
    32
  0
VERTEX
  8
0
  5
554
 10
-0.572322
 20
5.65281
 30
0.000000
  70
    32
  0
VERTEX
  8
0
  5
555
 10
-0.572750
 20
5.65259
 30
0.000000
  70
    32
  0
VERTEX
  8
0
  5
556
 10
-0.573174
 20
5.65236
 30
0.000000
  70
    32
  0
VERTEX
  8
0
  5
557
 10
-0.573596
 20
5.65213
 30
0.000000
  70
    32
  0
VERTEX
  8
0
  5
558
 10
-0.574014
 20
5.65189
 30
0.000000
  70
    32
  0
VERTEX
  8
0
  5
559
 10
-0.574429
 20
5.65164
 30
0.000000
  70
    32
  0
VERTEX
  8
0
  5
55A
 10
-0.574841
 20
5.65139
 30
0.000000
  70
    32
  0
VERTEX
  8
0
  5
55B
 10
-0.575250
 20
5.65114
 30
0.000000
  70
    32
  0
VERTEX
  8
0
  5
55C
 10
-0.575655
 20
5.65088
 30
0.000000
  70
    32
  0
VERTEX
  8
0
  5
55D
 10
-0.576057
 20
5.65062
 30
0.000000
  70
    32
  0
VERTEX
  8
0
  5
55E
 10
-0.576455
 20
5.65035
 30
0.000000
  70
    32
  0
VERTEX
  8
0
  5
55F
 10
-0.576850
 20
5.65008
 30
0.000000
  70
    32
  0
VERTEX
  8
0
  5
560
 10
-0.577241
 20
5.64980
 30
0.000000
  70
    32
  0
VERTEX
  8
0
  5
561
 10
-0.577629
 20
5.64952
 30
0.000000
  70
    32
  0
VERTEX
  8
0
  5
562
 10
-0.578014
 20
5.64923
 30
0.000000
  70
    32
  0
VERTEX
  8
0
  5
563
 10
-0.578395
 20
5.64894
 30
0.000000
  70
    32
  0
VERTEX
  8
0
  5
564
 10
-0.578772
 20
5.64864
 30
0.000000
  70
    32
  0
VERTEX
  8
0
  5
565
 10
-0.579145
 20
5.64834
 30
0.000000
  70
    32
  0
VERTEX
  8
0
  5
566
 10
-0.579515
 20
5.64804
 30
0.000000
  70
    32
  0
VERTEX
  8
0
  5
567
 10
-0.579881
 20
5.64773
 30
0.000000
  70
    32
  0
VERTEX
  8
0
  5
568
 10
-0.580243
 20
5.64741
 30
0.000000
  70
    32
  0
VERTEX
  8
0
  5
569
 10
-0.580601
 20
5.64710
 30
0.000000
  70
    32
  0
VERTEX
  8
0
  5
56A
 10
-0.580956
 20
5.64678
 30
0.000000
  70
    32
  0
VERTEX
  8
0
  5
56B
 10
-0.581306
 20
5.64645
 30
0.000000
  70
    32
  0
VERTEX
  8
0
  5
56C
 10
-0.581652
 20
5.64612
 30
0.000000
  70
    32
  0
VERTEX
  8
0
  5
56D
 10
-0.581995
 20
5.64578
 30
0.000000
  70
    32
  0
VERTEX
  8
0
  5
56E
 10
-0.582333
 20
5.64545
 30
0.000000
  70
    32
  0
VERTEX
  8
0
  5
56F
 10
-0.582668
 20
5.64510
 30
0.000000
  70
    32
  0
VERTEX
  8
0
  5
570
 10
-0.582998
 20
5.64476
 30
0.000000
  70
    32
  0
VERTEX
  8
0
  5
571
 10
-0.583324
 20
5.64441
 30
0.000000
  70
    32
  0
VERTEX
  8
0
  5
572
 10
-0.583646
 20
5.64405
 30
0.000000
  70
    32
  0
VERTEX
  8
0
  5
573
 10
-0.583963
 20
5.64369
 30
0.000000
  70
    32
  0
VERTEX
  8
0
  5
574
 10
-0.584277
 20
5.64333
 30
0.000000
  70
    32
  0
VERTEX
  8
0
  5
575
 10
-0.584586
 20
5.64297
 30
0.000000
  70
    32
  0
VERTEX
  8
0
  5
576
 10
-0.584890
 20
5.64260
 30
0.000000
  70
    32
  0
VERTEX
  8
0
  5
577
 10
-0.585191
 20
5.64222
 30
0.000000
  70
    32
  0
VERTEX
  8
0
  5
578
 10
-0.585486
 20
5.64185
 30
0.000000
  70
    32
  0
VERTEX
  8
0
  5
579
 10
-0.585778
 20
5.64147
 30
0.000000
  70
    32
  0
VERTEX
  8
0
  5
57A
 10
-0.586064
 20
5.64108
 30
0.000000
  70
    32
  0
VERTEX
  8
0
  5
57B
 10
-0.586347
 20
5.64069
 30
0.000000
  70
    32
  0
VERTEX
  8
0
  5
57C
 10
-0.586624
 20
5.64030
 30
0.000000
  70
    32
  0
VERTEX
  8
0
  5
57D
 10
-0.586897
 20
5.63991
 30
0.000000
  70
    32
  0
VERTEX
  8
0
  5
57E
 10
-0.587166
 20
5.63951
 30
0.000000
  70
    32
  0
VERTEX
  8
0
  5
57F
 10
-0.587429
 20
5.63911
 30
0.000000
  70
    32
  0
VERTEX
  8
0
  5
580
 10
-0.587688
 20
5.63870
 30
0.000000
  70
    32
  0
VERTEX
  8
0
  5
581
 10
-0.587942
 20
5.63829
 30
0.000000
  70
    32
  0
VERTEX
  8
0
  5
582
 10
-0.588191
 20
5.63788
 30
0.000000
  70
    32
  0
VERTEX
  8
0
  5
583
 10
-0.588435
 20
5.63747
 30
0.000000
  70
    32
  0
VERTEX
  8
0
  5
584
 10
-0.588675
 20
5.63705
 30
0.000000
  70
    32
  0
VERTEX
  8
0
  5
585
 10
-0.588909
 20
5.63663
 30
0.000000
  70
    32
  0
VERTEX
  8
0
  5
586
 10
-0.589138
 20
5.63620
 30
0.000000
  70
    32
  0
VERTEX
  8
0
  5
587
 10
-0.589363
 20
5.63577
 30
0.000000
  70
    32
  0
VERTEX
  8
0
  5
588
 10
-0.589582
 20
5.63534
 30
0.000000
  70
    32
  0
VERTEX
  8
0
  5
589
 10
-0.589796
 20
5.63491
 30
0.000000
  70
    32
  0
VERTEX
  8
0
  5
58A
 10
-0.590005
 20
5.63447
 30
0.000000
  70
    32
  0
VERTEX
  8
0
  5
58B
 10
-0.590209
 20
5.63403
 30
0.000000
  70
    32
  0
VERTEX
  8
0
  5
58C
 10
-0.590407
 20
5.63359
 30
0.000000
  70
    32
  0
VERTEX
  8
0
  5
58D
 10
-0.590601
 20
5.63314
 30
0.000000
  70
    32
  0
VERTEX
  8
0
  5
58E
 10
-0.590788
 20
5.63270
 30
0.000000
  70
    32
  0
VERTEX
  8
0
  5
58F
 10
-0.590971
 20
5.63225
 30
0.000000
  70
    32
  0
VERTEX
  8
0
  5
590
 10
-0.591148
 20
5.63179
 30
0.000000
  70
    32
  0
VERTEX
  8
0
  5
591
 10
-0.591320
 20
5.63134
 30
0.000000
  70
    32
  0
VERTEX
  8
0
  5
592
 10
-0.591486
 20
5.63088
 30
0.000000
  70
    32
  0
VERTEX
  8
0
  5
593
 10
-0.591647
 20
5.63041
 30
0.000000
  70
    32
  0
VERTEX
  8
0
  5
594
 10
-0.591802
 20
5.62995
 30
0.000000
  70
    32
  0
VERTEX
  8
0
  5
595
 10
-0.591952
 20
5.62948
 30
0.000000
  70
    32
  0
VERTEX
  8
0
  5
596
 10
-0.592096
 20
5.62901
 30
0.000000
  70
    32
  0
VERTEX
  8
0
  5
597
 10
-0.592234
 20
5.62854
 30
0.000000
  70
    32
  0
VERTEX
  8
0
  5
598
 10
-0.592366
 20
5.62807
 30
0.000000
  70
    32
  0
VERTEX
  8
0
  5
599
 10
-0.592493
 20
5.62759
 30
0.000000
  70
    32
  0
VERTEX
  8
0
  5
59A
 10
-0.592614
 20
5.62711
 30
0.000000
  70
    32
  0
VERTEX
  8
0
  5
59B
 10
-0.592729
 20
5.62663
 30
0.000000
  70
    32
  0
VERTEX
  8
0
  5
59C
 10
-0.592839
 20
5.62615
 30
0.000000
  70
    32
  0
VERTEX
  8
0
  5
59D
 10
-0.592942
 20
5.62566
 30
0.000000
  70
    32
  0
VERTEX
  8
0
  5
59E
 10
-0.593039
 20
5.62517
 30
0.000000
  70
    32
  0
VERTEX
  8
0
  5
59F
 10
-0.593131
 20
5.62468
 30
0.000000
  70
    32
  0
VERTEX
  8
0
  5
5A0
 10
-0.593216
 20
5.62419
 30
0.000000
  70
    32
  0
VERTEX
  8
0
  5
5A1
 10
-0.593295
 20
5.62370
 30
0.000000
  70
    32
  0
VERTEX
  8
0
  5
5A2
 10
-0.593369
 20
5.62320
 30
0.000000
  70
    32
  0
VERTEX
  8
0
  5
5A3
 10
-0.593436
 20
5.62270
 30
0.000000
  70
    32
  0
VERTEX
  8
0
  5
5A4
 10
-0.593496
 20
5.62220
 30
0.000000
  70
    32
  0
VERTEX
  8
0
  5
5A5
 10
-0.593551
 20
5.62170
 30
0.000000
  70
    32
  0
VERTEX
  8
0
  5
5A6
 10
-0.593599
 20
5.62120
 30
0.000000
  70
    32
  0
VERTEX
  8
0
  5
5A7
 10
-0.593641
 20
5.62069
 30
0.000000
  70
    32
  0
VERTEX
  8
0
  5
5A8
 10
-0.593677
 20
5.62018
 30
0.000000
  70
    32
  0
VERTEX
  8
0
  5
5A9
 10
-0.593706
 20
5.61968
 30
0.000000
  70
    32
  0
VERTEX
  8
0
  5
5AA
 10
-0.593729
 20
5.61916
 30
0.000000
  70
    32
  0
VERTEX
  8
0
  5
5AB
 10
-0.593745
 20
5.61865
 30
0.000000
  70
    32
  0
VERTEX
  8
0
  5
5AC
 10
-0.593755
 20
5.61814
 30
0.000000
  70
    32
  0
VERTEX
  8
0
  5
5AD
 10
-0.593759
 20
5.61762
 30
0.000000
  70
    32
  0
SEQEND
  8
0
  5
5AE
  0
POLYLINE
  8
0
  5
5AF
  66
     1
 10
0.000000
 20
0.000000
 30
0.000000
  70
     8
  0
VERTEX
  8
0
  5
5B0
 10
-0.356252
 20
5.65721
 30
0.000000
  70
    32
  0
VERTEX
  8
0
  5
5B1
 10
-0.355737
 20
5.65721
 30
0.000000
  70
    32
  0
VERTEX
  8
0
  5
5B2
 10
-0.355222
 20
5.65722
 30
0.000000
  70
    32
  0
VERTEX
  8
0
  5
5B3
 10
-0.354710
 20
5.65724
 30
0.000000
  70
    32
  0
VERTEX
  8
0
  5
5B4
 10
-0.354199
 20
5.65726
 30
0.000000
  70
    32
  0
VERTEX
  8
0
  5
5B5
 10
-0.353690
 20
5.65729
 30
0.000000
  70
    32
  0
VERTEX
  8
0
  5
5B6
 10
-0.353182
 20
5.65733
 30
0.000000
  70
    32
  0
VERTEX
  8
0
  5
5B7
 10
-0.352677
 20
5.65737
 30
0.000000
  70
    32
  0
VERTEX
  8
0
  5
5B8
 10
-0.352173
 20
5.65742
 30
0.000000
  70
    32
  0
VERTEX
  8
0
  5
5B9
 10
-0.351671
 20
5.65747
 30
0.000000
  70
    32
  0
VERTEX
  8
0
  5
5BA
 10
-0.351171
 20
5.65753
 30
0.000000
  70
    32
  0
VERTEX
  8
0
  5
5BB
 10
-0.350673
 20
5.65760
 30
0.000000
  70
    32
  0
VERTEX
  8
0
  5
5BC
 10
-0.350176
 20
5.65767
 30
0.000000
  70
    32
  0
VERTEX
  8
0
  5
5BD
 10
-0.349682
 20
5.65775
 30
0.000000
  70
    32
  0
VERTEX
  8
0
  5
5BE
 10
-0.349190
 20
5.65784
 30
0.000000
  70
    32
  0
VERTEX
  8
0
  5
5BF
 10
-0.348700
 20
5.65793
 30
0.000000
  70
    32
  0
VERTEX
  8
0
  5
5C0
 10
-0.348212
 20
5.65803
 30
0.000000
  70
    32
  0
VERTEX
  8
0
  5
5C1
 10
-0.347727
 20
5.65813
 30
0.000000
  70
    32
  0
VERTEX
  8
0
  5
5C2
 10
-0.347243
 20
5.65824
 30
0.000000
  70
    32
  0
VERTEX
  8
0
  5
5C3
 10
-0.346762
 20
5.65835
 30
0.000000
  70
    32
  0
VERTEX
  8
0
  5
5C4
 10
-0.346283
 20
5.65848
 30
0.000000
  70
    32
  0
VERTEX
  8
0
  5
5C5
 10
-0.345807
 20
5.65860
 30
0.000000
  70
    32
  0
VERTEX
  8
0
  5
5C6
 10
-0.345332
 20
5.65873
 30
0.000000
  70
    32
  0
VERTEX
  8
0
  5
5C7
 10
-0.344861
 20
5.65887
 30
0.000000
  70
    32
  0
VERTEX
  8
0
  5
5C8
 10
-0.344391
 20
5.65902
 30
0.000000
  70
    32
  0
VERTEX
  8
0
  5
5C9
 10
-0.343924
 20
5.65917
 30
0.000000
  70
    32
  0
VERTEX
  8
0
  5
5CA
 10
-0.343460
 20
5.65932
 30
0.000000
  70
    32
  0
VERTEX
  8
0
  5
5CB
 10
-0.342999
 20
5.65948
 30
0.000000
  70
    32
  0
VERTEX
  8
0
  5
5CC
 10
-0.342539
 20
5.65965
 30
0.000000
  70
    32
  0
VERTEX
  8
0
  5
5CD
 10
-0.342083
 20
5.65982
 30
0.000000
  70
    32
  0
VERTEX
  8
0
  5
5CE
 10
-0.341629
 20
5.66000
 30
0.000000
  70
    32
  0
VERTEX
  8
0
  5
5CF
 10
-0.341178
 20
5.66018
 30
0.000000
  70
    32
  0
VERTEX
  8
0
  5
5D0
 10
-0.340730
 20
5.66037
 30
0.000000
  70
    32
  0
VERTEX
  8
0
  5
5D1
 10
-0.340285
 20
5.66056
 30
0.000000
  70
    32
  0
VERTEX
  8
0
  5
5D2
 10
-0.339842
 20
5.66076
 30
0.000000
  70
    32
  0
VERTEX
  8
0
  5
5D3
 10
-0.339402
 20
5.66096
 30
0.000000
  70
    32
  0
VERTEX
  8
0
  5
5D4
 10
-0.338966
 20
5.66117
 30
0.000000
  70
    32
  0
VERTEX
  8
0
  5
5D5
 10
-0.338532
 20
5.66139
 30
0.000000
  70
    32
  0
VERTEX
  8
0
  5
5D6
 10
-0.338101
 20
5.66161
 30
0.000000
  70
    32
  0
VERTEX
  8
0
  5
5D7
 10
-0.337673
 20
5.66183
 30
0.000000
  70
    32
  0
VERTEX
  8
0
  5
5D8
 10
-0.337249
 20
5.66206
 30
0.000000
  70
    32
  0
VERTEX
  8
0
  5
5D9
 10
-0.336827
 20
5.66229
 30
0.000000
  70
    32
  0
VERTEX
  8
0
  5
5DA
 10
-0.336409
 20
5.66253
 30
0.000000
  70
    32
  0
VERTEX
  8
0
  5
5DB
 10
-0.335994
 20
5.66278
 30
0.000000
  70
    32
  0
VERTEX
  8
0
  5
5DC
 10
-0.335582
 20
5.66303
 30
0.000000
  70
    32
  0
VERTEX
  8
0
  5
5DD
 10
-0.335174
 20
5.66328
 30
0.000000
  70
    32
  0
VERTEX
  8
0
  5
5DE
 10
-0.334768
 20
5.66354
 30
0.000000
  70
    32
  0
VERTEX
  8
0
  5
5DF
 10
-0.334367
 20
5.66380
 30
0.000000
  70
    32
  0
VERTEX
  8
0
  5
5E0
 10
-0.333968
 20
5.66407
 30
0.000000
  70
    32
  0
VERTEX
  8
0
  5
5E1
 10
-0.333573
 20
5.66434
 30
0.000000
  70
    32
  0
VERTEX
  8
0
  5
5E2
 10
-0.333182
 20
5.66462
 30
0.000000
  70
    32
  0
VERTEX
  8
0
  5
5E3
 10
-0.332794
 20
5.66490
 30
0.000000
  70
    32
  0
VERTEX
  8
0
  5
5E4
 10
-0.332409
 20
5.66519
 30
0.000000
  70
    32
  0
VERTEX
  8
0
  5
5E5
 10
-0.332029
 20
5.66548
 30
0.000000
  70
    32
  0
VERTEX
  8
0
  5
5E6
 10
-0.331652
 20
5.66578
 30
0.000000
  70
    32
  0
VERTEX
  8
0
  5
5E7
 10
-0.331278
 20
5.66608
 30
0.000000
  70
    32
  0
VERTEX
  8
0
  5
5E8
 10
-0.330908
 20
5.66638
 30
0.000000
  70
    32
  0
VERTEX
  8
0
  5
5E9
 10
-0.330542
 20
5.66669
 30
0.000000
  70
    32
  0
VERTEX
  8
0
  5
5EA
 10
-0.330180
 20
5.66701
 30
0.000000
  70
    32
  0
VERTEX
  8
0
  5
5EB
 10
-0.329822
 20
5.66732
 30
0.000000
  70
    32
  0
VERTEX
  8
0
  5
5EC
 10
-0.329468
 20
5.66764
 30
0.000000
  70
    32
  0
VERTEX
  8
0
  5
5ED
 10
-0.329117
 20
5.66797
 30
0.000000
  70
    32
  0
VERTEX
  8
0
  5
5EE
 10
-0.328771
 20
5.66830
 30
0.000000
  70
    32
  0
VERTEX
  8
0
  5
5EF
 10
-0.328428
 20
5.66864
 30
0.000000
  70
    32
  0
VERTEX
  8
0
  5
5F0
 10
-0.328090
 20
5.66897
 30
0.000000
  70
    32
  0
VERTEX
  8
0
  5
5F1
 10
-0.327755
 20
5.66932
 30
0.000000
  70
    32
  0
VERTEX
  8
0
  5
5F2
 10
-0.327425
 20
5.66966
 30
0.000000
  70
    32
  0
VERTEX
  8
0
  5
5F3
 10
-0.327099
 20
5.67001
 30
0.000000
  70
    32
  0
VERTEX
  8
0
  5
5F4
 10
-0.326777
 20
5.67037
 30
0.000000
  70
    32
  0
VERTEX
  8
0
  5
5F5
 10
-0.326460
 20
5.67073
 30
0.000000
  70
    32
  0
VERTEX
  8
0
  5
5F6
 10
-0.326146
 20
5.67109
 30
0.000000
  70
    32
  0
VERTEX
  8
0
  5
5F7
 10
-0.325837
 20
5.67145
 30
0.000000
  70
    32
  0
VERTEX
  8
0
  5
5F8
 10
-0.325533
 20
5.67182
 30
0.000000
  70
    32
  0
VERTEX
  8
0
  5
5F9
 10
-0.325233
 20
5.67220
 30
0.000000
  70
    32
  0
VERTEX
  8
0
  5
5FA
 10
-0.324937
 20
5.67257
 30
0.000000
  70
    32
  0
VERTEX
  8
0
  5
5FB
 10
-0.324646
 20
5.67295
 30
0.000000
  70
    32
  0
VERTEX
  8
0
  5
5FC
 10
-0.324359
 20
5.67334
 30
0.000000
  70
    32
  0
VERTEX
  8
0
  5
5FD
 10
-0.324077
 20
5.67373
 30
0.000000
  70
    32
  0
VERTEX
  8
0
  5
5FE
 10
-0.323799
 20
5.67412
 30
0.000000
  70
    32
  0
VERTEX
  8
0
  5
5FF
 10
-0.323526
 20
5.67451
 30
0.000000
  70
    32
  0
VERTEX
  8
0
  5
600
 10
-0.323258
 20
5.67491
 30
0.000000
  70
    32
  0
VERTEX
  8
0
  5
601
 10
-0.322994
 20
5.67531
 30
0.000000
  70
    32
  0
VERTEX
  8
0
  5
602
 10
-0.322735
 20
5.67572
 30
0.000000
  70
    32
  0
VERTEX
  8
0
  5
603
 10
-0.322481
 20
5.67613
 30
0.000000
  70
    32
  0
VERTEX
  8
0
  5
604
 10
-0.322232
 20
5.67654
 30
0.000000
  70
    32
  0
VERTEX
  8
0
  5
605
 10
-0.321988
 20
5.67695
 30
0.000000
  70
    32
  0
VERTEX
  8
0
  5
606
 10
-0.321749
 20
5.67737
 30
0.000000
  70
    32
  0
VERTEX
  8
0
  5
607
 10
-0.321514
 20
5.67779
 30
0.000000
  70
    32
  0
VERTEX
  8
0
  5
608
 10
-0.321285
 20
5.67822
 30
0.000000
  70
    32
  0
VERTEX
  8
0
  5
609
 10
-0.321061
 20
5.67865
 30
0.000000
  70
    32
  0
VERTEX
  8
0
  5
60A
 10
-0.320841
 20
5.67908
 30
0.000000
  70
    32
  0
VERTEX
  8
0
  5
60B
 10
-0.320627
 20
5.67951
 30
0.000000
  70
    32
  0
VERTEX
  8
0
  5
60C
 10
-0.320418
 20
5.67995
 30
0.000000
  70
    32
  0
VERTEX
  8
0
  5
60D
 10
-0.320214
 20
5.68039
 30
0.000000
  70
    32
  0
VERTEX
  8
0
  5
60E
 10
-0.320016
 20
5.68083
 30
0.000000
  70
    32
  0
VERTEX
  8
0
  5
60F
 10
-0.319823
 20
5.68128
 30
0.000000
  70
    32
  0
VERTEX
  8
0
  5
610
 10
-0.319635
 20
5.68172
 30
0.000000
  70
    32
  0
VERTEX
  8
0
  5
611
 10
-0.319452
 20
5.68217
 30
0.000000
  70
    32
  0
VERTEX
  8
0
  5
612
 10
-0.319275
 20
5.68263
 30
0.000000
  70
    32
  0
VERTEX
  8
0
  5
613
 10
-0.319103
 20
5.68308
 30
0.000000
  70
    32
  0
VERTEX
  8
0
  5
614
 10
-0.318937
 20
5.68354
 30
0.000000
  70
    32
  0
VERTEX
  8
0
  5
615
 10
-0.318776
 20
5.68401
 30
0.000000
  70
    32
  0
VERTEX
  8
0
  5
616
 10
-0.318621
 20
5.68447
 30
0.000000
  70
    32
  0
VERTEX
  8
0
  5
617
 10
-0.318472
 20
5.68494
 30
0.000000
  70
    32
  0
VERTEX
  8
0
  5
618
 10
-0.318328
 20
5.68541
 30
0.000000
  70
    32
  0
VERTEX
  8
0
  5
619
 10
-0.318189
 20
5.68588
 30
0.000000
  70
    32
  0
VERTEX
  8
0
  5
61A
 10
-0.318057
 20
5.68635
 30
0.000000
  70
    32
  0
VERTEX
  8
0
  5
61B
 10
-0.317930
 20
5.68683
 30
0.000000
  70
    32
  0
VERTEX
  8
0
  5
61C
 10
-0.317809
 20
5.68731
 30
0.000000
  70
    32
  0
VERTEX
  8
0
  5
61D
 10
-0.317694
 20
5.68779
 30
0.000000
  70
    32
  0
VERTEX
  8
0
  5
61E
 10
-0.317585
 20
5.68827
 30
0.000000
  70
    32
  0
VERTEX
  8
0
  5
61F
 10
-0.317481
 20
5.68876
 30
0.000000
  70
    32
  0
VERTEX
  8
0
  5
620
 10
-0.317384
 20
5.68925
 30
0.000000
  70
    32
  0
VERTEX
  8
0
  5
621
 10
-0.317293
 20
5.68974
 30
0.000000
  70
    32
  0
VERTEX
  8
0
  5
622
 10
-0.317207
 20
5.69023
 30
0.000000
  70
    32
  0
VERTEX
  8
0
  5
623
 10
-0.317128
 20
5.69072
 30
0.000000
  70
    32
  0
VERTEX
  8
0
  5
624
 10
-0.317055
 20
5.69122
 30
0.000000
  70
    32
  0
VERTEX
  8
0
  5
625
 10
-0.316988
 20
5.69172
 30
0.000000
  70
    32
  0
VERTEX
  8
0
  5
626
 10
-0.316927
 20
5.69222
 30
0.000000
  70
    32
  0
VERTEX
  8
0
  5
627
 10
-0.316872
 20
5.69272
 30
0.000000
  70
    32
  0
VERTEX
  8
0
  5
628
 10
-0.316824
 20
5.69322
 30
0.000000
  70
    32
  0
VERTEX
  8
0
  5
629
 10
-0.316782
 20
5.69373
 30
0.000000
  70
    32
  0
VERTEX
  8
0
  5
62A
 10
-0.316746
 20
5.69424
 30
0.000000
  70
    32
  0
VERTEX
  8
0
  5
62B
 10
-0.316717
 20
5.69474
 30
0.000000
  70
    32
  0
VERTEX
  8
0
  5
62C
 10
-0.316694
 20
5.69526
 30
0.000000
  70
    32
  0
VERTEX
  8
0
  5
62D
 10
-0.316678
 20
5.69577
 30
0.000000
  70
    32
  0
VERTEX
  8
0
  5
62E
 10
-0.316668
 20
5.69628
 30
0.000000
  70
    32
  0
VERTEX
  8
0
  5
62F
 10
-0.316665
 20
5.69680
 30
0.000000
  70
    32
  0
SEQEND
  8
0
  5
630
  0
POLYLINE
  8
0
  5
631
  66
     1
 10
0.000000
 20
0.000000
 30
0.000000
  70
     8
  0
VERTEX
  8
0
  5
632
 10
-0.395833
 20
5.97265
 30
0.000000
  70
    32
  0
VERTEX
  8
0
  5
633
 10
-0.395832
 20
5.97249
 30
0.000000
  70
    32
  0
VERTEX
  8
0
  5
634
 10
-0.395829
 20
5.97234
 30
0.000000
  70
    32
  0
VERTEX
  8
0
  5
635
 10
-0.395825
 20
5.97218
 30
0.000000
  70
    32
  0
VERTEX
  8
0
  5
636
 10
-0.395818
 20
5.97203
 30
0.000000
  70
    32
  0
VERTEX
  8
0
  5
637
 10
-0.395809
 20
5.97188
 30
0.000000
  70
    32
  0
VERTEX
  8
0
  5
638
 10
-0.395798
 20
5.97173
 30
0.000000
  70
    32
  0
VERTEX
  8
0
  5
639
 10
-0.395786
 20
5.97157
 30
0.000000
  70
    32
  0
VERTEX
  8
0
  5
63A
 10
-0.395771
 20
5.97142
 30
0.000000
  70
    32
  0
VERTEX
  8
0
  5
63B
 10
-0.395755
 20
5.97127
 30
0.000000
  70
    32
  0
VERTEX
  8
0
  5
63C
 10
-0.395736
 20
5.97112
 30
0.000000
  70
    32
  0
VERTEX
  8
0
  5
63D
 10
-0.395716
 20
5.97097
 30
0.000000
  70
    32
  0
VERTEX
  8
0
  5
63E
 10
-0.395694
 20
5.97082
 30
0.000000
  70
    32
  0
VERTEX
  8
0
  5
63F
 10
-0.395671
 20
5.97068
 30
0.000000
  70
    32
  0
VERTEX
  8
0
  5
640
 10
-0.395645
 20
5.97053
 30
0.000000
  70
    32
  0
VERTEX
  8
0
  5
641
 10
-0.395618
 20
5.97038
 30
0.000000
  70
    32
  0
VERTEX
  8
0
  5
642
 10
-0.395588
 20
5.97023
 30
0.000000
  70
    32
  0
VERTEX
  8
0
  5
643
 10
-0.395557
 20
5.97009
 30
0.000000
  70
    32
  0
VERTEX
  8
0
  5
644
 10
-0.395524
 20
5.96994
 30
0.000000
  70
    32
  0
VERTEX
  8
0
  5
645
 10
-0.395490
 20
5.96980
 30
0.000000
  70
    32
  0
VERTEX
  8
0
  5
646
 10
-0.395454
 20
5.96966
 30
0.000000
  70
    32
  0
VERTEX
  8
0
  5
647
 10
-0.395416
 20
5.96951
 30
0.000000
  70
    32
  0
VERTEX
  8
0
  5
648
 10
-0.395376
 20
5.96937
 30
0.000000
  70
    32
  0
VERTEX
  8
0
  5
649
 10
-0.395334
 20
5.96923
 30
0.000000
  70
    32
  0
VERTEX
  8
0
  5
64A
 10
-0.395291
 20
5.96909
 30
0.000000
  70
    32
  0
VERTEX
  8
0
  5
64B
 10
-0.395246
 20
5.96895
 30
0.000000
  70
    32
  0
VERTEX
  8
0
  5
64C
 10
-0.395200
 20
5.96881
 30
0.000000
  70
    32
  0
VERTEX
  8
0
  5
64D
 10
-0.395151
 20
5.96867
 30
0.000000
  70
    32
  0
VERTEX
  8
0
  5
64E
 10
-0.395102
 20
5.96853
 30
0.000000
  70
    32
  0
VERTEX
  8
0
  5
64F
 10
-0.395050
 20
5.96840
 30
0.000000
  70
    32
  0
VERTEX
  8
0
  5
650
 10
-0.394997
 20
5.96826
 30
0.000000
  70
    32
  0
VERTEX
  8
0
  5
651
 10
-0.394942
 20
5.96812
 30
0.000000
  70
    32
  0
VERTEX
  8
0
  5
652
 10
-0.394886
 20
5.96799
 30
0.000000
  70
    32
  0
VERTEX
  8
0
  5
653
 10
-0.394828
 20
5.96786
 30
0.000000
  70
    32
  0
VERTEX
  8
0
  5
654
 10
-0.394768
 20
5.96772
 30
0.000000
  70
    32
  0
VERTEX
  8
0
  5
655
 10
-0.394707
 20
5.96759
 30
0.000000
  70
    32
  0
VERTEX
  8
0
  5
656
 10
-0.394644
 20
5.96746
 30
0.000000
  70
    32
  0
VERTEX
  8
0
  5
657
 10
-0.394580
 20
5.96733
 30
0.000000
  70
    32
  0
VERTEX
  8
0
  5
658
 10
-0.394514
 20
5.96720
 30
0.000000
  70
    32
  0
VERTEX
  8
0
  5
659
 10
-0.394447
 20
5.96707
 30
0.000000
  70
    32
  0
VERTEX
  8
0
  5
65A
 10
-0.394378
 20
5.96695
 30
0.000000
  70
    32
  0
VERTEX
  8
0
  5
65B
 10
-0.394308
 20
5.96682
 30
0.000000
  70
    32
  0
VERTEX
  8
0
  5
65C
 10
-0.394236
 20
5.96669
 30
0.000000
  70
    32
  0
VERTEX
  8
0
  5
65D
 10
-0.394163
 20
5.96657
 30
0.000000
  70
    32
  0
VERTEX
  8
0
  5
65E
 10
-0.394088
 20
5.96645
 30
0.000000
  70
    32
  0
VERTEX
  8
0
  5
65F
 10
-0.394012
 20
5.96632
 30
0.000000
  70
    32
  0
VERTEX
  8
0
  5
660
 10
-0.393934
 20
5.96620
 30
0.000000
  70
    32
  0
VERTEX
  8
0
  5
661
 10
-0.393855
 20
5.96608
 30
0.000000
  70
    32
  0
VERTEX
  8
0
  5
662
 10
-0.393775
 20
5.96596
 30
0.000000
  70
    32
  0
VERTEX
  8
0
  5
663
 10
-0.393693
 20
5.96584
 30
0.000000
  70
    32
  0
VERTEX
  8
0
  5
664
 10
-0.393610
 20
5.96573
 30
0.000000
  70
    32
  0
VERTEX
  8
0
  5
665
 10
-0.393525
 20
5.96561
 30
0.000000
  70
    32
  0
VERTEX
  8
0
  5
666
 10
-0.393439
 20
5.96549
 30
0.000000
  70
    32
  0
VERTEX
  8
0
  5
667
 10
-0.393351
 20
5.96538
 30
0.000000
  70
    32
  0
VERTEX
  8
0
  5
668
 10
-0.393263
 20
5.96527
 30
0.000000
  70
    32
  0
VERTEX
  8
0
  5
669
 10
-0.393173
 20
5.96516
 30
0.000000
  70
    32
  0
VERTEX
  8
0
  5
66A
 10
-0.393081
 20
5.96504
 30
0.000000
  70
    32
  0
VERTEX
  8
0
  5
66B
 10
-0.392989
 20
5.96493
 30
0.000000
  70
    32
  0
VERTEX
  8
0
  5
66C
 10
-0.392895
 20
5.96483
 30
0.000000
  70
    32
  0
VERTEX
  8
0
  5
66D
 10
-0.392799
 20
5.96472
 30
0.000000
  70
    32
  0
VERTEX
  8
0
  5
66E
 10
-0.392703
 20
5.96461
 30
0.000000
  70
    32
  0
VERTEX
  8
0
  5
66F
 10
-0.392605
 20
5.96451
 30
0.000000
  70
    32
  0
VERTEX
  8
0
  5
670
 10
-0.392506
 20
5.96440
 30
0.000000
  70
    32
  0
VERTEX
  8
0
  5
671
 10
-0.392406
 20
5.96430
 30
0.000000
  70
    32
  0
VERTEX
  8
0
  5
672
 10
-0.392304
 20
5.96420
 30
0.000000
  70
    32
  0
VERTEX
  8
0
  5
673
 10
-0.392201
 20
5.96410
 30
0.000000
  70
    32
  0
VERTEX
  8
0
  5
674
 10
-0.392098
 20
5.96400
 30
0.000000
  70
    32
  0
VERTEX
  8
0
  5
675
 10
-0.391992
 20
5.96390
 30
0.000000
  70
    32
  0
VERTEX
  8
0
  5
676
 10
-0.391886
 20
5.96381
 30
0.000000
  70
    32
  0
VERTEX
  8
0
  5
677
 10
-0.391779
 20
5.96371
 30
0.000000
  70
    32
  0
VERTEX
  8
0
  5
678
 10
-0.391670
 20
5.96362
 30
0.000000
  70
    32
  0
VERTEX
  8
0
  5
679
 10
-0.391560
 20
5.96352
 30
0.000000
  70
    32
  0
VERTEX
  8
0
  5
67A
 10
-0.391449
 20
5.96343
 30
0.000000
  70
    32
  0
VERTEX
  8
0
  5
67B
 10
-0.391337
 20
5.96334
 30
0.000000
  70
    32
  0
VERTEX
  8
0
  5
67C
 10
-0.391224
 20
5.96325
 30
0.000000
  70
    32
  0
VERTEX
  8
0
  5
67D
 10
-0.391110
 20
5.96317
 30
0.000000
  70
    32
  0
VERTEX
  8
0
  5
67E
 10
-0.390995
 20
5.96308
 30
0.000000
  70
    32
  0
VERTEX
  8
0
  5
67F
 10
-0.390879
 20
5.96300
 30
0.000000
  70
    32
  0
VERTEX
  8
0
  5
680
 10
-0.390761
 20
5.96291
 30
0.000000
  70
    32
  0
VERTEX
  8
0
  5
681
 10
-0.390643
 20
5.96283
 30
0.000000
  70
    32
  0
VERTEX
  8
0
  5
682
 10
-0.390523
 20
5.96275
 30
0.000000
  70
    32
  0
VERTEX
  8
0
  5
683
 10
-0.390403
 20
5.96267
 30
0.000000
  70
    32
  0
VERTEX
  8
0
  5
684
 10
-0.390281
 20
5.96259
 30
0.000000
  70
    32
  0
VERTEX
  8
0
  5
685
 10
-0.390159
 20
5.96252
 30
0.000000
  70
    32
  0
VERTEX
  8
0
  5
686
 10
-0.390035
 20
5.96244
 30
0.000000
  70
    32
  0
VERTEX
  8
0
  5
687
 10
-0.389911
 20
5.96237
 30
0.000000
  70
    32
  0
VERTEX
  8
0
  5
688
 10
-0.389785
 20
5.96230
 30
0.000000
  70
    32
  0
VERTEX
  8
0
  5
689
 10
-0.389659
 20
5.96223
 30
0.000000
  70
    32
  0
VERTEX
  8
0
  5
68A
 10
-0.389532
 20
5.96216
 30
0.000000
  70
    32
  0
VERTEX
  8
0
  5
68B
 10
-0.389403
 20
5.96209
 30
0.000000
  70
    32
  0
VERTEX
  8
0
  5
68C
 10
-0.389274
 20
5.96203
 30
0.000000
  70
    32
  0
VERTEX
  8
0
  5
68D
 10
-0.389144
 20
5.96196
 30
0.000000
  70
    32
  0
VERTEX
  8
0
  5
68E
 10
-0.389013
 20
5.96190
 30
0.000000
  70
    32
  0
VERTEX
  8
0
  5
68F
 10
-0.388881
 20
5.96184
 30
0.000000
  70
    32
  0
VERTEX
  8
0
  5
690
 10
-0.388749
 20
5.96178
 30
0.000000
  70
    32
  0
VERTEX
  8
0
  5
691
 10
-0.388615
 20
5.96172
 30
0.000000
  70
    32
  0
VERTEX
  8
0
  5
692
 10
-0.388481
 20
5.96167
 30
0.000000
  70
    32
  0
VERTEX
  8
0
  5
693
 10
-0.388346
 20
5.96161
 30
0.000000
  70
    32
  0
VERTEX
  8
0
  5
694
 10
-0.388210
 20
5.96156
 30
0.000000
  70
    32
  0
VERTEX
  8
0
  5
695
 10
-0.388073
 20
5.96151
 30
0.000000
  70
    32
  0
VERTEX
  8
0
  5
696
 10
-0.387935
 20
5.96146
 30
0.000000
  70
    32
  0
VERTEX
  8
0
  5
697
 10
-0.387797
 20
5.96141
 30
0.000000
  70
    32
  0
VERTEX
  8
0
  5
698
 10
-0.387657
 20
5.96136
 30
0.000000
  70
    32
  0
VERTEX
  8
0
  5
699
 10
-0.387518
 20
5.96132
 30
0.000000
  70
    32
  0
VERTEX
  8
0
  5
69A
 10
-0.387377
 20
5.96127
 30
0.000000
  70
    32
  0
VERTEX
  8
0
  5
69B
 10
-0.387235
 20
5.96123
 30
0.000000
  70
    32
  0
VERTEX
  8
0
  5
69C
 10
-0.387093
 20
5.96119
 30
0.000000
  70
    32
  0
VERTEX
  8
0
  5
69D
 10
-0.386950
 20
5.96116
 30
0.000000
  70
    32
  0
VERTEX
  8
0
  5
69E
 10
-0.386807
 20
5.96112
 30
0.000000
  70
    32
  0
VERTEX
  8
0
  5
69F
 10
-0.386663
 20
5.96108
 30
0.000000
  70
    32
  0
VERTEX
  8
0
  5
6A0
 10
-0.386518
 20
5.96105
 30
0.000000
  70
    32
  0
VERTEX
  8
0
  5
6A1
 10
-0.386372
 20
5.96102
 30
0.000000
  70
    32
  0
VERTEX
  8
0
  5
6A2
 10
-0.386226
 20
5.96099
 30
0.000000
  70
    32
  0
VERTEX
  8
0
  5
6A3
 10
-0.386079
 20
5.96096
 30
0.000000
  70
    32
  0
VERTEX
  8
0
  5
6A4
 10
-0.385932
 20
5.96094
 30
0.000000
  70
    32
  0
VERTEX
  8
0
  5
6A5
 10
-0.385783
 20
5.96092
 30
0.000000
  70
    32
  0
VERTEX
  8
0
  5
6A6
 10
-0.385635
 20
5.96089
 30
0.000000
  70
    32
  0
VERTEX
  8
0
  5
6A7
 10
-0.385485
 20
5.96087
 30
0.000000
  70
    32
  0
VERTEX
  8
0
  5
6A8
 10
-0.385335
 20
5.96086
 30
0.000000
  70
    32
  0
VERTEX
  8
0
  5
6A9
 10
-0.385185
 20
5.96084
 30
0.000000
  70
    32
  0
VERTEX
  8
0
  5
6AA
 10
-0.385034
 20
5.96082
 30
0.000000
  70
    32
  0
VERTEX
  8
0
  5
6AB
 10
-0.384882
 20
5.96081
 30
0.000000
  70
    32
  0
VERTEX
  8
0
  5
6AC
 10
-0.384730
 20
5.96080
 30
0.000000
  70
    32
  0
VERTEX
  8
0
  5
6AD
 10
-0.384578
 20
5.96079
 30
0.000000
  70
    32
  0
VERTEX
  8
0
  5
6AE
 10
-0.384425
 20
5.96079
 30
0.000000
  70
    32
  0
VERTEX
  8
0
  5
6AF
 10
-0.384271
 20
5.96078
 30
0.000000
  70
    32
  0
VERTEX
  8
0
  5
6B0
 10
-0.384117
 20
5.96078
 30
0.000000
  70
    32
  0
VERTEX
  8
0
  5
6B1
 10
-0.383962
 20
5.96078
 30
0.000000
  70
    32
  0
SEQEND
  8
0
  5
6B2
  0
POLYLINE
  8
0
  5
6B3
  66
     1
 10
0.000000
 20
0.000000
 30
0.000000
  70
     8
  0
VERTEX
  8
0
  5
6B4
 10
-0.388019
 20
6.87097
 30
0.000000
  70
    32
  0
VERTEX
  8
0
  5
6B5
 10
-0.388136
 20
6.87088
 30
0.000000
  70
    32
  0
VERTEX
  8
0
  5
6B6
 10
-0.388251
 20
6.87079
 30
0.000000
  70
    32
  0
VERTEX
  8
0
  5
6B7
 10
-0.388365
 20
6.87070
 30
0.000000
  70
    32
  0
VERTEX
  8
0
  5
6B8
 10
-0.388479
 20
6.87061
 30
0.000000
  70
    32
  0
VERTEX
  8
0
  5
6B9
 10
-0.388592
 20
6.87052
 30
0.000000
  70
    32
  0
VERTEX
  8
0
  5
6BA
 10
-0.388704
 20
6.87043
 30
0.000000
  70
    32
  0
VERTEX
  8
0
  5
6BB
 10
-0.388816
 20
6.87033
 30
0.000000
  70
    32
  0
VERTEX
  8
0
  5
6BC
 10
-0.388927
 20
6.87024
 30
0.000000
  70
    32
  0
VERTEX
  8
0
  5
6BD
 10
-0.389036
 20
6.87014
 30
0.000000
  70
    32
  0
VERTEX
  8
0
  5
6BE
 10
-0.389146
 20
6.87005
 30
0.000000
  70
    32
  0
VERTEX
  8
0
  5
6BF
 10
-0.389254
 20
6.86995
 30
0.000000
  70
    32
  0
VERTEX
  8
0
  5
6C0
 10
-0.389362
 20
6.86985
 30
0.000000
  70
    32
  0
VERTEX
  8
0
  5
6C1
 10
-0.389468
 20
6.86976
 30
0.000000
  70
    32
  0
VERTEX
  8
0
  5
6C2
 10
-0.389574
 20
6.86966
 30
0.000000
  70
    32
  0
VERTEX
  8
0
  5
6C3
 10
-0.389679
 20
6.86956
 30
0.000000
  70
    32
  0
VERTEX
  8
0
  5
6C4
 10
-0.389784
 20
6.86946
 30
0.000000
  70
    32
  0
VERTEX
  8
0
  5
6C5
 10
-0.389887
 20
6.86936
 30
0.000000
  70
    32
  0
VERTEX
  8
0
  5
6C6
 10
-0.389990
 20
6.86926
 30
0.000000
  70
    32
  0
VERTEX
  8
0
  5
6C7
 10
-0.390092
 20
6.86916
 30
0.000000
  70
    32
  0
VERTEX
  8
0
  5
6C8
 10
-0.390193
 20
6.86905
 30
0.000000
  70
    32
  0
VERTEX
  8
0
  5
6C9
 10
-0.390294
 20
6.86895
 30
0.000000
  70
    32
  0
VERTEX
  8
0
  5
6CA
 10
-0.390393
 20
6.86885
 30
0.000000
  70
    32
  0
VERTEX
  8
0
  5
6CB
 10
-0.390492
 20
6.86874
 30
0.000000
  70
    32
  0
VERTEX
  8
0
  5
6CC
 10
-0.390590
 20
6.86864
 30
0.000000
  70
    32
  0
VERTEX
  8
0
  5
6CD
 10
-0.390687
 20
6.86853
 30
0.000000
  70
    32
  0
VERTEX
  8
0
  5
6CE
 10
-0.390784
 20
6.86842
 30
0.000000
  70
    32
  0
VERTEX
  8
0
  5
6CF
 10
-0.390879
 20
6.86832
 30
0.000000
  70
    32
  0
VERTEX
  8
0
  5
6D0
 10
-0.390974
 20
6.86821
 30
0.000000
  70
    32
  0
VERTEX
  8
0
  5
6D1
 10
-0.391067
 20
6.86810
 30
0.000000
  70
    32
  0
VERTEX
  8
0
  5
6D2
 10
-0.391160
 20
6.86799
 30
0.000000
  70
    32
  0
VERTEX
  8
0
  5
6D3
 10
-0.391253
 20
6.86788
 30
0.000000
  70
    32
  0
VERTEX
  8
0
  5
6D4
 10
-0.391344
 20
6.86777
 30
0.000000
  70
    32
  0
VERTEX
  8
0
  5
6D5
 10
-0.391434
 20
6.86766
 30
0.000000
  70
    32
  0
VERTEX
  8
0
  5
6D6
 10
-0.391524
 20
6.86755
 30
0.000000
  70
    32
  0
VERTEX
  8
0
  5
6D7
 10
-0.391613
 20
6.86744
 30
0.000000
  70
    32
  0
VERTEX
  8
0
  5
6D8
 10
-0.391701
 20
6.86732
 30
0.000000
  70
    32
  0
VERTEX
  8
0
  5
6D9
 10
-0.391788
 20
6.86721
 30
0.000000
  70
    32
  0
VERTEX
  8
0
  5
6DA
 10
-0.391874
 20
6.86709
 30
0.000000
  70
    32
  0
VERTEX
  8
0
  5
6DB
 10
-0.391960
 20
6.86698
 30
0.000000
  70
    32
  0
VERTEX
  8
0
  5
6DC
 10
-0.392044
 20
6.86686
 30
0.000000
  70
    32
  0
VERTEX
  8
0
  5
6DD
 10
-0.392128
 20
6.86675
 30
0.000000
  70
    32
  0
VERTEX
  8
0
  5
6DE
 10
-0.392211
 20
6.86663
 30
0.000000
  70
    32
  0
VERTEX
  8
0
  5
6DF
 10
-0.392293
 20
6.86652
 30
0.000000
  70
    32
  0
VERTEX
  8
0
  5
6E0
 10
-0.392374
 20
6.86640
 30
0.000000
  70
    32
  0
VERTEX
  8
0
  5
6E1
 10
-0.392454
 20
6.86628
 30
0.000000
  70
    32
  0
VERTEX
  8
0
  5
6E2
 10
-0.392533
 20
6.86616
 30
0.000000
  70
    32
  0
VERTEX
  8
0
  5
6E3
 10
-0.392612
 20
6.86604
 30
0.000000
  70
    32
  0
VERTEX
  8
0
  5
6E4
 10
-0.392689
 20
6.86592
 30
0.000000
  70
    32
  0
VERTEX
  8
0
  5
6E5
 10
-0.392766
 20
6.86580
 30
0.000000
  70
    32
  0
VERTEX
  8
0
  5
6E6
 10
-0.392842
 20
6.86568
 30
0.000000
  70
    32
  0
VERTEX
  8
0
  5
6E7
 10
-0.392917
 20
6.86556
 30
0.000000
  70
    32
  0
VERTEX
  8
0
  5
6E8
 10
-0.392991
 20
6.86544
 30
0.000000
  70
    32
  0
VERTEX
  8
0
  5
6E9
 10
-0.393064
 20
6.86532
 30
0.000000
  70
    32
  0
VERTEX
  8
0
  5
6EA
 10
-0.393136
 20
6.86519
 30
0.000000
  70
    32
  0
VERTEX
  8
0
  5
6EB
 10
-0.393208
 20
6.86507
 30
0.000000
  70
    32
  0
VERTEX
  8
0
  5
6EC
 10
-0.393278
 20
6.86495
 30
0.000000
  70
    32
  0
VERTEX
  8
0
  5
6ED
 10
-0.393348
 20
6.86482
 30
0.000000
  70
    32
  0
VERTEX
  8
0
  5
6EE
 10
-0.393417
 20
6.86470
 30
0.000000
  70
    32
  0
VERTEX
  8
0
  5
6EF
 10
-0.393485
 20
6.86457
 30
0.000000
  70
    32
  0
VERTEX
  8
0
  5
6F0
 10
-0.393551
 20
6.86445
 30
0.000000
  70
    32
  0
VERTEX
  8
0
  5
6F1
 10
-0.393617
 20
6.86432
 30
0.000000
  70
    32
  0
VERTEX
  8
0
  5
6F2
 10
-0.393683
 20
6.86419
 30
0.000000
  70
    32
  0
VERTEX
  8
0
  5
6F3
 10
-0.393747
 20
6.86407
 30
0.000000
  70
    32
  0
VERTEX
  8
0
  5
6F4
 10
-0.393810
 20
6.86394
 30
0.000000
  70
    32
  0
VERTEX
  8
0
  5
6F5
 10
-0.393872
 20
6.86381
 30
0.000000
  70
    32
  0
VERTEX
  8
0
  5
6F6
 10
-0.393934
 20
6.86368
 30
0.000000
  70
    32
  0
VERTEX
  8
0
  5
6F7
 10
-0.393994
 20
6.86355
 30
0.000000
  70
    32
  0
VERTEX
  8
0
  5
6F8
 10
-0.394054
 20
6.86343
 30
0.000000
  70
    32
  0
VERTEX
  8
0
  5
6F9
 10
-0.394112
 20
6.86330
 30
0.000000
  70
    32
  0
VERTEX
  8
0
  5
6FA
 10
-0.394170
 20
6.86317
 30
0.000000
  70
    32
  0
VERTEX
  8
0
  5
6FB
 10
-0.394227
 20
6.86303
 30
0.000000
  70
    32
  0
VERTEX
  8
0
  5
6FC
 10
-0.394283
 20
6.86290
 30
0.000000
  70
    32
  0
VERTEX
  8
0
  5
6FD
 10
-0.394338
 20
6.86277
 30
0.000000
  70
    32
  0
VERTEX
  8
0
  5
6FE
 10
-0.394392
 20
6.86264
 30
0.000000
  70
    32
  0
VERTEX
  8
0
  5
6FF
 10
-0.394445
 20
6.86251
 30
0.000000
  70
    32
  0
VERTEX
  8
0
  5
700
 10
-0.394497
 20
6.86238
 30
0.000000
  70
    32
  0
VERTEX
  8
0
  5
701
 10
-0.394548
 20
6.86224
 30
0.000000
  70
    32
  0
VERTEX
  8
0
  5
702
 10
-0.394598
 20
6.86211
 30
0.000000
  70
    32
  0
VERTEX
  8
0
  5
703
 10
-0.394647
 20
6.86197
 30
0.000000
  70
    32
  0
VERTEX
  8
0
  5
704
 10
-0.394696
 20
6.86184
 30
0.000000
  70
    32
  0
VERTEX
  8
0
  5
705
 10
-0.394743
 20
6.86171
 30
0.000000
  70
    32
  0
VERTEX
  8
0
  5
706
 10
-0.394789
 20
6.86157
 30
0.000000
  70
    32
  0
VERTEX
  8
0
  5
707
 10
-0.394835
 20
6.86144
 30
0.000000
  70
    32
  0
VERTEX
  8
0
  5
708
 10
-0.394879
 20
6.86130
 30
0.000000
  70
    32
  0
VERTEX
  8
0
  5
709
 10
-0.394922
 20
6.86116
 30
0.000000
  70
    32
  0
VERTEX
  8
0
  5
70A
 10
-0.394965
 20
6.86103
 30
0.000000
  70
    32
  0
VERTEX
  8
0
  5
70B
 10
-0.395006
 20
6.86089
 30
0.000000
  70
    32
  0
VERTEX
  8
0
  5
70C
 10
-0.395047
 20
6.86075
 30
0.000000
  70
    32
  0
VERTEX
  8
0
  5
70D
 10
-0.395087
 20
6.86062
 30
0.000000
  70
    32
  0
VERTEX
  8
0
  5
70E
 10
-0.395125
 20
6.86048
 30
0.000000
  70
    32
  0
VERTEX
  8
0
  5
70F
 10
-0.395163
 20
6.86034
 30
0.000000
  70
    32
  0
VERTEX
  8
0
  5
710
 10
-0.395199
 20
6.86020
 30
0.000000
  70
    32
  0
VERTEX
  8
0
  5
711
 10
-0.395235
 20
6.86006
 30
0.000000
  70
    32
  0
VERTEX
  8
0
  5
712
 10
-0.395270
 20
6.85993
 30
0.000000
  70
    32
  0
VERTEX
  8
0
  5
713
 10
-0.395303
 20
6.85979
 30
0.000000
  70
    32
  0
VERTEX
  8
0
  5
714
 10
-0.395336
 20
6.85965
 30
0.000000
  70
    32
  0
VERTEX
  8
0
  5
715
 10
-0.395367
 20
6.85951
 30
0.000000
  70
    32
  0
VERTEX
  8
0
  5
716
 10
-0.395398
 20
6.85937
 30
0.000000
  70
    32
  0
VERTEX
  8
0
  5
717
 10
-0.395428
 20
6.85923
 30
0.000000
  70
    32
  0
VERTEX
  8
0
  5
718
 10
-0.395456
 20
6.85909
 30
0.000000
  70
    32
  0
VERTEX
  8
0
  5
719
 10
-0.395484
 20
6.85895
 30
0.000000
  70
    32
  0
VERTEX
  8
0
  5
71A
 10
-0.395511
 20
6.85880
 30
0.000000
  70
    32
  0
VERTEX
  8
0
  5
71B
 10
-0.395536
 20
6.85866
 30
0.000000
  70
    32
  0
VERTEX
  8
0
  5
71C
 10
-0.395561
 20
6.85852
 30
0.000000
  70
    32
  0
VERTEX
  8
0
  5
71D
 10
-0.395584
 20
6.85838
 30
0.000000
  70
    32
  0
VERTEX
  8
0
  5
71E
 10
-0.395607
 20
6.85824
 30
0.000000
  70
    32
  0
VERTEX
  8
0
  5
71F
 10
-0.395628
 20
6.85810
 30
0.000000
  70
    32
  0
VERTEX
  8
0
  5
720
 10
-0.395649
 20
6.85795
 30
0.000000
  70
    32
  0
VERTEX
  8
0
  5
721
 10
-0.395668
 20
6.85781
 30
0.000000
  70
    32
  0
VERTEX
  8
0
  5
722
 10
-0.395687
 20
6.85767
 30
0.000000
  70
    32
  0
VERTEX
  8
0
  5
723
 10
-0.395704
 20
6.85752
 30
0.000000
  70
    32
  0
VERTEX
  8
0
  5
724
 10
-0.395721
 20
6.85738
 30
0.000000
  70
    32
  0
VERTEX
  8
0
  5
725
 10
-0.395736
 20
6.85724
 30
0.000000
  70
    32
  0
VERTEX
  8
0
  5
726
 10
-0.395750
 20
6.85709
 30
0.000000
  70
    32
  0
VERTEX
  8
0
  5
727
 10
-0.395763
 20
6.85695
 30
0.000000
  70
    32
  0
VERTEX
  8
0
  5
728
 10
-0.395776
 20
6.85680
 30
0.000000
  70
    32
  0
VERTEX
  8
0
  5
729
 10
-0.395787
 20
6.85666
 30
0.000000
  70
    32
  0
VERTEX
  8
0
  5
72A
 10
-0.395797
 20
6.85652
 30
0.000000
  70
    32
  0
VERTEX
  8
0
  5
72B
 10
-0.395806
 20
6.85637
 30
0.000000
  70
    32
  0
VERTEX
  8
0
  5
72C
 10
-0.395814
 20
6.85623
 30
0.000000
  70
    32
  0
VERTEX
  8
0
  5
72D
 10
-0.395821
 20
6.85608
 30
0.000000
  70
    32
  0
VERTEX
  8
0
  5
72E
 10
-0.395827
 20
6.85593
 30
0.000000
  70
    32
  0
VERTEX
  8
0
  5
72F
 10
-0.395832
 20
6.85579
 30
0.000000
  70
    32
  0
VERTEX
  8
0
  5
730
 10
-0.395835
 20
6.85564
 30
0.000000
  70
    32
  0
VERTEX
  8
0
  5
731
 10
-0.395838
 20
6.85550
 30
0.000000
  70
    32
  0
VERTEX
  8
0
  5
732
 10
-0.395840
 20
6.85535
 30
0.000000
  70
    32
  0
VERTEX
  8
0
  5
733
 10
-0.395840
 20
6.85521
 30
0.000000
  70
    32
  0
SEQEND
  8
0
  5
734
  0
POLYLINE
  8
0
  5
735
  66
     1
 10
0.000000
 20
0.000000
 30
0.000000
  70
     8
  0
VERTEX
  8
0
  5
736
 10
-0.370748
 20
6.87428
 30
0.000000
  70
    32
  0
VERTEX
  8
0
  5
737
 10
-0.370889
 20
6.87432
 30
0.000000
  70
    32
  0
VERTEX
  8
0
  5
738
 10
-0.371030
 20
6.87435
 30
0.000000
  70
    32
  0
VERTEX
  8
0
  5
739
 10
-0.371171
 20
6.87439
 30
0.000000
  70
    32
  0
VERTEX
  8
0
  5
73A
 10
-0.371313
 20
6.87443
 30
0.000000
  70
    32
  0
VERTEX
  8
0
  5
73B
 10
-0.371454
 20
6.87446
 30
0.000000
  70
    32
  0
VERTEX
  8
0
  5
73C
 10
-0.371596
 20
6.87449
 30
0.000000
  70
    32
  0
VERTEX
  8
0
  5
73D
 10
-0.371737
 20
6.87453
 30
0.000000
  70
    32
  0
VERTEX
  8
0
  5
73E
 10
-0.371879
 20
6.87456
 30
0.000000
  70
    32
  0
VERTEX
  8
0
  5
73F
 10
-0.372021
 20
6.87459
 30
0.000000
  70
    32
  0
VERTEX
  8
0
  5
740
 10
-0.372163
 20
6.87462
 30
0.000000
  70
    32
  0
VERTEX
  8
0
  5
741
 10
-0.372305
 20
6.87464
 30
0.000000
  70
    32
  0
VERTEX
  8
0
  5
742
 10
-0.372447
 20
6.87467
 30
0.000000
  70
    32
  0
VERTEX
  8
0
  5
743
 10
-0.372590
 20
6.87470
 30
0.000000
  70
    32
  0
VERTEX
  8
0
  5
744
 10
-0.372732
 20
6.87472
 30
0.000000
  70
    32
  0
VERTEX
  8
0
  5
745
 10
-0.372875
 20
6.87475
 30
0.000000
  70
    32
  0
VERTEX
  8
0
  5
746
 10
-0.373017
 20
6.87477
 30
0.000000
  70
    32
  0
VERTEX
  8
0
  5
747
 10
-0.373160
 20
6.87479
 30
0.000000
  70
    32
  0
VERTEX
  8
0
  5
748
 10
-0.373302
 20
6.87481
 30
0.000000
  70
    32
  0
VERTEX
  8
0
  5
749
 10
-0.373445
 20
6.87483
 30
0.000000
  70
    32
  0
VERTEX
  8
0
  5
74A
 10
-0.373588
 20
6.87485
 30
0.000000
  70
    32
  0
VERTEX
  8
0
  5
74B
 10
-0.373731
 20
6.87487
 30
0.000000
  70
    32
  0
VERTEX
  8
0
  5
74C
 10
-0.373874
 20
6.87488
 30
0.000000
  70
    32
  0
VERTEX
  8
0
  5
74D
 10
-0.374017
 20
6.87490
 30
0.000000
  70
    32
  0
VERTEX
  8
0
  5
74E
 10
-0.374160
 20
6.87491
 30
0.000000
  70
    32
  0
VERTEX
  8
0
  5
74F
 10
-0.374302
 20
6.87493
 30
0.000000
  70
    32
  0
VERTEX
  8
0
  5
750
 10
-0.374445
 20
6.87494
 30
0.000000
  70
    32
  0
VERTEX
  8
0
  5
751
 10
-0.374589
 20
6.87495
 30
0.000000
  70
    32
  0
VERTEX
  8
0
  5
752
 10
-0.374732
 20
6.87496
 30
0.000000
  70
    32
  0
VERTEX
  8
0
  5
753
 10
-0.374875
 20
6.87497
 30
0.000000
  70
    32
  0
VERTEX
  8
0
  5
754
 10
-0.375018
 20
6.87498
 30
0.000000
  70
    32
  0
VERTEX
  8
0
  5
755
 10
-0.375161
 20
6.87498
 30
0.000000
  70
    32
  0
VERTEX
  8
0
  5
756
 10
-0.375304
 20
6.87499
 30
0.000000
  70
    32
  0
VERTEX
  8
0
  5
757
 10
-0.375447
 20
6.87499
 30
0.000000
  70
    32
  0
VERTEX
  8
0
  5
758
 10
-0.375590
 20
6.87500
 30
0.000000
  70
    32
  0
VERTEX
  8
0
  5
759
 10
-0.375732
 20
6.87500
 30
0.000000
  70
    32
  0
VERTEX
  8
0
  5
75A
 10
-0.375875
 20
6.87500
 30
0.000000
  70
    32
  0
VERTEX
  8
0
  5
75B
 10
-0.376018
 20
6.87500
 30
0.000000
  70
    32
  0
VERTEX
  8
0
  5
75C
 10
-0.376161
 20
6.87500
 30
0.000000
  70
    32
  0
VERTEX
  8
0
  5
75D
 10
-0.376304
 20
6.87500
 30
0.000000
  70
    32
  0
VERTEX
  8
0
  5
75E
 10
-0.376446
 20
6.87500
 30
0.000000
  70
    32
  0
VERTEX
  8
0
  5
75F
 10
-0.376589
 20
6.87500
 30
0.000000
  70
    32
  0
VERTEX
  8
0
  5
760
 10
-0.376732
 20
6.87499
 30
0.000000
  70
    32
  0
VERTEX
  8
0
  5
761
 10
-0.376874
 20
6.87499
 30
0.000000
  70
    32
  0
VERTEX
  8
0
  5
762
 10
-0.377017
 20
6.87498
 30
0.000000
  70
    32
  0
VERTEX
  8
0
  5
763
 10
-0.377159
 20
6.87497
 30
0.000000
  70
    32
  0
VERTEX
  8
0
  5
764
 10
-0.377301
 20
6.87496
 30
0.000000
  70
    32
  0
VERTEX
  8
0
  5
765
 10
-0.377443
 20
6.87495
 30
0.000000
  70
    32
  0
VERTEX
  8
0
  5
766
 10
-0.377585
 20
6.87494
 30
0.000000
  70
    32
  0
VERTEX
  8
0
  5
767
 10
-0.377727
 20
6.87493
 30
0.000000
  70
    32
  0
VERTEX
  8
0
  5
768
 10
-0.377869
 20
6.87492
 30
0.000000
  70
    32
  0
VERTEX
  8
0
  5
769
 10
-0.378011
 20
6.87491
 30
0.000000
  70
    32
  0
VERTEX
  8
0
  5
76A
 10
-0.378152
 20
6.87489
 30
0.000000
  70
    32
  0
VERTEX
  8
0
  5
76B
 10
-0.378294
 20
6.87487
 30
0.000000
  70
    32
  0
VERTEX
  8
0
  5
76C
 10
-0.378435
 20
6.87486
 30
0.000000
  70
    32
  0
VERTEX
  8
0
  5
76D
 10
-0.378576
 20
6.87484
 30
0.000000
  70
    32
  0
VERTEX
  8
0
  5
76E
 10
-0.378717
 20
6.87482
 30
0.000000
  70
    32
  0
VERTEX
  8
0
  5
76F
 10
-0.378858
 20
6.87480
 30
0.000000
  70
    32
  0
VERTEX
  8
0
  5
770
 10
-0.378999
 20
6.87478
 30
0.000000
  70
    32
  0
VERTEX
  8
0
  5
771
 10
-0.379140
 20
6.87476
 30
0.000000
  70
    32
  0
VERTEX
  8
0
  5
772
 10
-0.379280
 20
6.87474
 30
0.000000
  70
    32
  0
VERTEX
  8
0
  5
773
 10
-0.379420
 20
6.87471
 30
0.000000
  70
    32
  0
VERTEX
  8
0
  5
774
 10
-0.379560
 20
6.87469
 30
0.000000
  70
    32
  0
VERTEX
  8
0
  5
775
 10
-0.379700
 20
6.87466
 30
0.000000
  70
    32
  0
VERTEX
  8
0
  5
776
 10
-0.379840
 20
6.87464
 30
0.000000
  70
    32
  0
VERTEX
  8
0
  5
777
 10
-0.379979
 20
6.87461
 30
0.000000
  70
    32
  0
VERTEX
  8
0
  5
778
 10
-0.380119
 20
6.87458
 30
0.000000
  70
    32
  0
VERTEX
  8
0
  5
779
 10
-0.380258
 20
6.87455
 30
0.000000
  70
    32
  0
VERTEX
  8
0
  5
77A
 10
-0.380397
 20
6.87452
 30
0.000000
  70
    32
  0
VERTEX
  8
0
  5
77B
 10
-0.380535
 20
6.87449
 30
0.000000
  70
    32
  0
VERTEX
  8
0
  5
77C
 10
-0.380674
 20
6.87445
 30
0.000000
  70
    32
  0
VERTEX
  8
0
  5
77D
 10
-0.380812
 20
6.87442
 30
0.000000
  70
    32
  0
VERTEX
  8
0
  5
77E
 10
-0.380950
 20
6.87438
 30
0.000000
  70
    32
  0
VERTEX
  8
0
  5
77F
 10
-0.381088
 20
6.87435
 30
0.000000
  70
    32
  0
VERTEX
  8
0
  5
780
 10
-0.381225
 20
6.87431
 30
0.000000
  70
    32
  0
VERTEX
  8
0
  5
781
 10
-0.381362
 20
6.87427
 30
0.000000
  70
    32
  0
VERTEX
  8
0
  5
782
 10
-0.381499
 20
6.87424
 30
0.000000
  70
    32
  0
VERTEX
  8
0
  5
783
 10
-0.381636
 20
6.87420
 30
0.000000
  70
    32
  0
VERTEX
  8
0
  5
784
 10
-0.381773
 20
6.87415
 30
0.000000
  70
    32
  0
VERTEX
  8
0
  5
785
 10
-0.381909
 20
6.87411
 30
0.000000
  70
    32
  0
VERTEX
  8
0
  5
786
 10
-0.382045
 20
6.87407
 30
0.000000
  70
    32
  0
VERTEX
  8
0
  5
787
 10
-0.382180
 20
6.87403
 30
0.000000
  70
    32
  0
VERTEX
  8
0
  5
788
 10
-0.382316
 20
6.87398
 30
0.000000
  70
    32
  0
VERTEX
  8
0
  5
789
 10
-0.382451
 20
6.87394
 30
0.000000
  70
    32
  0
VERTEX
  8
0
  5
78A
 10
-0.382585
 20
6.87389
 30
0.000000
  70
    32
  0
VERTEX
  8
0
  5
78B
 10
-0.382720
 20
6.87384
 30
0.000000
  70
    32
  0
VERTEX
  8
0
  5
78C
 10
-0.382854
 20
6.87379
 30
0.000000
  70
    32
  0
VERTEX
  8
0
  5
78D
 10
-0.382988
 20
6.87374
 30
0.000000
  70
    32
  0
VERTEX
  8
0
  5
78E
 10
-0.383121
 20
6.87369
 30
0.000000
  70
    32
  0
VERTEX
  8
0
  5
78F
 10
-0.383255
 20
6.87364
 30
0.000000
  70
    32
  0
VERTEX
  8
0
  5
790
 10
-0.383387
 20
6.87359
 30
0.000000
  70
    32
  0
VERTEX
  8
0
  5
791
 10
-0.383520
 20
6.87354
 30
0.000000
  70
    32
  0
VERTEX
  8
0
  5
792
 10
-0.383652
 20
6.87348
 30
0.000000
  70
    32
  0
VERTEX
  8
0
  5
793
 10
-0.383784
 20
6.87343
 30
0.000000
  70
    32
  0
VERTEX
  8
0
  5
794
 10
-0.383915
 20
6.87337
 30
0.000000
  70
    32
  0
VERTEX
  8
0
  5
795
 10
-0.384046
 20
6.87331
 30
0.000000
  70
    32
  0
VERTEX
  8
0
  5
796
 10
-0.384177
 20
6.87325
 30
0.000000
  70
    32
  0
VERTEX
  8
0
  5
797
 10
-0.384308
 20
6.87319
 30
0.000000
  70
    32
  0
VERTEX
  8
0
  5
798
 10
-0.384438
 20
6.87313
 30
0.000000
  70
    32
  0
VERTEX
  8
0
  5
799
 10
-0.384567
 20
6.87307
 30
0.000000
  70
    32
  0
VERTEX
  8
0
  5
79A
 10
-0.384696
 20
6.87301
 30
0.000000
  70
    32
  0
VERTEX
  8
0
  5
79B
 10
-0.384825
 20
6.87295
 30
0.000000
  70
    32
  0
VERTEX
  8
0
  5
79C
 10
-0.384954
 20
6.87288
 30
0.000000
  70
    32
  0
VERTEX
  8
0
  5
79D
 10
-0.385082
 20
6.87282
 30
0.000000
  70
    32
  0
VERTEX
  8
0
  5
79E
 10
-0.385209
 20
6.87275
 30
0.000000
  70
    32
  0
VERTEX
  8
0
  5
79F
 10
-0.385337
 20
6.87268
 30
0.000000
  70
    32
  0
VERTEX
  8
0
  5
7A0
 10
-0.385463
 20
6.87262
 30
0.000000
  70
    32
  0
VERTEX
  8
0
  5
7A1
 10
-0.385590
 20
6.87255
 30
0.000000
  70
    32
  0
VERTEX
  8
0
  5
7A2
 10
-0.385716
 20
6.87248
 30
0.000000
  70
    32
  0
VERTEX
  8
0
  5
7A3
 10
-0.385841
 20
6.87241
 30
0.000000
  70
    32
  0
VERTEX
  8
0
  5
7A4
 10
-0.385966
 20
6.87234
 30
0.000000
  70
    32
  0
VERTEX
  8
0
  5
7A5
 10
-0.386091
 20
6.87226
 30
0.000000
  70
    32
  0
VERTEX
  8
0
  5
7A6
 10
-0.386215
 20
6.87219
 30
0.000000
  70
    32
  0
VERTEX
  8
0
  5
7A7
 10
-0.386339
 20
6.87211
 30
0.000000
  70
    32
  0
VERTEX
  8
0
  5
7A8
 10
-0.386462
 20
6.87204
 30
0.000000
  70
    32
  0
VERTEX
  8
0
  5
7A9
 10
-0.386585
 20
6.87196
 30
0.000000
  70
    32
  0
VERTEX
  8
0
  5
7AA
 10
-0.386707
 20
6.87188
 30
0.000000
  70
    32
  0
VERTEX
  8
0
  5
7AB
 10
-0.386829
 20
6.87181
 30
0.000000
  70
    32
  0
VERTEX
  8
0
  5
7AC
 10
-0.386950
 20
6.87173
 30
0.000000
  70
    32
  0
VERTEX
  8
0
  5
7AD
 10
-0.387071
 20
6.87165
 30
0.000000
  70
    32
  0
VERTEX
  8
0
  5
7AE
 10
-0.387191
 20
6.87157
 30
0.000000
  70
    32
  0
VERTEX
  8
0
  5
7AF
 10
-0.387311
 20
6.87148
 30
0.000000
  70
    32
  0
VERTEX
  8
0
  5
7B0
 10
-0.387431
 20
6.87140
 30
0.000000
  70
    32
  0
VERTEX
  8
0
  5
7B1
 10
-0.387549
 20
6.87132
 30
0.000000
  70
    32
  0
VERTEX
  8
0
  5
7B2
 10
-0.387668
 20
6.87123
 30
0.000000
  70
    32
  0
VERTEX
  8
0
  5
7B3
 10
-0.387785
 20
6.87114
 30
0.000000
  70
    32
  0
VERTEX
  8
0
  5
7B4
 10
-0.387903
 20
6.87106
 30
0.000000
  70
    32
  0
VERTEX
  8
0
  5
7B5
 10
-0.388019
 20
6.87097
 30
0.000000
  70
    32
  0
SEQEND
  8
0
  5
7B6
  0
POLYLINE
  8
0
  5
7B7
  66
     1
 10
0.000000
 20
0.000000
 30
0.000000
  70
     8
  0
VERTEX
  8
0
  5
7B8
 10
1.16771
 20
0.000000
 30
0.000000
  70
    32
  0
VERTEX
  8
0
  5
7B9
 10
1.16796
 20
1.64538e-006
 30
0.000000
  70
    32
  0
VERTEX
  8
0
  5
7BA
 10
1.16822
 20
6.56822e-006
 30
0.000000
  70
    32
  0
VERTEX
  8
0
  5
7BB
 10
1.16848
 20
1.47486e-005
 30
0.000000
  70
    32
  0
VERTEX
  8
0
  5
7BC
 10
1.16873
 20
2.61666e-005
 30
0.000000
  70
    32
  0
VERTEX
  8
0
  5
7BD
 10
1.16899
 20
4.08022e-005
 30
0.000000
  70
    32
  0
VERTEX
  8
0
  5
7BE
 10
1.16924
 20
5.86356e-005
 30
0.000000
  70
    32
  0
VERTEX
  8
0
  5
7BF
 10
1.16949
 20
7.96468e-005
 30
0.000000
  70
    32
  0
VERTEX
  8
0
  5
7C0
 10
1.16975
 20
0.000103816
 30
0.000000
  70
    32
  0
VERTEX
  8
0
  5
7C1
 10
1.17000
 20
0.000131123
 30
0.000000
  70
    32
  0
VERTEX
  8
0
  5
7C2
 10
1.17025
 20
0.000161548
 30
0.000000
  70
    32
  0
VERTEX
  8
0
  5
7C3
 10
1.17050
 20
0.000195071
 30
0.000000
  70
    32
  0
VERTEX
  8
0
  5
7C4
 10
1.17074
 20
0.000231672
 30
0.000000
  70
    32
  0
VERTEX
  8
0
  5
7C5
 10
1.17099
 20
0.000271331
 30
0.000000
  70
    32
  0
VERTEX
  8
0
  5
7C6
 10
1.17124
 20
0.000314029
 30
0.000000
  70
    32
  0
VERTEX
  8
0
  5
7C7
 10
1.17148
 20
0.000359745
 30
0.000000
  70
    32
  0
VERTEX
  8
0
  5
7C8
 10
1.17173
 20
0.000408460
 30
0.000000
  70
    32
  0
VERTEX
  8
0
  5
7C9
 10
1.17197
 20
0.000460153
 30
0.000000
  70
    32
  0
VERTEX
  8
0
  5
7CA
 10
1.17221
 20
0.000514804
 30
0.000000
  70
    32
  0
VERTEX
  8
0
  5
7CB
 10
1.17245
 20
0.000572394
 30
0.000000
  70
    32
  0
VERTEX
  8
0
  5
7CC
 10
1.17269
 20
0.000632903
 30
0.000000
  70
    32
  0
VERTEX
  8
0
  5
7CD
 10
1.17293
 20
0.000696311
 30
0.000000
  70
    32
  0
VERTEX
  8
0
  5
7CE
 10
1.17317
 20
0.000762597
 30
0.000000
  70
    32
  0
VERTEX
  8
0
  5
7CF
 10
1.17340
 20
0.000831742
 30
0.000000
  70
    32
  0
VERTEX
  8
0
  5
7D0
 10
1.17364
 20
0.000903726
 30
0.000000
  70
    32
  0
VERTEX
  8
0
  5
7D1
 10
1.17387
 20
0.000978530
 30
0.000000
  70
    32
  0
VERTEX
  8
0
  5
7D2
 10
1.17410
 20
0.00105613
 30
0.000000
  70
    32
  0
VERTEX
  8
0
  5
7D3
 10
1.17433
 20
0.00113651
 30
0.000000
  70
    32
  0
VERTEX
  8
0
  5
7D4
 10
1.17456
 20
0.00121965
 30
0.000000
  70
    32
  0
VERTEX
  8
0
  5
7D5
 10
1.17479
 20
0.00130553
 30
0.000000
  70
    32
  0
VERTEX
  8
0
  5
7D6
 10
1.17502
 20
0.00139413
 30
0.000000
  70
    32
  0
VERTEX
  8
0
  5
7D7
 10
1.17524
 20
0.00148543
 30
0.000000
  70
    32
  0
VERTEX
  8
0
  5
7D8
 10
1.17547
 20
0.00157941
 30
0.000000
  70
    32
  0
VERTEX
  8
0
  5
7D9
 10
1.17569
 20
0.00167605
 30
0.000000
  70
    32
  0
VERTEX
  8
0
  5
7DA
 10
1.17591
 20
0.00177533
 30
0.000000
  70
    32
  0
VERTEX
  8
0
  5
7DB
 10
1.17613
 20
0.00187722
 30
0.000000
  70
    32
  0
VERTEX
  8
0
  5
7DC
 10
1.17635
 20
0.00198172
 30
0.000000
  70
    32
  0
VERTEX
  8
0
  5
7DD
 10
1.17657
 20
0.00208880
 30
0.000000
  70
    32
  0
VERTEX
  8
0
  5
7DE
 10
1.17678
 20
0.00219843
 30
0.000000
  70
    32
  0
VERTEX
  8
0
  5
7DF
 10
1.17700
 20
0.00231061
 30
0.000000
  70
    32
  0
VERTEX
  8
0
  5
7E0
 10
1.17721
 20
0.00242531
 30
0.000000
  70
    32
  0
VERTEX
  8
0
  5
7E1
 10
1.17742
 20
0.00254250
 30
0.000000
  70
    32
  0
VERTEX
  8
0
  5
7E2
 10
1.17763
 20
0.00266218
 30
0.000000
  70
    32
  0
VERTEX
  8
0
  5
7E3
 10
1.17784
 20
0.00278432
 30
0.000000
  70
    32
  0
VERTEX
  8
0
  5
7E4
 10
1.17804
 20
0.00290890
 30
0.000000
  70
    32
  0
VERTEX
  8
0
  5
7E5
 10
1.17825
 20
0.00303589
 30
0.000000
  70
    32
  0
VERTEX
  8
0
  5
7E6
 10
1.17845
 20
0.00316529
 30
0.000000
  70
    32
  0
VERTEX
  8
0
  5
7E7
 10
1.17865
 20
0.00329707
 30
0.000000
  70
    32
  0
VERTEX
  8
0
  5
7E8
 10
1.17885
 20
0.00343121
 30
0.000000
  70
    32
  0
VERTEX
  8
0
  5
7E9
 10
1.17905
 20
0.00356769
 30
0.000000
  70
    32
  0
VERTEX
  8
0
  5
7EA
 10
1.17924
 20
0.00370649
 30
0.000000
  70
    32
  0
VERTEX
  8
0
  5
7EB
 10
1.17943
 20
0.00384759
 30
0.000000
  70
    32
  0
VERTEX
  8
0
  5
7EC
 10
1.17963
 20
0.00399098
 30
0.000000
  70
    32
  0
VERTEX
  8
0
  5
7ED
 10
1.17982
 20
0.00413662
 30
0.000000
  70
    32
  0
VERTEX
  8
0
  5
7EE
 10
1.18001
 20
0.00428450
 30
0.000000
  70
    32
  0
VERTEX
  8
0
  5
7EF
 10
1.18019
 20
0.00443461
 30
0.000000
  70
    32
  0
VERTEX
  8
0
  5
7F0
 10
1.18038
 20
0.00458692
 30
0.000000
  70
    32
  0
VERTEX
  8
0
  5
7F1
 10
1.18056
 20
0.00474140
 30
0.000000
  70
    32
  0
VERTEX
  8
0
  5
7F2
 10
1.18074
 20
0.00489805
 30
0.000000
  70
    32
  0
VERTEX
  8
0
  5
7F3
 10
1.18092
 20
0.00505684
 30
0.000000
  70
    32
  0
VERTEX
  8
0
  5
7F4
 10
1.18110
 20
0.00521776
 30
0.000000
  70
    32
  0
VERTEX
  8
0
  5
7F5
 10
1.18127
 20
0.00538077
 30
0.000000
  70
    32
  0
VERTEX
  8
0
  5
7F6
 10
1.18145
 20
0.00554586
 30
0.000000
  70
    32
  0
VERTEX
  8
0
  5
7F7
 10
1.18162
 20
0.00571302
 30
0.000000
  70
    32
  0
VERTEX
  8
0
  5
7F8
 10
1.18179
 20
0.00588222
 30
0.000000
  70
    32
  0
VERTEX
  8
0
  5
7F9
 10
1.18195
 20
0.00605344
 30
0.000000
  70
    32
  0
VERTEX
  8
0
  5
7FA
 10
1.18212
 20
0.00622666
 30
0.000000
  70
    32
  0
VERTEX
  8
0
  5
7FB
 10
1.18228
 20
0.00640186
 30
0.000000
  70
    32
  0
VERTEX
  8
0
  5
7FC
 10
1.18244
 20
0.00657903
 30
0.000000
  70
    32
  0
VERTEX
  8
0
  5
7FD
 10
1.18260
 20
0.00675814
 30
0.000000
  70
    32
  0
VERTEX
  8
0
  5
7FE
 10
1.18276
 20
0.00693917
 30
0.000000
  70
    32
  0
VERTEX
  8
0
  5
7FF
 10
1.18291
 20
0.00712210
 30
0.000000
  70
    32
  0
VERTEX
  8
0
  5
800
 10
1.18306
 20
0.00730691
 30
0.000000
  70
    32
  0
VERTEX
  8
0
  5
801
 10
1.18321
 20
0.00749359
 30
0.000000
  70
    32
  0
VERTEX
  8
0
  5
802
 10
1.18336
 20
0.00768211
 30
0.000000
  70
    32
  0
VERTEX
  8
0
  5
803
 10
1.18351
 20
0.00787245
 30
0.000000
  70
    32
  0
VERTEX
  8
0
  5
804
 10
1.18365
 20
0.00806459
 30
0.000000
  70
    32
  0
VERTEX
  8
0
  5
805
 10
1.18379
 20
0.00825852
 30
0.000000
  70
    32
  0
VERTEX
  8
0
  5
806
 10
1.18393
 20
0.00845420
 30
0.000000
  70
    32
  0
VERTEX
  8
0
  5
807
 10
1.18407
 20
0.00865164
 30
0.000000
  70
    32
  0
VERTEX
  8
0
  5
808
 10
1.18420
 20
0.00885079
 30
0.000000
  70
    32
  0
VERTEX
  8
0
  5
809
 10
1.18433
 20
0.00905165
 30
0.000000
  70
    32
  0
VERTEX
  8
0
  5
80A
 10
1.18446
 20
0.00925419
 30
0.000000
  70
    32
  0
VERTEX
  8
0
  5
80B
 10
1.18459
 20
0.00945839
 30
0.000000
  70
    32
  0
VERTEX
  8
0
  5
80C
 10
1.18471
 20
0.00966423
 30
0.000000
  70
    32
  0
VERTEX
  8
0
  5
80D
 10
1.18483
 20
0.00987170
 30
0.000000
  70
    32
  0
VERTEX
  8
0
  5
80E
 10
1.18495
 20
0.0100808
 30
0.000000
  70
    32
  0
VERTEX
  8
0
  5
80F
 10
1.18507
 20
0.0102914
 30
0.000000
  70
    32
  0
VERTEX
  8
0
  5
810
 10
1.18519
 20
0.0105036
 30
0.000000
  70
    32
  0
VERTEX
  8
0
  5
811
 10
1.18530
 20
0.0107174
 30
0.000000
  70
    32
  0
VERTEX
  8
0
  5
812
 10
1.18541
 20
0.0109327
 30
0.000000
  70
    32
  0
VERTEX
  8
0
  5
813
 10
1.18551
 20
0.0111495
 30
0.000000
  70
    32
  0
VERTEX
  8
0
  5
814
 10
1.18562
 20
0.0113678
 30
0.000000
  70
    32
  0
VERTEX
  8
0
  5
815
 10
1.18572
 20
0.0115875
 30
0.000000
  70
    32
  0
VERTEX
  8
0
  5
816
 10
1.18582
 20
0.0118087
 30
0.000000
  70
    32
  0
VERTEX
  8
0
  5
817
 10
1.18592
 20
0.0120313
 30
0.000000
  70
    32
  0
VERTEX
  8
0
  5
818
 10
1.18601
 20
0.0122553
 30
0.000000
  70
    32
  0
VERTEX
  8
0
  5
819
 10
1.18610
 20
0.0124807
 30
0.000000
  70
    32
  0
VERTEX
  8
0
  5
81A
 10
1.18619
 20
0.0127074
 30
0.000000
  70
    32
  0
VERTEX
  8
0
  5
81B
 10
1.18628
 20
0.0129355
 30
0.000000
  70
    32
  0
VERTEX
  8
0
  5
81C
 10
1.18636
 20
0.0131650
 30
0.000000
  70
    32
  0
VERTEX
  8
0
  5
81D
 10
1.18644
 20
0.0133957
 30
0.000000
  70
    32
  0
VERTEX
  8
0
  5
81E
 10
1.18652
 20
0.0136277
 30
0.000000
  70
    32
  0
VERTEX
  8
0
  5
81F
 10
1.18659
 20
0.0138610
 30
0.000000
  70
    32
  0
VERTEX
  8
0
  5
820
 10
1.18666
 20
0.0140955
 30
0.000000
  70
    32
  0
VERTEX
  8
0
  5
821
 10
1.18673
 20
0.0143312
 30
0.000000
  70
    32
  0
VERTEX
  8
0
  5
822
 10
1.18680
 20
0.0145682
 30
0.000000
  70
    32
  0
VERTEX
  8
0
  5
823
 10
1.18686
 20
0.0148063
 30
0.000000
  70
    32
  0
VERTEX
  8
0
  5
824
 10
1.18692
 20
0.0150456
 30
0.000000
  70
    32
  0
VERTEX
  8
0
  5
825
 10
1.18698
 20
0.0152861
 30
0.000000
  70
    32
  0
VERTEX
  8
0
  5
826
 10
1.18703
 20
0.0155276
 30
0.000000
  70
    32
  0
VERTEX
  8
0
  5
827
 10
1.18709
 20
0.0157703
 30
0.000000
  70
    32
  0
VERTEX
  8
0
  5
828
 10
1.18713
 20
0.0160141
 30
0.000000
  70
    32
  0
VERTEX
  8
0
  5
829
 10
1.18718
 20
0.0162589
 30
0.000000
  70
    32
  0
VERTEX
  8
0
  5
82A
 10
1.18722
 20
0.0165047
 30
0.000000
  70
    32
  0
VERTEX
  8
0
  5
82B
 10
1.18726
 20
0.0167516
 30
0.000000
  70
    32
  0
VERTEX
  8
0
  5
82C
 10
1.18730
 20
0.0169995
 30
0.000000
  70
    32
  0
VERTEX
  8
0
  5
82D
 10
1.18733
 20
0.0172484
 30
0.000000
  70
    32
  0
VERTEX
  8
0
  5
82E
 10
1.18736
 20
0.0174983
 30
0.000000
  70
    32
  0
VERTEX
  8
0
  5
82F
 10
1.18739
 20
0.0177491
 30
0.000000
  70
    32
  0
VERTEX
  8
0
  5
830
 10
1.18741
 20
0.0180008
 30
0.000000
  70
    32
  0
VERTEX
  8
0
  5
831
 10
1.18743
 20
0.0182534
 30
0.000000
  70
    32
  0
VERTEX
  8
0
  5
832
 10
1.18745
 20
0.0185069
 30
0.000000
  70
    32
  0
VERTEX
  8
0
  5
833
 10
1.18747
 20
0.0187613
 30
0.000000
  70
    32
  0
VERTEX
  8
0
  5
834
 10
1.18748
 20
0.0190165
 30
0.000000
  70
    32
  0
VERTEX
  8
0
  5
835
 10
1.18749
 20
0.0192726
 30
0.000000
  70
    32
  0
VERTEX
  8
0
  5
836
 10
1.18749
 20
0.0195294
 30
0.000000
  70
    32
  0
VERTEX
  8
0
  5
837
 10
1.18749
 20
0.0197871
 30
0.000000
  70
    32
  0
SEQEND
  8
0
  5
838
  0
POLYLINE
  8
0
  5
839
  66
     1
 10
0.000000
 20
0.000000
 30
0.000000
  70
     8
  0
VERTEX
  8
0
  5
83A
 10
1.18750
 20
0.0989626
 30
0.000000
  70
    32
  0
VERTEX
  8
0
  5
83B
 10
1.18750
 20
0.0992206
 30
0.000000
  70
    32
  0
VERTEX
  8
0
  5
83C
 10
1.18749
 20
0.0994777
 30
0.000000
  70
    32
  0
VERTEX
  8
0
  5
83D
 10
1.18749
 20
0.0997341
 30
0.000000
  70
    32
  0
VERTEX
  8
0
  5
83E
 10
1.18747
 20
0.0999896
 30
0.000000
  70
    32
  0
VERTEX
  8
0
  5
83F
 10
1.18746
 20
0.100244
 30
0.000000
  70
    32
  0
VERTEX
  8
0
  5
840
 10
1.18744
 20
0.100498
 30
0.000000
  70
    32
  0
VERTEX
  8
0
  5
841
 10
1.18742
 20
0.100751
 30
0.000000
  70
    32
  0
VERTEX
  8
0
  5
842
 10
1.18740
 20
0.101003
 30
0.000000
  70
    32
  0
VERTEX
  8
0
  5
843
 10
1.18737
 20
0.101254
 30
0.000000
  70
    32
  0
VERTEX
  8
0
  5
844
 10
1.18734
 20
0.101504
 30
0.000000
  70
    32
  0
VERTEX
  8
0
  5
845
 10
1.18730
 20
0.101753
 30
0.000000
  70
    32
  0
VERTEX
  8
0
  5
846
 10
1.18727
 20
0.102001
 30
0.000000
  70
    32
  0
VERTEX
  8
0
  5
847
 10
1.18723
 20
0.102248
 30
0.000000
  70
    32
  0
VERTEX
  8
0
  5
848
 10
1.18719
 20
0.102494
 30
0.000000
  70
    32
  0
VERTEX
  8
0
  5
849
 10
1.18714
 20
0.102739
 30
0.000000
  70
    32
  0
VERTEX
  8
0
  5
84A
 10
1.18709
 20
0.102983
 30
0.000000
  70
    32
  0
VERTEX
  8
0
  5
84B
 10
1.18704
 20
0.103226
 30
0.000000
  70
    32
  0
VERTEX
  8
0
  5
84C
 10
1.18698
 20
0.103468
 30
0.000000
  70
    32
  0
VERTEX
  8
0
  5
84D
 10
1.18693
 20
0.103708
 30
0.000000
  70
    32
  0
VERTEX
  8
0
  5
84E
 10
1.18687
 20
0.103948
 30
0.000000
  70
    32
  0
VERTEX
  8
0
  5
84F
 10
1.18680
 20
0.104186
 30
0.000000
  70
    32
  0
VERTEX
  8
0
  5
850
 10
1.18674
 20
0.104423
 30
0.000000
  70
    32
  0
VERTEX
  8
0
  5
851
 10
1.18667
 20
0.104659
 30
0.000000
  70
    32
  0
VERTEX
  8
0
  5
852
 10
1.18660
 20
0.104894
 30
0.000000
  70
    32
  0
VERTEX
  8
0
  5
853
 10
1.18652
 20
0.105127
 30
0.000000
  70
    32
  0
VERTEX
  8
0
  5
854
 10
1.18644
 20
0.105359
 30
0.000000
  70
    32
  0
VERTEX
  8
0
  5
855
 10
1.18636
 20
0.105590
 30
0.000000
  70
    32
  0
VERTEX
  8
0
  5
856
 10
1.18628
 20
0.105820
 30
0.000000
  70
    32
  0
VERTEX
  8
0
  5
857
 10
1.18619
 20
0.106048
 30
0.000000
  70
    32
  0
VERTEX
  8
0
  5
858
 10
1.18611
 20
0.106275
 30
0.000000
  70
    32
  0
VERTEX
  8
0
  5
859
 10
1.18601
 20
0.106500
 30
0.000000
  70
    32
  0
VERTEX
  8
0
  5
85A
 10
1.18592
 20
0.106724
 30
0.000000
  70
    32
  0
VERTEX
  8
0
  5
85B
 10
1.18582
 20
0.106947
 30
0.000000
  70
    32
  0
VERTEX
  8
0
  5
85C
 10
1.18572
 20
0.107168
 30
0.000000
  70
    32
  0
VERTEX
  8
0
  5
85D
 10
1.18562
 20
0.107388
 30
0.000000
  70
    32
  0
VERTEX
  8
0
  5
85E
 10
1.18552
 20
0.107606
 30
0.000000
  70
    32
  0
VERTEX
  8
0
  5
85F
 10
1.18541
 20
0.107823
 30
0.000000
  70
    32
  0
VERTEX
  8
0
  5
860
 10
1.18530
 20
0.108038
 30
0.000000
  70
    32
  0
VERTEX
  8
0
  5
861
 10
1.18519
 20
0.108252
 30
0.000000
  70
    32
  0
VERTEX
  8
0
  5
862
 10
1.18507
 20
0.108464
 30
0.000000
  70
    32
  0
VERTEX
  8
0
  5
863
 10
1.18496
 20
0.108675
 30
0.000000
  70
    32
  0
VERTEX
  8
0
  5
864
 10
1.18484
 20
0.108884
 30
0.000000
  70
    32
  0
VERTEX
  8
0
  5
865
 10
1.18471
 20
0.109091
 30
0.000000
  70
    32
  0
VERTEX
  8
0
  5
866
 10
1.18459
 20
0.109297
 30
0.000000
  70
    32
  0
VERTEX
  8
0
  5
867
 10
1.18446
 20
0.109502
 30
0.000000
  70
    32
  0
VERTEX
  8
0
  5
868
 10
1.18433
 20
0.109704
 30
0.000000
  70
    32
  0
VERTEX
  8
0
  5
869
 10
1.18420
 20
0.109905
 30
0.000000
  70
    32
  0
VERTEX
  8
0
  5
86A
 10
1.18407
 20
0.110104
 30
0.000000
  70
    32
  0
VERTEX
  8
0
  5
86B
 10
1.18393
 20
0.110301
 30
0.000000
  70
    32
  0
VERTEX
  8
0
  5
86C
 10
1.18379
 20
0.110497
 30
0.000000
  70
    32
  0
VERTEX
  8
0
  5
86D
 10
1.18365
 20
0.110691
 30
0.000000
  70
    32
  0
VERTEX
  8
0
  5
86E
 10
1.18351
 20
0.110883
 30
0.000000
  70
    32
  0
VERTEX
  8
0
  5
86F
 10
1.18336
 20
0.111073
 30
0.000000
  70
    32
  0
VERTEX
  8
0
  5
870
 10
1.18321
 20
0.111262
 30
0.000000
  70
    32
  0
VERTEX
  8
0
  5
871
 10
1.18306
 20
0.111448
 30
0.000000
  70
    32
  0
VERTEX
  8
0
  5
872
 10
1.18291
 20
0.111633
 30
0.000000
  70
    32
  0
VERTEX
  8
0
  5
873
 10
1.18276
 20
0.111816
 30
0.000000
  70
    32
  0
VERTEX
  8
0
  5
874
 10
1.18260
 20
0.111997
 30
0.000000
  70
    32
  0
VERTEX
  8
0
  5
875
 10
1.18244
 20
0.112176
 30
0.000000
  70
    32
  0
VERTEX
  8
0
  5
876
 10
1.18228
 20
0.112353
 30
0.000000
  70
    32
  0
VERTEX
  8
0
  5
877
 10
1.18212
 20
0.112528
 30
0.000000
  70
    32
  0
VERTEX
  8
0
  5
878
 10
1.18195
 20
0.112701
 30
0.000000
  70
    32
  0
VERTEX
  8
0
  5
879
 10
1.18178
 20
0.112873
 30
0.000000
  70
    32
  0
VERTEX
  8
0
  5
87A
 10
1.18162
 20
0.113042
 30
0.000000
  70
    32
  0
VERTEX
  8
0
  5
87B
 10
1.18144
 20
0.113209
 30
0.000000
  70
    32
  0
VERTEX
  8
0
  5
87C
 10
1.18127
 20
0.113374
 30
0.000000
  70
    32
  0
VERTEX
  8
0
  5
87D
 10
1.18110
 20
0.113537
 30
0.000000
  70
    32
  0
VERTEX
  8
0
  5
87E
 10
1.18092
 20
0.113698
 30
0.000000
  70
    32
  0
VERTEX
  8
0
  5
87F
 10
1.18074
 20
0.113856
 30
0.000000
  70
    32
  0
VERTEX
  8
0
  5
880
 10
1.18056
 20
0.114013
 30
0.000000
  70
    32
  0
VERTEX
  8
0
  5
881
 10
1.18038
 20
0.114167
 30
0.000000
  70
    32
  0
VERTEX
  8
0
  5
882
 10
1.18019
 20
0.114319
 30
0.000000
  70
    32
  0
VERTEX
  8
0
  5
883
 10
1.18000
 20
0.114469
 30
0.000000
  70
    32
  0
VERTEX
  8
0
  5
884
 10
1.17982
 20
0.114617
 30
0.000000
  70
    32
  0
VERTEX
  8
0
  5
885
 10
1.17962
 20
0.114763
 30
0.000000
  70
    32
  0
VERTEX
  8
0
  5
886
 10
1.17943
 20
0.114906
 30
0.000000
  70
    32
  0
VERTEX
  8
0
  5
887
 10
1.17924
 20
0.115047
 30
0.000000
  70
    32
  0
VERTEX
  8
0
  5
888
 10
1.17904
 20
0.115186
 30
0.000000
  70
    32
  0
VERTEX
  8
0
  5
889
 10
1.17885
 20
0.115322
 30
0.000000
  70
    32
  0
VERTEX
  8
0
  5
88A
 10
1.17865
 20
0.115456
 30
0.000000
  70
    32
  0
VERTEX
  8
0
  5
88B
 10
1.17845
 20
0.115588
 30
0.000000
  70
    32
  0
VERTEX
  8
0
  5
88C
 10
1.17824
 20
0.115717
 30
0.000000
  70
    32
  0
VERTEX
  8
0
  5
88D
 10
1.17804
 20
0.115844
 30
0.000000
  70
    32
  0
VERTEX
  8
0
  5
88E
 10
1.17783
 20
0.115968
 30
0.000000
  70
    32
  0
VERTEX
  8
0
  5
88F
 10
1.17763
 20
0.116090
 30
0.000000
  70
    32
  0
VERTEX
  8
0
  5
890
 10
1.17742
 20
0.116210
 30
0.000000
  70
    32
  0
VERTEX
  8
0
  5
891
 10
1.17721
 20
0.116327
 30
0.000000
  70
    32
  0
VERTEX
  8
0
  5
892
 10
1.17699
 20
0.116442
 30
0.000000
  70
    32
  0
VERTEX
  8
0
  5
893
 10
1.17678
 20
0.116554
 30
0.000000
  70
    32
  0
VERTEX
  8
0
  5
894
 10
1.17656
 20
0.116663
 30
0.000000
  70
    32
  0
VERTEX
  8
0
  5
895
 10
1.17635
 20
0.116770
 30
0.000000
  70
    32
  0
VERTEX
  8
0
  5
896
 10
1.17613
 20
0.116875
 30
0.000000
  70
    32
  0
VERTEX
  8
0
  5
897
 10
1.17591
 20
0.116976
 30
0.000000
  70
    32
  0
VERTEX
  8
0
  5
898
 10
1.17569
 20
0.117076
 30
0.000000
  70
    32
  0
VERTEX
  8
0
  5
899
 10
1.17547
 20
0.117172
 30
0.000000
  70
    32
  0
VERTEX
  8
0
  5
89A
 10
1.17524
 20
0.117266
 30
0.000000
  70
    32
  0
VERTEX
  8
0
  5
89B
 10
1.17502
 20
0.117357
 30
0.000000
  70
    32
  0
VERTEX
  8
0
  5
89C
 10
1.17479
 20
0.117446
 30
0.000000
  70
    32
  0
VERTEX
  8
0
  5
89D
 10
1.17456
 20
0.117532
 30
0.000000
  70
    32
  0
VERTEX
  8
0
  5
89E
 10
1.17433
 20
0.117615
 30
0.000000
  70
    32
  0
VERTEX
  8
0
  5
89F
 10
1.17410
 20
0.117695
 30
0.000000
  70
    32
  0
VERTEX
  8
0
  5
8A0
 10
1.17387
 20
0.117772
 30
0.000000
  70
    32
  0
VERTEX
  8
0
  5
8A1
 10
1.17364
 20
0.117847
 30
0.000000
  70
    32
  0
VERTEX
  8
0
  5
8A2
 10
1.17340
 20
0.117919
 30
0.000000
  70
    32
  0
VERTEX
  8
0
  5
8A3
 10
1.17317
 20
0.117988
 30
0.000000
  70
    32
  0
VERTEX
  8
0
  5
8A4
 10
1.17293
 20
0.118054
 30
0.000000
  70
    32
  0
VERTEX
  8
0
  5
8A5
 10
1.17269
 20
0.118118
 30
0.000000
  70
    32
  0
VERTEX
  8
0
  5
8A6
 10
1.17245
 20
0.118178
 30
0.000000
  70
    32
  0
VERTEX
  8
0
  5
8A7
 10
1.17221
 20
0.118236
 30
0.000000
  70
    32
  0
VERTEX
  8
0
  5
8A8
 10
1.17197
 20
0.118290
 30
0.000000
  70
    32
  0
VERTEX
  8
0
  5
8A9
 10
1.17173
 20
0.118342
 30
0.000000
  70
    32
  0
VERTEX
  8
0
  5
8AA
 10
1.17148
 20
0.118390
 30
0.000000
  70
    32
  0
VERTEX
  8
0
  5
8AB
 10
1.17124
 20
0.118436
 30
0.000000
  70
    32
  0
VERTEX
  8
0
  5
8AC
 10
1.17099
 20
0.118479
 30
0.000000
  70
    32
  0
VERTEX
  8
0
  5
8AD
 10
1.17075
 20
0.118518
 30
0.000000
  70
    32
  0
VERTEX
  8
0
  5
8AE
 10
1.17050
 20
0.118555
 30
0.000000
  70
    32
  0
VERTEX
  8
0
  5
8AF
 10
1.17025
 20
0.118588
 30
0.000000
  70
    32
  0
VERTEX
  8
0
  5
8B0
 10
1.17000
 20
0.118619
 30
0.000000
  70
    32
  0
VERTEX
  8
0
  5
8B1
 10
1.16975
 20
0.118646
 30
0.000000
  70
    32
  0
VERTEX
  8
0
  5
8B2
 10
1.16950
 20
0.118670
 30
0.000000
  70
    32
  0
VERTEX
  8
0
  5
8B3
 10
1.16925
 20
0.118691
 30
0.000000
  70
    32
  0
VERTEX
  8
0
  5
8B4
 10
1.16899
 20
0.118709
 30
0.000000
  70
    32
  0
VERTEX
  8
0
  5
8B5
 10
1.16874
 20
0.118724
 30
0.000000
  70
    32
  0
VERTEX
  8
0
  5
8B6
 10
1.16848
 20
0.118735
 30
0.000000
  70
    32
  0
VERTEX
  8
0
  5
8B7
 10
1.16823
 20
0.118743
 30
0.000000
  70
    32
  0
VERTEX
  8
0
  5
8B8
 10
1.16797
 20
0.118748
 30
0.000000
  70
    32
  0
VERTEX
  8
0
  5
8B9
 10
1.16771
 20
0.118750
 30
0.000000
  70
    32
  0
SEQEND
  8
0
  5
8BA
  0
POLYLINE
  8
0
  5
8BB
  66
     1
 10
0.000000
 20
0.000000
 30
0.000000
  70
     8
  0
VERTEX
  8
0
  5
8BC
 10
1.16771
 20
0.118750
 30
0.000000
  70
    32
  0
VERTEX
  8
0
  5
8BD
 10
1.16796
 20
0.118751
 30
0.000000
  70
    32
  0
VERTEX
  8
0
  5
8BE
 10
1.16822
 20
0.118756
 30
0.000000
  70
    32
  0
VERTEX
  8
0
  5
8BF
 10
1.16848
 20
0.118764
 30
0.000000
  70
    32
  0
VERTEX
  8
0
  5
8C0
 10
1.16873
 20
0.118776
 30
0.000000
  70
    32
  0
VERTEX
  8
0
  5
8C1
 10
1.16899
 20
0.118790
 30
0.000000
  70
    32
  0
VERTEX
  8
0
  5
8C2
 10
1.16924
 20
0.118808
 30
0.000000
  70
    32
  0
VERTEX
  8
0
  5
8C3
 10
1.16949
 20
0.118829
 30
0.000000
  70
    32
  0
VERTEX
  8
0
  5
8C4
 10
1.16975
 20
0.118853
 30
0.000000
  70
    32
  0
VERTEX
  8
0
  5
8C5
 10
1.17000
 20
0.118881
 30
0.000000
  70
    32
  0
VERTEX
  8
0
  5
8C6
 10
1.17025
 20
0.118911
 30
0.000000
  70
    32
  0
VERTEX
  8
0
  5
8C7
 10
1.17050
 20
0.118945
 30
0.000000
  70
    32
  0
VERTEX
  8
0
  5
8C8
 10
1.17074
 20
0.118981
 30
0.000000
  70
    32
  0
VERTEX
  8
0
  5
8C9
 10
1.17099
 20
0.119021
 30
0.000000
  70
    32
  0
VERTEX
  8
0
  5
8CA
 10
1.17124
 20
0.119064
 30
0.000000
  70
    32
  0
VERTEX
  8
0
  5
8CB
 10
1.17148
 20
0.119109
 30
0.000000
  70
    32
  0
VERTEX
  8
0
  5
8CC
 10
1.17173
 20
0.119158
 30
0.000000
  70
    32
  0
VERTEX
  8
0
  5
8CD
 10
1.17197
 20
0.119210
 30
0.000000
  70
    32
  0
VERTEX
  8
0
  5
8CE
 10
1.17221
 20
0.119264
 30
0.000000
  70
    32
  0
VERTEX
  8
0
  5
8CF
 10
1.17245
 20
0.119322
 30
0.000000
  70
    32
  0
VERTEX
  8
0
  5
8D0
 10
1.17269
 20
0.119383
 30
0.000000
  70
    32
  0
VERTEX
  8
0
  5
8D1
 10
1.17293
 20
0.119446
 30
0.000000
  70
    32
  0
VERTEX
  8
0
  5
8D2
 10
1.17317
 20
0.119512
 30
0.000000
  70
    32
  0
VERTEX
  8
0
  5
8D3
 10
1.17340
 20
0.119581
 30
0.000000
  70
    32
  0
VERTEX
  8
0
  5
8D4
 10
1.17364
 20
0.119653
 30
0.000000
  70
    32
  0
VERTEX
  8
0
  5
8D5
 10
1.17387
 20
0.119728
 30
0.000000
  70
    32
  0
VERTEX
  8
0
  5
8D6
 10
1.17410
 20
0.119806
 30
0.000000
  70
    32
  0
VERTEX
  8
0
  5
8D7
 10
1.17433
 20
0.119886
 30
0.000000
  70
    32
  0
VERTEX
  8
0
  5
8D8
 10
1.17456
 20
0.119969
 30
0.000000
  70
    32
  0
VERTEX
  8
0
  5
8D9
 10
1.17479
 20
0.120055
 30
0.000000
  70
    32
  0
VERTEX
  8
0
  5
8DA
 10
1.17502
 20
0.120144
 30
0.000000
  70
    32
  0
VERTEX
  8
0
  5
8DB
 10
1.17524
 20
0.120235
 30
0.000000
  70
    32
  0
VERTEX
  8
0
  5
8DC
 10
1.17547
 20
0.120329
 30
0.000000
  70
    32
  0
VERTEX
  8
0
  5
8DD
 10
1.17569
 20
0.120426
 30
0.000000
  70
    32
  0
VERTEX
  8
0
  5
8DE
 10
1.17591
 20
0.120525
 30
0.000000
  70
    32
  0
VERTEX
  8
0
  5
8DF
 10
1.17613
 20
0.120627
 30
0.000000
  70
    32
  0
VERTEX
  8
0
  5
8E0
 10
1.17635
 20
0.120731
 30
0.000000
  70
    32
  0
VERTEX
  8
0
  5
8E1
 10
1.17657
 20
0.120838
 30
0.000000
  70
    32
  0
VERTEX
  8
0
  5
8E2
 10
1.17678
 20
0.120948
 30
0.000000
  70
    32
  0
VERTEX
  8
0
  5
8E3
 10
1.17700
 20
0.121060
 30
0.000000
  70
    32
  0
VERTEX
  8
0
  5
8E4
 10
1.17721
 20
0.121175
 30
0.000000
  70
    32
  0
VERTEX
  8
0
  5
8E5
 10
1.17742
 20
0.121292
 30
0.000000
  70
    32
  0
VERTEX
  8
0
  5
8E6
 10
1.17763
 20
0.121412
 30
0.000000
  70
    32
  0
VERTEX
  8
0
  5
8E7
 10
1.17784
 20
0.121534
 30
0.000000
  70
    32
  0
VERTEX
  8
0
  5
8E8
 10
1.17804
 20
0.121659
 30
0.000000
  70
    32
  0
VERTEX
  8
0
  5
8E9
 10
1.17825
 20
0.121786
 30
0.000000
  70
    32
  0
VERTEX
  8
0
  5
8EA
 10
1.17845
 20
0.121915
 30
0.000000
  70
    32
  0
VERTEX
  8
0
  5
8EB
 10
1.17865
 20
0.122047
 30
0.000000
  70
    32
  0
VERTEX
  8
0
  5
8EC
 10
1.17885
 20
0.122181
 30
0.000000
  70
    32
  0
VERTEX
  8
0
  5
8ED
 10
1.17905
 20
0.122317
 30
0.000000
  70
    32
  0
VERTEX
  8
0
  5
8EE
 10
1.17924
 20
0.122456
 30
0.000000
  70
    32
  0
VERTEX
  8
0
  5
8EF
 10
1.17943
 20
0.122597
 30
0.000000
  70
    32
  0
VERTEX
  8
0
  5
8F0
 10
1.17963
 20
0.122741
 30
0.000000
  70
    32
  0
VERTEX
  8
0
  5
8F1
 10
1.17982
 20
0.122886
 30
0.000000
  70
    32
  0
VERTEX
  8
0
  5
8F2
 10
1.18001
 20
0.123034
 30
0.000000
  70
    32
  0
VERTEX
  8
0
  5
8F3
 10
1.18019
 20
0.123184
 30
0.000000
  70
    32
  0
VERTEX
  8
0
  5
8F4
 10
1.18038
 20
0.123337
 30
0.000000
  70
    32
  0
VERTEX
  8
0
  5
8F5
 10
1.18056
 20
0.123491
 30
0.000000
  70
    32
  0
VERTEX
  8
0
  5
8F6
 10
1.18074
 20
0.123648
 30
0.000000
  70
    32
  0
VERTEX
  8
0
  5
8F7
 10
1.18092
 20
0.123807
 30
0.000000
  70
    32
  0
VERTEX
  8
0
  5
8F8
 10
1.18110
 20
0.123967
 30
0.000000
  70
    32
  0
VERTEX
  8
0
  5
8F9
 10
1.18127
 20
0.124130
 30
0.000000
  70
    32
  0
VERTEX
  8
0
  5
8FA
 10
1.18145
 20
0.124296
 30
0.000000
  70
    32
  0
VERTEX
  8
0
  5
8FB
 10
1.18162
 20
0.124463
 30
0.000000
  70
    32
  0
VERTEX
  8
0
  5
8FC
 10
1.18179
 20
0.124632
 30
0.000000
  70
    32
  0
VERTEX
  8
0
  5
8FD
 10
1.18195
 20
0.124803
 30
0.000000
  70
    32
  0
VERTEX
  8
0
  5
8FE
 10
1.18212
 20
0.124976
 30
0.000000
  70
    32
  0
VERTEX
  8
0
  5
8FF
 10
1.18228
 20
0.125152
 30
0.000000
  70
    32
  0
VERTEX
  8
0
  5
900
 10
1.18244
 20
0.125329
 30
0.000000
  70
    32
  0
VERTEX
  8
0
  5
901
 10
1.18260
 20
0.125508
 30
0.000000
  70
    32
  0
VERTEX
  8
0
  5
902
 10
1.18276
 20
0.125689
 30
0.000000
  70
    32
  0
VERTEX
  8
0
  5
903
 10
1.18291
 20
0.125872
 30
0.000000
  70
    32
  0
VERTEX
  8
0
  5
904
 10
1.18306
 20
0.126057
 30
0.000000
  70
    32
  0
VERTEX
  8
0
  5
905
 10
1.18321
 20
0.126243
 30
0.000000
  70
    32
  0
VERTEX
  8
0
  5
906
 10
1.18336
 20
0.126432
 30
0.000000
  70
    32
  0
VERTEX
  8
0
  5
907
 10
1.18351
 20
0.126622
 30
0.000000
  70
    32
  0
VERTEX
  8
0
  5
908
 10
1.18365
 20
0.126814
 30
0.000000
  70
    32
  0
VERTEX
  8
0
  5
909
 10
1.18379
 20
0.127008
 30
0.000000
  70
    32
  0
VERTEX
  8
0
  5
90A
 10
1.18393
 20
0.127204
 30
0.000000
  70
    32
  0
VERTEX
  8
0
  5
90B
 10
1.18407
 20
0.127401
 30
0.000000
  70
    32
  0
VERTEX
  8
0
  5
90C
 10
1.18420
 20
0.127600
 30
0.000000
  70
    32
  0
VERTEX
  8
0
  5
90D
 10
1.18433
 20
0.127801
 30
0.000000
  70
    32
  0
VERTEX
  8
0
  5
90E
 10
1.18446
 20
0.128004
 30
0.000000
  70
    32
  0
VERTEX
  8
0
  5
90F
 10
1.18459
 20
0.128208
 30
0.000000
  70
    32
  0
VERTEX
  8
0
  5
910
 10
1.18471
 20
0.128414
 30
0.000000
  70
    32
  0
VERTEX
  8
0
  5
911
 10
1.18483
 20
0.128621
 30
0.000000
  70
    32
  0
VERTEX
  8
0
  5
912
 10
1.18495
 20
0.128830
 30
0.000000
  70
    32
  0
VERTEX
  8
0
  5
913
 10
1.18507
 20
0.129041
 30
0.000000
  70
    32
  0
VERTEX
  8
0
  5
914
 10
1.18519
 20
0.129253
 30
0.000000
  70
    32
  0
VERTEX
  8
0
  5
915
 10
1.18530
 20
0.129467
 30
0.000000
  70
    32
  0
VERTEX
  8
0
  5
916
 10
1.18541
 20
0.129682
 30
0.000000
  70
    32
  0
VERTEX
  8
0
  5
917
 10
1.18551
 20
0.129899
 30
0.000000
  70
    32
  0
VERTEX
  8
0
  5
918
 10
1.18562
 20
0.130117
 30
0.000000
  70
    32
  0
VERTEX
  8
0
  5
919
 10
1.18572
 20
0.130337
 30
0.000000
  70
    32
  0
VERTEX
  8
0
  5
91A
 10
1.18582
 20
0.130558
 30
0.000000
  70
    32
  0
VERTEX
  8
0
  5
91B
 10
1.18592
 20
0.130781
 30
0.000000
  70
    32
  0
VERTEX
  8
0
  5
91C
 10
1.18601
 20
0.131005
 30
0.000000
  70
    32
  0
VERTEX
  8
0
  5
91D
 10
1.18610
 20
0.131230
 30
0.000000
  70
    32
  0
VERTEX
  8
0
  5
91E
 10
1.18619
 20
0.131457
 30
0.000000
  70
    32
  0
VERTEX
  8
0
  5
91F
 10
1.18628
 20
0.131685
 30
0.000000
  70
    32
  0
VERTEX
  8
0
  5
920
 10
1.18636
 20
0.131915
 30
0.000000
  70
    32
  0
VERTEX
  8
0
  5
921
 10
1.18644
 20
0.132145
 30
0.000000
  70
    32
  0
VERTEX
  8
0
  5
922
 10
1.18652
 20
0.132377
 30
0.000000
  70
    32
  0
VERTEX
  8
0
  5
923
 10
1.18659
 20
0.132611
 30
0.000000
  70
    32
  0
VERTEX
  8
0
  5
924
 10
1.18666
 20
0.132845
 30
0.000000
  70
    32
  0
VERTEX
  8
0
  5
925
 10
1.18673
 20
0.133081
 30
0.000000
  70
    32
  0
VERTEX
  8
0
  5
926
 10
1.18680
 20
0.133318
 30
0.000000
  70
    32
  0
VERTEX
  8
0
  5
927
 10
1.18686
 20
0.133556
 30
0.000000
  70
    32
  0
VERTEX
  8
0
  5
928
 10
1.18692
 20
0.133795
 30
0.000000
  70
    32
  0
VERTEX
  8
0
  5
929
 10
1.18698
 20
0.134036
 30
0.000000
  70
    32
  0
VERTEX
  8
0
  5
92A
 10
1.18703
 20
0.134277
 30
0.000000
  70
    32
  0
VERTEX
  8
0
  5
92B
 10
1.18709
 20
0.134520
 30
0.000000
  70
    32
  0
VERTEX
  8
0
  5
92C
 10
1.18713
 20
0.134764
 30
0.000000
  70
    32
  0
VERTEX
  8
0
  5
92D
 10
1.18718
 20
0.135009
 30
0.000000
  70
    32
  0
VERTEX
  8
0
  5
92E
 10
1.18722
 20
0.135254
 30
0.000000
  70
    32
  0
VERTEX
  8
0
  5
92F
 10
1.18726
 20
0.135501
 30
0.000000
  70
    32
  0
VERTEX
  8
0
  5
930
 10
1.18730
 20
0.135749
 30
0.000000
  70
    32
  0
VERTEX
  8
0
  5
931
 10
1.18733
 20
0.135998
 30
0.000000
  70
    32
  0
VERTEX
  8
0
  5
932
 10
1.18736
 20
0.136248
 30
0.000000
  70
    32
  0
VERTEX
  8
0
  5
933
 10
1.18739
 20
0.136499
 30
0.000000
  70
    32
  0
VERTEX
  8
0
  5
934
 10
1.18741
 20
0.136750
 30
0.000000
  70
    32
  0
VERTEX
  8
0
  5
935
 10
1.18743
 20
0.137003
 30
0.000000
  70
    32
  0
VERTEX
  8
0
  5
936
 10
1.18745
 20
0.137257
 30
0.000000
  70
    32
  0
VERTEX
  8
0
  5
937
 10
1.18747
 20
0.137511
 30
0.000000
  70
    32
  0
VERTEX
  8
0
  5
938
 10
1.18748
 20
0.137766
 30
0.000000
  70
    32
  0
VERTEX
  8
0
  5
939
 10
1.18749
 20
0.138022
 30
0.000000
  70
    32
  0
VERTEX
  8
0
  5
93A
 10
1.18749
 20
0.138279
 30
0.000000
  70
    32
  0
VERTEX
  8
0
  5
93B
 10
1.18749
 20
0.138537
 30
0.000000
  70
    32
  0
SEQEND
  8
0
  5
93C
  0
POLYLINE
  8
0
  5
93D
  66
     1
 10
0.000000
 20
0.000000
 30
0.000000
  70
     8
  0
VERTEX
  8
0
  5
93E
 10
0.316665
 20
5.69679
 30
0.000000
  70
    32
  0
VERTEX
  8
0
  5
93F
 10
0.316668
 20
5.69628
 30
0.000000
  70
    32
  0
VERTEX
  8
0
  5
940
 10
0.316678
 20
5.69576
 30
0.000000
  70
    32
  0
VERTEX
  8
0
  5
941
 10
0.316694
 20
5.69525
 30
0.000000
  70
    32
  0
VERTEX
  8
0
  5
942
 10
0.316717
 20
5.69474
 30
0.000000
  70
    32
  0
VERTEX
  8
0
  5
943
 10
0.316746
 20
5.69423
 30
0.000000
  70
    32
  0
VERTEX
  8
0
  5
944
 10
0.316782
 20
5.69372
 30
0.000000
  70
    32
  0
VERTEX
  8
0
  5
945
 10
0.316824
 20
5.69322
 30
0.000000
  70
    32
  0
VERTEX
  8
0
  5
946
 10
0.316872
 20
5.69271
 30
0.000000
  70
    32
  0
VERTEX
  8
0
  5
947
 10
0.316927
 20
5.69221
 30
0.000000
  70
    32
  0
VERTEX
  8
0
  5
948
 10
0.316988
 20
5.69171
 30
0.000000
  70
    32
  0
VERTEX
  8
0
  5
949
 10
0.317055
 20
5.69121
 30
0.000000
  70
    32
  0
VERTEX
  8
0
  5
94A
 10
0.317128
 20
5.69072
 30
0.000000
  70
    32
  0
VERTEX
  8
0
  5
94B
 10
0.317207
 20
5.69022
 30
0.000000
  70
    32
  0
VERTEX
  8
0
  5
94C
 10
0.317293
 20
5.68973
 30
0.000000
  70
    32
  0
VERTEX
  8
0
  5
94D
 10
0.317384
 20
5.68924
 30
0.000000
  70
    32
  0
VERTEX
  8
0
  5
94E
 10
0.317481
 20
5.68875
 30
0.000000
  70
    32
  0
VERTEX
  8
0
  5
94F
 10
0.317585
 20
5.68827
 30
0.000000
  70
    32
  0
VERTEX
  8
0
  5
950
 10
0.317694
 20
5.68778
 30
0.000000
  70
    32
  0
VERTEX
  8
0
  5
951
 10
0.317809
 20
5.68730
 30
0.000000
  70
    32
  0
VERTEX
  8
0
  5
952
 10
0.317930
 20
5.68682
 30
0.000000
  70
    32
  0
VERTEX
  8
0
  5
953
 10
0.318057
 20
5.68635
 30
0.000000
  70
    32
  0
VERTEX
  8
0
  5
954
 10
0.318189
 20
5.68587
 30
0.000000
  70
    32
  0
VERTEX
  8
0
  5
955
 10
0.318328
 20
5.68540
 30
0.000000
  70
    32
  0
VERTEX
  8
0
  5
956
 10
0.318472
 20
5.68493
 30
0.000000
  70
    32
  0
VERTEX
  8
0
  5
957
 10
0.318621
 20
5.68446
 30
0.000000
  70
    32
  0
VERTEX
  8
0
  5
958
 10
0.318776
 20
5.68400
 30
0.000000
  70
    32
  0
VERTEX
  8
0
  5
959
 10
0.318937
 20
5.68354
 30
0.000000
  70
    32
  0
VERTEX
  8
0
  5
95A
 10
0.319103
 20
5.68308
 30
0.000000
  70
    32
  0
VERTEX
  8
0
  5
95B
 10
0.319275
 20
5.68262
 30
0.000000
  70
    32
  0
VERTEX
  8
0
  5
95C
 10
0.319452
 20
5.68217
 30
0.000000
  70
    32
  0
VERTEX
  8
0
  5
95D
 10
0.319635
 20
5.68172
 30
0.000000
  70
    32
  0
VERTEX
  8
0
  5
95E
 10
0.319823
 20
5.68127
 30
0.000000
  70
    32
  0
VERTEX
  8
0
  5
95F
 10
0.320016
 20
5.68082
 30
0.000000
  70
    32
  0
VERTEX
  8
0
  5
960
 10
0.320214
 20
5.68038
 30
0.000000
  70
    32
  0
VERTEX
  8
0
  5
961
 10
0.320418
 20
5.67994
 30
0.000000
  70
    32
  0
VERTEX
  8
0
  5
962
 10
0.320627
 20
5.67950
 30
0.000000
  70
    32
  0
VERTEX
  8
0
  5
963
 10
0.320841
 20
5.67907
 30
0.000000
  70
    32
  0
VERTEX
  8
0
  5
964
 10
0.321061
 20
5.67864
 30
0.000000
  70
    32
  0
VERTEX
  8
0
  5
965
 10
0.321285
 20
5.67821
 30
0.000000
  70
    32
  0
VERTEX
  8
0
  5
966
 10
0.321514
 20
5.67779
 30
0.000000
  70
    32
  0
VERTEX
  8
0
  5
967
 10
0.321749
 20
5.67737
 30
0.000000
  70
    32
  0
VERTEX
  8
0
  5
968
 10
0.321988
 20
5.67695
 30
0.000000
  70
    32
  0
VERTEX
  8
0
  5
969
 10
0.322232
 20
5.67653
 30
0.000000
  70
    32
  0
VERTEX
  8
0
  5
96A
 10
0.322481
 20
5.67612
 30
0.000000
  70
    32
  0
VERTEX
  8
0
  5
96B
 10
0.322735
 20
5.67571
 30
0.000000
  70
    32
  0
VERTEX
  8
0
  5
96C
 10
0.322994
 20
5.67531
 30
0.000000
  70
    32
  0
VERTEX
  8
0
  5
96D
 10
0.323258
 20
5.67491
 30
0.000000
  70
    32
  0
VERTEX
  8
0
  5
96E
 10
0.323526
 20
5.67451
 30
0.000000
  70
    32
  0
VERTEX
  8
0
  5
96F
 10
0.323799
 20
5.67411
 30
0.000000
  70
    32
  0
VERTEX
  8
0
  5
970
 10
0.324077
 20
5.67372
 30
0.000000
  70
    32
  0
VERTEX
  8
0
  5
971
 10
0.324359
 20
5.67333
 30
0.000000
  70
    32
  0
VERTEX
  8
0
  5
972
 10
0.324646
 20
5.67295
 30
0.000000
  70
    32
  0
VERTEX
  8
0
  5
973
 10
0.324937
 20
5.67257
 30
0.000000
  70
    32
  0
VERTEX
  8
0
  5
974
 10
0.325233
 20
5.67219
 30
0.000000
  70
    32
  0
VERTEX
  8
0
  5
975
 10
0.325533
 20
5.67182
 30
0.000000
  70
    32
  0
VERTEX
  8
0
  5
976
 10
0.325837
 20
5.67145
 30
0.000000
  70
    32
  0
VERTEX
  8
0
  5
977
 10
0.326146
 20
5.67108
 30
0.000000
  70
    32
  0
VERTEX
  8
0
  5
978
 10
0.326460
 20
5.67072
 30
0.000000
  70
    32
  0
VERTEX
  8
0
  5
979
 10
0.326777
 20
5.67036
 30
0.000000
  70
    32
  0
VERTEX
  8
0
  5
97A
 10
0.327099
 20
5.67001
 30
0.000000
  70
    32
  0
VERTEX
  8
0
  5
97B
 10
0.327425
 20
5.66966
 30
0.000000
  70
    32
  0
VERTEX
  8
0
  5
97C
 10
0.327755
 20
5.66931
 30
0.000000
  70
    32
  0
VERTEX
  8
0
  5
97D
 10
0.328090
 20
5.66897
 30
0.000000
  70
    32
  0
VERTEX
  8
0
  5
97E
 10
0.328428
 20
5.66863
 30
0.000000
  70
    32
  0
VERTEX
  8
0
  5
97F
 10
0.328771
 20
5.66829
 30
0.000000
  70
    32
  0
VERTEX
  8
0
  5
980
 10
0.329117
 20
5.66796
 30
0.000000
  70
    32
  0
VERTEX
  8
0
  5
981
 10
0.329468
 20
5.66764
 30
0.000000
  70
    32
  0
VERTEX
  8
0
  5
982
 10
0.329822
 20
5.66732
 30
0.000000
  70
    32
  0
VERTEX
  8
0
  5
983
 10
0.330180
 20
5.66700
 30
0.000000
  70
    32
  0
VERTEX
  8
0
  5
984
 10
0.330542
 20
5.66668
 30
0.000000
  70
    32
  0
VERTEX
  8
0
  5
985
 10
0.330908
 20
5.66638
 30
0.000000
  70
    32
  0
VERTEX
  8
0
  5
986
 10
0.331278
 20
5.66607
 30
0.000000
  70
    32
  0
VERTEX
  8
0
  5
987
 10
0.331652
 20
5.66577
 30
0.000000
  70
    32
  0
VERTEX
  8
0
  5
988
 10
0.332029
 20
5.66548
 30
0.000000
  70
    32
  0
VERTEX
  8
0
  5
989
 10
0.332409
 20
5.66518
 30
0.000000
  70
    32
  0
VERTEX
  8
0
  5
98A
 10
0.332794
 20
5.66490
 30
0.000000
  70
    32
  0
VERTEX
  8
0
  5
98B
 10
0.333182
 20
5.66462
 30
0.000000
  70
    32
  0
VERTEX
  8
0
  5
98C
 10
0.333573
 20
5.66434
 30
0.000000
  70
    32
  0
VERTEX
  8
0
  5
98D
 10
0.333968
 20
5.66406
 30
0.000000
  70
    32
  0
VERTEX
  8
0
  5
98E
 10
0.334367
 20
5.66380
 30
0.000000
  70
    32
  0
VERTEX
  8
0
  5
98F
 10
0.334768
 20
5.66353
 30
0.000000
  70
    32
  0
VERTEX
  8
0
  5
990
 10
0.335174
 20
5.66327
 30
0.000000
  70
    32
  0
VERTEX
  8
0
  5
991
 10
0.335582
 20
5.66302
 30
0.000000
  70
    32
  0
VERTEX
  8
0
  5
992
 10
0.335994
 20
5.66277
 30
0.000000
  70
    32
  0
VERTEX
  8
0
  5
993
 10
0.336409
 20
5.66253
 30
0.000000
  70
    32
  0
VERTEX
  8
0
  5
994
 10
0.336827
 20
5.66229
 30
0.000000
  70
    32
  0
VERTEX
  8
0
  5
995
 10
0.337249
 20
5.66205
 30
0.000000
  70
    32
  0
VERTEX
  8
0
  5
996
 10
0.337673
 20
5.66182
 30
0.000000
  70
    32
  0
VERTEX
  8
0
  5
997
 10
0.338101
 20
5.66160
 30
0.000000
  70
    32
  0
VERTEX
  8
0
  5
998
 10
0.338532
 20
5.66138
 30
0.000000
  70
    32
  0
VERTEX
  8
0
  5
999
 10
0.338966
 20
5.66117
 30
0.000000
  70
    32
  0
VERTEX
  8
0
  5
99A
 10
0.339402
 20
5.66096
 30
0.000000
  70
    32
  0
VERTEX
  8
0
  5
99B
 10
0.339842
 20
5.66075
 30
0.000000
  70
    32
  0
VERTEX
  8
0
  5
99C
 10
0.340285
 20
5.66055
 30
0.000000
  70
    32
  0
VERTEX
  8
0
  5
99D
 10
0.340730
 20
5.66036
 30
0.000000
  70
    32
  0
VERTEX
  8
0
  5
99E
 10
0.341178
 20
5.66017
 30
0.000000
  70
    32
  0
VERTEX
  8
0
  5
99F
 10
0.341629
 20
5.65999
 30
0.000000
  70
    32
  0
VERTEX
  8
0
  5
9A0
 10
0.342083
 20
5.65981
 30
0.000000
  70
    32
  0
VERTEX
  8
0
  5
9A1
 10
0.342539
 20
5.65964
 30
0.000000
  70
    32
  0
VERTEX
  8
0
  5
9A2
 10
0.342999
 20
5.65948
 30
0.000000
  70
    32
  0
VERTEX
  8
0
  5
9A3
 10
0.343460
 20
5.65931
 30
0.000000
  70
    32
  0
VERTEX
  8
0
  5
9A4
 10
0.343924
 20
5.65916
 30
0.000000
  70
    32
  0
VERTEX
  8
0
  5
9A5
 10
0.344391
 20
5.65901
 30
0.000000
  70
    32
  0
VERTEX
  8
0
  5
9A6
 10
0.344861
 20
5.65887
 30
0.000000
  70
    32
  0
VERTEX
  8
0
  5
9A7
 10
0.345332
 20
5.65873
 30
0.000000
  70
    32
  0
VERTEX
  8
0
  5
9A8
 10
0.345807
 20
5.65860
 30
0.000000
  70
    32
  0
VERTEX
  8
0
  5
9A9
 10
0.346283
 20
5.65847
 30
0.000000
  70
    32
  0
VERTEX
  8
0
  5
9AA
 10
0.346762
 20
5.65835
 30
0.000000
  70
    32
  0
VERTEX
  8
0
  5
9AB
 10
0.347243
 20
5.65823
 30
0.000000
  70
    32
  0
VERTEX
  8
0
  5
9AC
 10
0.347727
 20
5.65812
 30
0.000000
  70
    32
  0
VERTEX
  8
0
  5
9AD
 10
0.348212
 20
5.65802
 30
0.000000
  70
    32
  0
VERTEX
  8
0
  5
9AE
 10
0.348700
 20
5.65792
 30
0.000000
  70
    32
  0
VERTEX
  8
0
  5
9AF
 10
0.349190
 20
5.65783
 30
0.000000
  70
    32
  0
VERTEX
  8
0
  5
9B0
 10
0.349682
 20
5.65775
 30
0.000000
  70
    32
  0
VERTEX
  8
0
  5
9B1
 10
0.350176
 20
5.65767
 30
0.000000
  70
    32
  0
VERTEX
  8
0
  5
9B2
 10
0.350673
 20
5.65759
 30
0.000000
  70
    32
  0
VERTEX
  8
0
  5
9B3
 10
0.351171
 20
5.65753
 30
0.000000
  70
    32
  0
VERTEX
  8
0
  5
9B4
 10
0.351671
 20
5.65747
 30
0.000000
  70
    32
  0
VERTEX
  8
0
  5
9B5
 10
0.352173
 20
5.65741
 30
0.000000
  70
    32
  0
VERTEX
  8
0
  5
9B6
 10
0.352677
 20
5.65736
 30
0.000000
  70
    32
  0
VERTEX
  8
0
  5
9B7
 10
0.353182
 20
5.65732
 30
0.000000
  70
    32
  0
VERTEX
  8
0
  5
9B8
 10
0.353690
 20
5.65728
 30
0.000000
  70
    32
  0
VERTEX
  8
0
  5
9B9
 10
0.354199
 20
5.65726
 30
0.000000
  70
    32
  0
VERTEX
  8
0
  5
9BA
 10
0.354710
 20
5.65723
 30
0.000000
  70
    32
  0
VERTEX
  8
0
  5
9BB
 10
0.355222
 20
5.65722
 30
0.000000
  70
    32
  0
VERTEX
  8
0
  5
9BC
 10
0.355737
 20
5.65721
 30
0.000000
  70
    32
  0
VERTEX
  8
0
  5
9BD
 10
0.356252
 20
5.65720
 30
0.000000
  70
    32
  0
SEQEND
  8
0
  5
9BE
  0
POLYLINE
  8
0
  5
9BF
  66
     1
 10
0.000000
 20
0.000000
 30
0.000000
  70
     8
  0
VERTEX
  8
0
  5
9C0
 10
0.593752
 20
5.61763
 30
0.000000
  70
    32
  0
VERTEX
  8
0
  5
9C1
 10
0.593748
 20
5.61814
 30
0.000000
  70
    32
  0
VERTEX
  8
0
  5
9C2
 10
0.593739
 20
5.61866
 30
0.000000
  70
    32
  0
VERTEX
  8
0
  5
9C3
 10
0.593722
 20
5.61917
 30
0.000000
  70
    32
  0
VERTEX
  8
0
  5
9C4
 10
0.593699
 20
5.61968
 30
0.000000
  70
    32
  0
VERTEX
  8
0
  5
9C5
 10
0.593670
 20
5.62019
 30
0.000000
  70
    32
  0
VERTEX
  8
0
  5
9C6
 10
0.593635
 20
5.62070
 30
0.000000
  70
    32
  0
VERTEX
  8
0
  5
9C7
 10
0.593593
 20
5.62120
 30
0.000000
  70
    32
  0
VERTEX
  8
0
  5
9C8
 10
0.593544
 20
5.62171
 30
0.000000
  70
    32
  0
VERTEX
  8
0
  5
9C9
 10
0.593490
 20
5.62221
 30
0.000000
  70
    32
  0
VERTEX
  8
0
  5
9CA
 10
0.593429
 20
5.62271
 30
0.000000
  70
    32
  0
VERTEX
  8
0
  5
9CB
 10
0.593362
 20
5.62321
 30
0.000000
  70
    32
  0
VERTEX
  8
0
  5
9CC
 10
0.593289
 20
5.62370
 30
0.000000
  70
    32
  0
VERTEX
  8
0
  5
9CD
 10
0.593209
 20
5.62420
 30
0.000000
  70
    32
  0
VERTEX
  8
0
  5
9CE
 10
0.593124
 20
5.62469
 30
0.000000
  70
    32
  0
VERTEX
  8
0
  5
9CF
 10
0.593032
 20
5.62518
 30
0.000000
  70
    32
  0
VERTEX
  8
0
  5
9D0
 10
0.592935
 20
5.62567
 30
0.000000
  70
    32
  0
VERTEX
  8
0
  5
9D1
 10
0.592832
 20
5.62615
 30
0.000000
  70
    32
  0
VERTEX
  8
0
  5
9D2
 10
0.592722
 20
5.62664
 30
0.000000
  70
    32
  0
VERTEX
  8
0
  5
9D3
 10
0.592607
 20
5.62712
 30
0.000000
  70
    32
  0
VERTEX
  8
0
  5
9D4
 10
0.592486
 20
5.62760
 30
0.000000
  70
    32
  0
VERTEX
  8
0
  5
9D5
 10
0.592360
 20
5.62807
 30
0.000000
  70
    32
  0
VERTEX
  8
0
  5
9D6
 10
0.592227
 20
5.62855
 30
0.000000
  70
    32
  0
VERTEX
  8
0
  5
9D7
 10
0.592089
 20
5.62902
 30
0.000000
  70
    32
  0
VERTEX
  8
0
  5
9D8
 10
0.591945
 20
5.62949
 30
0.000000
  70
    32
  0
VERTEX
  8
0
  5
9D9
 10
0.591795
 20
5.62996
 30
0.000000
  70
    32
  0
VERTEX
  8
0
  5
9DA
 10
0.591640
 20
5.63042
 30
0.000000
  70
    32
  0
VERTEX
  8
0
  5
9DB
 10
0.591479
 20
5.63088
 30
0.000000
  70
    32
  0
VERTEX
  8
0
  5
9DC
 10
0.591313
 20
5.63134
 30
0.000000
  70
    32
  0
VERTEX
  8
0
  5
9DD
 10
0.591141
 20
5.63180
 30
0.000000
  70
    32
  0
VERTEX
  8
0
  5
9DE
 10
0.590964
 20
5.63225
 30
0.000000
  70
    32
  0
VERTEX
  8
0
  5
9DF
 10
0.590782
 20
5.63270
 30
0.000000
  70
    32
  0
VERTEX
  8
0
  5
9E0
 10
0.590594
 20
5.63315
 30
0.000000
  70
    32
  0
VERTEX
  8
0
  5
9E1
 10
0.590400
 20
5.63360
 30
0.000000
  70
    32
  0
VERTEX
  8
0
  5
9E2
 10
0.590202
 20
5.63404
 30
0.000000
  70
    32
  0
VERTEX
  8
0
  5
9E3
 10
0.589998
 20
5.63448
 30
0.000000
  70
    32
  0
VERTEX
  8
0
  5
9E4
 10
0.589789
 20
5.63492
 30
0.000000
  70
    32
  0
VERTEX
  8
0
  5
9E5
 10
0.589575
 20
5.63535
 30
0.000000
  70
    32
  0
VERTEX
  8
0
  5
9E6
 10
0.589356
 20
5.63578
 30
0.000000
  70
    32
  0
VERTEX
  8
0
  5
9E7
 10
0.589131
 20
5.63621
 30
0.000000
  70
    32
  0
VERTEX
  8
0
  5
9E8
 10
0.588902
 20
5.63663
 30
0.000000
  70
    32
  0
VERTEX
  8
0
  5
9E9
 10
0.588668
 20
5.63705
 30
0.000000
  70
    32
  0
VERTEX
  8
0
  5
9EA
 10
0.588428
 20
5.63747
 30
0.000000
  70
    32
  0
VERTEX
  8
0
  5
9EB
 10
0.588184
 20
5.63789
 30
0.000000
  70
    32
  0
VERTEX
  8
0
  5
9EC
 10
0.587935
 20
5.63830
 30
0.000000
  70
    32
  0
VERTEX
  8
0
  5
9ED
 10
0.587681
 20
5.63871
 30
0.000000
  70
    32
  0
VERTEX
  8
0
  5
9EE
 10
0.587422
 20
5.63911
 30
0.000000
  70
    32
  0
VERTEX
  8
0
  5
9EF
 10
0.587159
 20
5.63951
 30
0.000000
  70
    32
  0
VERTEX
  8
0
  5
9F0
 10
0.586890
 20
5.63991
 30
0.000000
  70
    32
  0
VERTEX
  8
0
  5
9F1
 10
0.586617
 20
5.64031
 30
0.000000
  70
    32
  0
VERTEX
  8
0
  5
9F2
 10
0.586340
 20
5.64070
 30
0.000000
  70
    32
  0
VERTEX
  8
0
  5
9F3
 10
0.586058
 20
5.64109
 30
0.000000
  70
    32
  0
VERTEX
  8
0
  5
9F4
 10
0.585771
 20
5.64147
 30
0.000000
  70
    32
  0
VERTEX
  8
0
  5
9F5
 10
0.585480
 20
5.64185
 30
0.000000
  70
    32
  0
VERTEX
  8
0
  5
9F6
 10
0.585184
 20
5.64223
 30
0.000000
  70
    32
  0
VERTEX
  8
0
  5
9F7
 10
0.584884
 20
5.64260
 30
0.000000
  70
    32
  0
VERTEX
  8
0
  5
9F8
 10
0.584579
 20
5.64297
 30
0.000000
  70
    32
  0
VERTEX
  8
0
  5
9F9
 10
0.584270
 20
5.64334
 30
0.000000
  70
    32
  0
VERTEX
  8
0
  5
9FA
 10
0.583957
 20
5.64370
 30
0.000000
  70
    32
  0
VERTEX
  8
0
  5
9FB
 10
0.583639
 20
5.64406
 30
0.000000
  70
    32
  0
VERTEX
  8
0
  5
9FC
 10
0.583317
 20
5.64441
 30
0.000000
  70
    32
  0
VERTEX
  8
0
  5
9FD
 10
0.582991
 20
5.64476
 30
0.000000
  70
    32
  0
VERTEX
  8
0
  5
9FE
 10
0.582661
 20
5.64511
 30
0.000000
  70
    32
  0
VERTEX
  8
0
  5
9FF
 10
0.582327
 20
5.64545
 30
0.000000
  70
    32
  0
VERTEX
  8
0
  5
A00
 10
0.581988
 20
5.64579
 30
0.000000
  70
    32
  0
VERTEX
  8
0
  5
A01
 10
0.581646
 20
5.64613
 30
0.000000
  70
    32
  0
VERTEX
  8
0
  5
A02
 10
0.581299
 20
5.64646
 30
0.000000
  70
    32
  0
VERTEX
  8
0
  5
A03
 10
0.580949
 20
5.64678
 30
0.000000
  70
    32
  0
VERTEX
  8
0
  5
A04
 10
0.580594
 20
5.64710
 30
0.000000
  70
    32
  0
VERTEX
  8
0
  5
A05
 10
0.580236
 20
5.64742
 30
0.000000
  70
    32
  0
VERTEX
  8
0
  5
A06
 10
0.579874
 20
5.64774
 30
0.000000
  70
    32
  0
VERTEX
  8
0
  5
A07
 10
0.579508
 20
5.64804
 30
0.000000
  70
    32
  0
VERTEX
  8
0
  5
A08
 10
0.579138
 20
5.64835
 30
0.000000
  70
    32
  0
VERTEX
  8
0
  5
A09
 10
0.578765
 20
5.64865
 30
0.000000
  70
    32
  0
VERTEX
  8
0
  5
A0A
 10
0.578388
 20
5.64894
 30
0.000000
  70
    32
  0
VERTEX
  8
0
  5
A0B
 10
0.578007
 20
5.64924
 30
0.000000
  70
    32
  0
VERTEX
  8
0
  5
A0C
 10
0.577623
 20
5.64952
 30
0.000000
  70
    32
  0
VERTEX
  8
0
  5
A0D
 10
0.577235
 20
5.64980
 30
0.000000
  70
    32
  0
VERTEX
  8
0
  5
A0E
 10
0.576843
 20
5.65008
 30
0.000000
  70
    32
  0
VERTEX
  8
0
  5
A0F
 10
0.576448
 20
5.65036
 30
0.000000
  70
    32
  0
VERTEX
  8
0
  5
A10
 10
0.576050
 20
5.65062
 30
0.000000
  70
    32
  0
VERTEX
  8
0
  5
A11
 10
0.575648
 20
5.65089
 30
0.000000
  70
    32
  0
VERTEX
  8
0
  5
A12
 10
0.575243
 20
5.65115
 30
0.000000
  70
    32
  0
VERTEX
  8
0
  5
A13
 10
0.574834
 20
5.65140
 30
0.000000
  70
    32
  0
VERTEX
  8
0
  5
A14
 10
0.574422
 20
5.65165
 30
0.000000
  70
    32
  0
VERTEX
  8
0
  5
A15
 10
0.574007
 20
5.65189
 30
0.000000
  70
    32
  0
VERTEX
  8
0
  5
A16
 10
0.573589
 20
5.65213
 30
0.000000
  70
    32
  0
VERTEX
  8
0
  5
A17
 10
0.573168
 20
5.65237
 30
0.000000
  70
    32
  0
VERTEX
  8
0
  5
A18
 10
0.572743
 20
5.65260
 30
0.000000
  70
    32
  0
VERTEX
  8
0
  5
A19
 10
0.572315
 20
5.65282
 30
0.000000
  70
    32
  0
VERTEX
  8
0
  5
A1A
 10
0.571884
 20
5.65304
 30
0.000000
  70
    32
  0
VERTEX
  8
0
  5
A1B
 10
0.571451
 20
5.65325
 30
0.000000
  70
    32
  0
VERTEX
  8
0
  5
A1C
 10
0.571014
 20
5.65346
 30
0.000000
  70
    32
  0
VERTEX
  8
0
  5
A1D
 10
0.570574
 20
5.65367
 30
0.000000
  70
    32
  0
VERTEX
  8
0
  5
A1E
 10
0.570132
 20
5.65387
 30
0.000000
  70
    32
  0
VERTEX
  8
0
  5
A1F
 10
0.569686
 20
5.65406
 30
0.000000
  70
    32
  0
VERTEX
  8
0
  5
A20
 10
0.569238
 20
5.65425
 30
0.000000
  70
    32
  0
VERTEX
  8
0
  5
A21
 10
0.568787
 20
5.65443
 30
0.000000
  70
    32
  0
VERTEX
  8
0
  5
A22
 10
0.568333
 20
5.65461
 30
0.000000
  70
    32
  0
VERTEX
  8
0
  5
A23
 10
0.567877
 20
5.65478
 30
0.000000
  70
    32
  0
VERTEX
  8
0
  5
A24
 10
0.567418
 20
5.65494
 30
0.000000
  70
    32
  0
VERTEX
  8
0
  5
A25
 10
0.566956
 20
5.65511
 30
0.000000
  70
    32
  0
VERTEX
  8
0
  5
A26
 10
0.566492
 20
5.65526
 30
0.000000
  70
    32
  0
VERTEX
  8
0
  5
A27
 10
0.566025
 20
5.65541
 30
0.000000
  70
    32
  0
VERTEX
  8
0
  5
A28
 10
0.565556
 20
5.65555
 30
0.000000
  70
    32
  0
VERTEX
  8
0
  5
A29
 10
0.565084
 20
5.65569
 30
0.000000
  70
    32
  0
VERTEX
  8
0
  5
A2A
 10
0.564610
 20
5.65582
 30
0.000000
  70
    32
  0
VERTEX
  8
0
  5
A2B
 10
0.564133
 20
5.65595
 30
0.000000
  70
    32
  0
VERTEX
  8
0
  5
A2C
 10
0.563654
 20
5.65607
 30
0.000000
  70
    32
  0
VERTEX
  8
0
  5
A2D
 10
0.563173
 20
5.65619
 30
0.000000
  70
    32
  0
VERTEX
  8
0
  5
A2E
 10
0.562690
 20
5.65630
 30
0.000000
  70
    32
  0
VERTEX
  8
0
  5
A2F
 10
0.562204
 20
5.65640
 30
0.000000
  70
    32
  0
VERTEX
  8
0
  5
A30
 10
0.561716
 20
5.65650
 30
0.000000
  70
    32
  0
VERTEX
  8
0
  5
A31
 10
0.561226
 20
5.65659
 30
0.000000
  70
    32
  0
VERTEX
  8
0
  5
A32
 10
0.560734
 20
5.65667
 30
0.000000
  70
    32
  0
VERTEX
  8
0
  5
A33
 10
0.560240
 20
5.65675
 30
0.000000
  70
    32
  0
VERTEX
  8
0
  5
A34
 10
0.559744
 20
5.65683
 30
0.000000
  70
    32
  0
VERTEX
  8
0
  5
A35
 10
0.559246
 20
5.65689
 30
0.000000
  70
    32
  0
VERTEX
  8
0
  5
A36
 10
0.558746
 20
5.65695
 30
0.000000
  70
    32
  0
VERTEX
  8
0
  5
A37
 10
0.558244
 20
5.65701
 30
0.000000
  70
    32
  0
VERTEX
  8
0
  5
A38
 10
0.557740
 20
5.65706
 30
0.000000
  70
    32
  0
VERTEX
  8
0
  5
A39
 10
0.557234
 20
5.65710
 30
0.000000
  70
    32
  0
VERTEX
  8
0
  5
A3A
 10
0.556727
 20
5.65714
 30
0.000000
  70
    32
  0
VERTEX
  8
0
  5
A3B
 10
0.556217
 20
5.65716
 30
0.000000
  70
    32
  0
VERTEX
  8
0
  5
A3C
 10
0.555706
 20
5.65719
 30
0.000000
  70
    32
  0
VERTEX
  8
0
  5
A3D
 10
0.555194
 20
5.65720
 30
0.000000
  70
    32
  0
VERTEX
  8
0
  5
A3E
 10
0.554680
 20
5.65721
 30
0.000000
  70
    32
  0
VERTEX
  8
0
  5
A3F
 10
0.554164
 20
5.65722
 30
0.000000
  70
    32
  0
SEQEND
  8
0
  5
A40
  0
POLYLINE
  8
0
  5
A41
  66
     1
 10
0.000000
 20
0.000000
 30
0.000000
  70
     8
  0
VERTEX
  8
0
  5
A42
 10
0.383956
 20
5.96077
 30
0.000000
  70
    32
  0
VERTEX
  8
0
  5
A43
 10
0.384111
 20
5.96077
 30
0.000000
  70
    32
  0
VERTEX
  8
0
  5
A44
 10
0.384265
 20
5.96077
 30
0.000000
  70
    32
  0
VERTEX
  8
0
  5
A45
 10
0.384419
 20
5.96078
 30
0.000000
  70
    32
  0
VERTEX
  8
0
  5
A46
 10
0.384572
 20
5.96079
 30
0.000000
  70
    32
  0
VERTEX
  8
0
  5
A47
 10
0.384725
 20
5.96079
 30
0.000000
  70
    32
  0
VERTEX
  8
0
  5
A48
 10
0.384877
 20
5.96081
 30
0.000000
  70
    32
  0
VERTEX
  8
0
  5
A49
 10
0.385029
 20
5.96082
 30
0.000000
  70
    32
  0
VERTEX
  8
0
  5
A4A
 10
0.385180
 20
5.96083
 30
0.000000
  70
    32
  0
VERTEX
  8
0
  5
A4B
 10
0.385331
 20
5.96085
 30
0.000000
  70
    32
  0
VERTEX
  8
0
  5
A4C
 10
0.385481
 20
5.96087
 30
0.000000
  70
    32
  0
VERTEX
  8
0
  5
A4D
 10
0.385631
 20
5.96089
 30
0.000000
  70
    32
  0
VERTEX
  8
0
  5
A4E
 10
0.385780
 20
5.96091
 30
0.000000
  70
    32
  0
VERTEX
  8
0
  5
A4F
 10
0.385928
 20
5.96093
 30
0.000000
  70
    32
  0
VERTEX
  8
0
  5
A50
 10
0.386076
 20
5.96096
 30
0.000000
  70
    32
  0
VERTEX
  8
0
  5
A51
 10
0.386223
 20
5.96099
 30
0.000000
  70
    32
  0
VERTEX
  8
0
  5
A52
 10
0.386369
 20
5.96102
 30
0.000000
  70
    32
  0
VERTEX
  8
0
  5
A53
 10
0.386515
 20
5.96105
 30
0.000000
  70
    32
  0
VERTEX
  8
0
  5
A54
 10
0.386660
 20
5.96108
 30
0.000000
  70
    32
  0
VERTEX
  8
0
  5
A55
 10
0.386804
 20
5.96111
 30
0.000000
  70
    32
  0
VERTEX
  8
0
  5
A56
 10
0.386948
 20
5.96115
 30
0.000000
  70
    32
  0
VERTEX
  8
0
  5
A57
 10
0.387091
 20
5.96119
 30
0.000000
  70
    32
  0
VERTEX
  8
0
  5
A58
 10
0.387233
 20
5.96123
 30
0.000000
  70
    32
  0
VERTEX
  8
0
  5
A59
 10
0.387375
 20
5.96127
 30
0.000000
  70
    32
  0
VERTEX
  8
0
  5
A5A
 10
0.387516
 20
5.96131
 30
0.000000
  70
    32
  0
VERTEX
  8
0
  5
A5B
 10
0.387656
 20
5.96136
 30
0.000000
  70
    32
  0
VERTEX
  8
0
  5
A5C
 10
0.387795
 20
5.96140
 30
0.000000
  70
    32
  0
VERTEX
  8
0
  5
A5D
 10
0.387934
 20
5.96145
 30
0.000000
  70
    32
  0
VERTEX
  8
0
  5
A5E
 10
0.388071
 20
5.96150
 30
0.000000
  70
    32
  0
VERTEX
  8
0
  5
A5F
 10
0.388208
 20
5.96155
 30
0.000000
  70
    32
  0
VERTEX
  8
0
  5
A60
 10
0.388344
 20
5.96161
 30
0.000000
  70
    32
  0
VERTEX
  8
0
  5
A61
 10
0.388480
 20
5.96166
 30
0.000000
  70
    32
  0
VERTEX
  8
0
  5
A62
 10
0.388614
 20
5.96172
 30
0.000000
  70
    32
  0
VERTEX
  8
0
  5
A63
 10
0.388748
 20
5.96178
 30
0.000000
  70
    32
  0
VERTEX
  8
0
  5
A64
 10
0.388880
 20
5.96184
 30
0.000000
  70
    32
  0
VERTEX
  8
0
  5
A65
 10
0.389012
 20
5.96190
 30
0.000000
  70
    32
  0
VERTEX
  8
0
  5
A66
 10
0.389143
 20
5.96196
 30
0.000000
  70
    32
  0
VERTEX
  8
0
  5
A67
 10
0.389273
 20
5.96202
 30
0.000000
  70
    32
  0
VERTEX
  8
0
  5
A68
 10
0.389403
 20
5.96209
 30
0.000000
  70
    32
  0
VERTEX
  8
0
  5
A69
 10
0.389531
 20
5.96216
 30
0.000000
  70
    32
  0
VERTEX
  8
0
  5
A6A
 10
0.389658
 20
5.96223
 30
0.000000
  70
    32
  0
VERTEX
  8
0
  5
A6B
 10
0.389785
 20
5.96230
 30
0.000000
  70
    32
  0
VERTEX
  8
0
  5
A6C
 10
0.389910
 20
5.96237
 30
0.000000
  70
    32
  0
VERTEX
  8
0
  5
A6D
 10
0.390034
 20
5.96244
 30
0.000000
  70
    32
  0
VERTEX
  8
0
  5
A6E
 10
0.390158
 20
5.96252
 30
0.000000
  70
    32
  0
VERTEX
  8
0
  5
A6F
 10
0.390280
 20
5.96259
 30
0.000000
  70
    32
  0
VERTEX
  8
0
  5
A70
 10
0.390402
 20
5.96267
 30
0.000000
  70
    32
  0
VERTEX
  8
0
  5
A71
 10
0.390522
 20
5.96275
 30
0.000000
  70
    32
  0
VERTEX
  8
0
  5
A72
 10
0.390642
 20
5.96283
 30
0.000000
  70
    32
  0
VERTEX
  8
0
  5
A73
 10
0.390760
 20
5.96291
 30
0.000000
  70
    32
  0
VERTEX
  8
0
  5
A74
 10
0.390878
 20
5.96299
 30
0.000000
  70
    32
  0
VERTEX
  8
0
  5
A75
 10
0.390994
 20
5.96308
 30
0.000000
  70
    32
  0
VERTEX
  8
0
  5
A76
 10
0.391109
 20
5.96316
 30
0.000000
  70
    32
  0
VERTEX
  8
0
  5
A77
 10
0.391223
 20
5.96325
 30
0.000000
  70
    32
  0
VERTEX
  8
0
  5
A78
 10
0.391336
 20
5.96334
 30
0.000000
  70
    32
  0
VERTEX
  8
0
  5
A79
 10
0.391448
 20
5.96343
 30
0.000000
  70
    32
  0
VERTEX
  8
0
  5
A7A
 10
0.391559
 20
5.96352
 30
0.000000
  70
    32
  0
VERTEX
  8
0
  5
A7B
 10
0.391669
 20
5.96361
 30
0.000000
  70
    32
  0
VERTEX
  8
0
  5
A7C
 10
0.391777
 20
5.96371
 30
0.000000
  70
    32
  0
VERTEX
  8
0
  5
A7D
 10
0.391885
 20
5.96380
 30
0.000000
  70
    32
  0
VERTEX
  8
0
  5
A7E
 10
0.391991
 20
5.96390
 30
0.000000
  70
    32
  0
VERTEX
  8
0
  5
A7F
 10
0.392096
 20
5.96400
 30
0.000000
  70
    32
  0
VERTEX
  8
0
  5
A80
 10
0.392200
 20
5.96410
 30
0.000000
  70
    32
  0
VERTEX
  8
0
  5
A81
 10
0.392303
 20
5.96420
 30
0.000000
  70
    32
  0
VERTEX
  8
0
  5
A82
 10
0.392404
 20
5.96430
 30
0.000000
  70
    32
  0
VERTEX
  8
0
  5
A83
 10
0.392504
 20
5.96440
 30
0.000000
  70
    32
  0
VERTEX
  8
0
  5
A84
 10
0.392603
 20
5.96451
 30
0.000000
  70
    32
  0
VERTEX
  8
0
  5
A85
 10
0.392701
 20
5.96461
 30
0.000000
  70
    32
  0
VERTEX
  8
0
  5
A86
 10
0.392797
 20
5.96472
 30
0.000000
  70
    32
  0
VERTEX
  8
0
  5
A87
 10
0.392892
 20
5.96482
 30
0.000000
  70
    32
  0
VERTEX
  8
0
  5
A88
 10
0.392986
 20
5.96493
 30
0.000000
  70
    32
  0
VERTEX
  8
0
  5
A89
 10
0.393079
 20
5.96504
 30
0.000000
  70
    32
  0
VERTEX
  8
0
  5
A8A
 10
0.393170
 20
5.96515
 30
0.000000
  70
    32
  0
VERTEX
  8
0
  5
A8B
 10
0.393260
 20
5.96527
 30
0.000000
  70
    32
  0
VERTEX
  8
0
  5
A8C
 10
0.393349
 20
5.96538
 30
0.000000
  70
    32
  0
VERTEX
  8
0
  5
A8D
 10
0.393436
 20
5.96549
 30
0.000000
  70
    32
  0
VERTEX
  8
0
  5
A8E
 10
0.393522
 20
5.96561
 30
0.000000
  70
    32
  0
VERTEX
  8
0
  5
A8F
 10
0.393607
 20
5.96572
 30
0.000000
  70
    32
  0
VERTEX
  8
0
  5
A90
 10
0.393690
 20
5.96584
 30
0.000000
  70
    32
  0
VERTEX
  8
0
  5
A91
 10
0.393772
 20
5.96596
 30
0.000000
  70
    32
  0
VERTEX
  8
0
  5
A92
 10
0.393852
 20
5.96608
 30
0.000000
  70
    32
  0
VERTEX
  8
0
  5
A93
 10
0.393931
 20
5.96620
 30
0.000000
  70
    32
  0
VERTEX
  8
0
  5
A94
 10
0.394008
 20
5.96632
 30
0.000000
  70
    32
  0
VERTEX
  8
0
  5
A95
 10
0.394084
 20
5.96644
 30
0.000000
  70
    32
  0
VERTEX
  8
0
  5
A96
 10
0.394159
 20
5.96657
 30
0.000000
  70
    32
  0
VERTEX
  8
0
  5
A97
 10
0.394232
 20
5.96669
 30
0.000000
  70
    32
  0
VERTEX
  8
0
  5
A98
 10
0.394304
 20
5.96682
 30
0.000000
  70
    32
  0
VERTEX
  8
0
  5
A99
 10
0.394374
 20
5.96694
 30
0.000000
  70
    32
  0
VERTEX
  8
0
  5
A9A
 10
0.394443
 20
5.96707
 30
0.000000
  70
    32
  0
VERTEX
  8
0
  5
A9B
 10
0.394510
 20
5.96720
 30
0.000000
  70
    32
  0
VERTEX
  8
0
  5
A9C
 10
0.394576
 20
5.96733
 30
0.000000
  70
    32
  0
VERTEX
  8
0
  5
A9D
 10
0.394640
 20
5.96746
 30
0.000000
  70
    32
  0
VERTEX
  8
0
  5
A9E
 10
0.394702
 20
5.96759
 30
0.000000
  70
    32
  0
VERTEX
  8
0
  5
A9F
 10
0.394764
 20
5.96772
 30
0.000000
  70
    32
  0
VERTEX
  8
0
  5
AA0
 10
0.394823
 20
5.96785
 30
0.000000
  70
    32
  0
VERTEX
  8
0
  5
AA1
 10
0.394881
 20
5.96799
 30
0.000000
  70
    32
  0
VERTEX
  8
0
  5
AA2
 10
0.394937
 20
5.96812
 30
0.000000
  70
    32
  0
VERTEX
  8
0
  5
AA3
 10
0.394992
 20
5.96826
 30
0.000000
  70
    32
  0
VERTEX
  8
0
  5
AA4
 10
0.395045
 20
5.96839
 30
0.000000
  70
    32
  0
VERTEX
  8
0
  5
AA5
 10
0.395096
 20
5.96853
 30
0.000000
  70
    32
  0
VERTEX
  8
0
  5
AA6
 10
0.395146
 20
5.96867
 30
0.000000
  70
    32
  0
VERTEX
  8
0
  5
AA7
 10
0.395194
 20
5.96881
 30
0.000000
  70
    32
  0
VERTEX
  8
0
  5
AA8
 10
0.395241
 20
5.96895
 30
0.000000
  70
    32
  0
VERTEX
  8
0
  5
AA9
 10
0.395286
 20
5.96909
 30
0.000000
  70
    32
  0
VERTEX
  8
0
  5
AAA
 10
0.395329
 20
5.96923
 30
0.000000
  70
    32
  0
VERTEX
  8
0
  5
AAB
 10
0.395370
 20
5.96937
 30
0.000000
  70
    32
  0
VERTEX
  8
0
  5
AAC
 10
0.395410
 20
5.96951
 30
0.000000
  70
    32
  0
VERTEX
  8
0
  5
AAD
 10
0.395448
 20
5.96965
 30
0.000000
  70
    32
  0
VERTEX
  8
0
  5
AAE
 10
0.395484
 20
5.96980
 30
0.000000
  70
    32
  0
VERTEX
  8
0
  5
AAF
 10
0.395518
 20
5.96994
 30
0.000000
  70
    32
  0
VERTEX
  8
0
  5
AB0
 10
0.395551
 20
5.97009
 30
0.000000
  70
    32
  0
VERTEX
  8
0
  5
AB1
 10
0.395582
 20
5.97023
 30
0.000000
  70
    32
  0
VERTEX
  8
0
  5
AB2
 10
0.395611
 20
5.97038
 30
0.000000
  70
    32
  0
VERTEX
  8
0
  5
AB3
 10
0.395639
 20
5.97052
 30
0.000000
  70
    32
  0
VERTEX
  8
0
  5
AB4
 10
0.395664
 20
5.97067
 30
0.000000
  70
    32
  0
VERTEX
  8
0
  5
AB5
 10
0.395688
 20
5.97082
 30
0.000000
  70
    32
  0
VERTEX
  8
0
  5
AB6
 10
0.395710
 20
5.97097
 30
0.000000
  70
    32
  0
VERTEX
  8
0
  5
AB7
 10
0.395730
 20
5.97112
 30
0.000000
  70
    32
  0
VERTEX
  8
0
  5
AB8
 10
0.395748
 20
5.97127
 30
0.000000
  70
    32
  0
VERTEX
  8
0
  5
AB9
 10
0.395764
 20
5.97142
 30
0.000000
  70
    32
  0
VERTEX
  8
0
  5
ABA
 10
0.395779
 20
5.97157
 30
0.000000
  70
    32
  0
VERTEX
  8
0
  5
ABB
 10
0.395791
 20
5.97172
 30
0.000000
  70
    32
  0
VERTEX
  8
0
  5
ABC
 10
0.395802
 20
5.97187
 30
0.000000
  70
    32
  0
VERTEX
  8
0
  5
ABD
 10
0.395811
 20
5.97203
 30
0.000000
  70
    32
  0
VERTEX
  8
0
  5
ABE
 10
0.395818
 20
5.97218
 30
0.000000
  70
    32
  0
VERTEX
  8
0
  5
ABF
 10
0.395823
 20
5.97233
 30
0.000000
  70
    32
  0
VERTEX
  8
0
  5
AC0
 10
0.395826
 20
5.97249
 30
0.000000
  70
    32
  0
VERTEX
  8
0
  5
AC1
 10
0.395827
 20
5.97264
 30
0.000000
  70
    32
  0
SEQEND
  8
0
  5
AC2
  0
POLYLINE
  8
0
  5
AC3
  66
     1
 10
0.000000
 20
0.000000
 30
0.000000
  70
     8
  0
VERTEX
  8
0
  5
AC4
 10
-0.370748
 20
6.87428
 30
0.000000
  70
    32
  0
VERTEX
  8
0
  5
AC5
 10
-0.365016
 20
6.87270
 30
0.000000
  70
    32
  0
VERTEX
  8
0
  5
AC6
 10
-0.359278
 20
6.87114
 30
0.000000
  70
    32
  0
VERTEX
  8
0
  5
AC7
 10
-0.353536
 20
6.86962
 30
0.000000
  70
    32
  0
VERTEX
  8
0
  5
AC8
 10
-0.347788
 20
6.86811
 30
0.000000
  70
    32
  0
VERTEX
  8
0
  5
AC9
 10
-0.342036
 20
6.86663
 30
0.000000
  70
    32
  0
VERTEX
  8
0
  5
ACA
 10
-0.336279
 20
6.86518
 30
0.000000
  70
    32
  0
VERTEX
  8
0
  5
ACB
 10
-0.330517
 20
6.86375
 30
0.000000
  70
    32
  0
VERTEX
  8
0
  5
ACC
 10
-0.324751
 20
6.86235
 30
0.000000
  70
    32
  0
VERTEX
  8
0
  5
ACD
 10
-0.318980
 20
6.86097
 30
0.000000
  70
    32
  0
VERTEX
  8
0
  5
ACE
 10
-0.313205
 20
6.85962
 30
0.000000
  70
    32
  0
VERTEX
  8
0
  5
ACF
 10
-0.307426
 20
6.85829
 30
0.000000
  70
    32
  0
VERTEX
  8
0
  5
AD0
 10
-0.301642
 20
6.85698
 30
0.000000
  70
    32
  0
VERTEX
  8
0
  5
AD1
 10
-0.295854
 20
6.85571
 30
0.000000
  70
    32
  0
VERTEX
  8
0
  5
AD2
 10
-0.290062
 20
6.85445
 30
0.000000
  70
    32
  0
VERTEX
  8
0
  5
AD3
 10
-0.284266
 20
6.85322
 30
0.000000
  70
    32
  0
VERTEX
  8
0
  5
AD4
 10
-0.278466
 20
6.85202
 30
0.000000
  70
    32
  0
VERTEX
  8
0
  5
AD5
 10
-0.272663
 20
6.85084
 30
0.000000
  70
    32
  0
VERTEX
  8
0
  5
AD6
 10
-0.266855
 20
6.84969
 30
0.000000
  70
    32
  0
VERTEX
  8
0
  5
AD7
 10
-0.261044
 20
6.84856
 30
0.000000
  70
    32
  0
VERTEX
  8
0
  5
AD8
 10
-0.255230
 20
6.84746
 30
0.000000
  70
    32
  0
VERTEX
  8
0
  5
AD9
 10
-0.249412
 20
6.84638
 30
0.000000
  70
    32
  0
VERTEX
  8
0
  5
ADA
 10
-0.243590
 20
6.84533
 30
0.000000
  70
    32
  0
VERTEX
  8
0
  5
ADB
 10
-0.237765
 20
6.84430
 30
0.000000
  70
    32
  0
VERTEX
  8
0
  5
ADC
 10
-0.231937
 20
6.84330
 30
0.000000
  70
    32
  0
VERTEX
  8
0
  5
ADD
 10
-0.226105
 20
6.84232
 30
0.000000
  70
    32
  0
VERTEX
  8
0
  5
ADE
 10
-0.220271
 20
6.84137
 30
0.000000
  70
    32
  0
VERTEX
  8
0
  5
ADF
 10
-0.214433
 20
6.84044
 30
0.000000
  70
    32
  0
VERTEX
  8
0
  5
AE0
 10
-0.208593
 20
6.83954
 30
0.000000
  70
    32
  0
VERTEX
  8
0
  5
AE1
 10
-0.202749
 20
6.83866
 30
0.000000
  70
    32
  0
VERTEX
  8
0
  5
AE2
 10
-0.196903
 20
6.83781
 30
0.000000
  70
    32
  0
VERTEX
  8
0
  5
AE3
 10
-0.191054
 20
6.83698
 30
0.000000
  70
    32
  0
VERTEX
  8
0
  5
AE4
 10
-0.185203
 20
6.83618
 30
0.000000
  70
    32
  0
VERTEX
  8
0
  5
AE5
 10
-0.179349
 20
6.83540
 30
0.000000
  70
    32
  0
VERTEX
  8
0
  5
AE6
 10
-0.173492
 20
6.83465
 30
0.000000
  70
    32
  0
VERTEX
  8
0
  5
AE7
 10
-0.167634
 20
6.83393
 30
0.000000
  70
    32
  0
VERTEX
  8
0
  5
AE8
 10
-0.161772
 20
6.83322
 30
0.000000
  70
    32
  0
VERTEX
  8
0
  5
AE9
 10
-0.155909
 20
6.83255
 30
0.000000
  70
    32
  0
VERTEX
  8
0
  5
AEA
 10
-0.150044
 20
6.83190
 30
0.000000
  70
    32
  0
VERTEX
  8
0
  5
AEB
 10
-0.144176
 20
6.83127
 30
0.000000
  70
    32
  0
VERTEX
  8
0
  5
AEC
 10
-0.138306
 20
6.83067
 30
0.000000
  70
    32
  0
VERTEX
  8
0
  5
AED
 10
-0.132435
 20
6.83009
 30
0.000000
  70
    32
  0
VERTEX
  8
0
  5
AEE
 10
-0.126562
 20
6.82954
 30
0.000000
  70
    32
  0
VERTEX
  8
0
  5
AEF
 10
-0.120687
 20
6.82901
 30
0.000000
  70
    32
  0
VERTEX
  8
0
  5
AF0
 10
-0.114810
 20
6.82851
 30
0.000000
  70
    32
  0
VERTEX
  8
0
  5
AF1
 10
-0.108932
 20
6.82804
 30
0.000000
  70
    32
  0
VERTEX
  8
0
  5
AF2
 10
-0.103052
 20
6.82759
 30
0.000000
  70
    32
  0
VERTEX
  8
0
  5
AF3
 10
-0.0971709
 20
6.82716
 30
0.000000
  70
    32
  0
VERTEX
  8
0
  5
AF4
 10
-0.0912884
 20
6.82676
 30
0.000000
  70
    32
  0
VERTEX
  8
0
  5
AF5
 10
-0.0854047
 20
6.82638
 30
0.000000
  70
    32
  0
VERTEX
  8
0
  5
AF6
 10
-0.0795198
 20
6.82603
 30
0.000000
  70
    32
  0
VERTEX
  8
0
  5
AF7
 10
-0.0736338
 20
6.82571
 30
0.000000
  70
    32
  0
VERTEX
  8
0
  5
AF8
 10
-0.0677468
 20
6.82540
 30
0.000000
  70
    32
  0
VERTEX
  8
0
  5
AF9
 10
-0.0618589
 20
6.82513
 30
0.000000
  70
    32
  0
VERTEX
  8
0
  5
AFA
 10
-0.0559702
 20
6.82488
 30
0.000000
  70
    32
  0
VERTEX
  8
0
  5
AFB
 10
-0.0500806
 20
6.82465
 30
0.000000
  70
    32
  0
VERTEX
  8
0
  5
AFC
 10
-0.0441904
 20
6.82445
 30
0.000000
  70
    32
  0
VERTEX
  8
0
  5
AFD
 10
-0.0382996
 20
6.82428
 30
0.000000
  70
    32
  0
VERTEX
  8
0
  5
AFE
 10
-0.0324082
 20
6.82413
 30
0.000000
  70
    32
  0
VERTEX
  8
0
  5
AFF
 10
-0.0265164
 20
6.82400
 30
0.000000
  70
    32
  0
VERTEX
  8
0
  5
B00
 10
-0.0206243
 20
6.82390
 30
0.000000
  70
    32
  0
VERTEX
  8
0
  5
B01
 10
-0.0147318
 20
6.82383
 30
0.000000
  70
    32
  0
VERTEX
  8
0
  5
B02
 10
-0.00883917
 20
6.82378
 30
0.000000
  70
    32
  0
VERTEX
  8
0
  5
B03
 10
-0.00294640
 20
6.82375
 30
0.000000
  70
    32
  0
VERTEX
  8
0
  5
B04
 10
0.00294640
 20
6.82375
 30
0.000000
  70
    32
  0
VERTEX
  8
0
  5
B05
 10
0.00883917
 20
6.82378
 30
0.000000
  70
    32
  0
VERTEX
  8
0
  5
B06
 10
0.0147318
 20
6.82383
 30
0.000000
  70
    32
  0
VERTEX
  8
0
  5
B07
 10
0.0206243
 20
6.82390
 30
0.000000
  70
    32
  0
VERTEX
  8
0
  5
B08
 10
0.0265164
 20
6.82400
 30
0.000000
  70
    32
  0
VERTEX
  8
0
  5
B09
 10
0.0324082
 20
6.82413
 30
0.000000
  70
    32
  0
VERTEX
  8
0
  5
B0A
 10
0.0382996
 20
6.82428
 30
0.000000
  70
    32
  0
VERTEX
  8
0
  5
B0B
 10
0.0441904
 20
6.82445
 30
0.000000
  70
    32
  0
VERTEX
  8
0
  5
B0C
 10
0.0500806
 20
6.82465
 30
0.000000
  70
    32
  0
VERTEX
  8
0
  5
B0D
 10
0.0559702
 20
6.82488
 30
0.000000
  70
    32
  0
VERTEX
  8
0
  5
B0E
 10
0.0618589
 20
6.82513
 30
0.000000
  70
    32
  0
VERTEX
  8
0
  5
B0F
 10
0.0677468
 20
6.82540
 30
0.000000
  70
    32
  0
VERTEX
  8
0
  5
B10
 10
0.0736338
 20
6.82571
 30
0.000000
  70
    32
  0
VERTEX
  8
0
  5
B11
 10
0.0795198
 20
6.82603
 30
0.000000
  70
    32
  0
VERTEX
  8
0
  5
B12
 10
0.0854047
 20
6.82638
 30
0.000000
  70
    32
  0
VERTEX
  8
0
  5
B13
 10
0.0912884
 20
6.82676
 30
0.000000
  70
    32
  0
VERTEX
  8
0
  5
B14
 10
0.0971709
 20
6.82716
 30
0.000000
  70
    32
  0
VERTEX
  8
0
  5
B15
 10
0.103052
 20
6.82759
 30
0.000000
  70
    32
  0
VERTEX
  8
0
  5
B16
 10
0.108932
 20
6.82804
 30
0.000000
  70
    32
  0
VERTEX
  8
0
  5
B17
 10
0.114810
 20
6.82851
 30
0.000000
  70
    32
  0
VERTEX
  8
0
  5
B18
 10
0.120687
 20
6.82901
 30
0.000000
  70
    32
  0
VERTEX
  8
0
  5
B19
 10
0.126562
 20
6.82954
 30
0.000000
  70
    32
  0
VERTEX
  8
0
  5
B1A
 10
0.132435
 20
6.83009
 30
0.000000
  70
    32
  0
VERTEX
  8
0
  5
B1B
 10
0.138306
 20
6.83067
 30
0.000000
  70
    32
  0
VERTEX
  8
0
  5
B1C
 10
0.144176
 20
6.83127
 30
0.000000
  70
    32
  0
VERTEX
  8
0
  5
B1D
 10
0.150044
 20
6.83190
 30
0.000000
  70
    32
  0
VERTEX
  8
0
  5
B1E
 10
0.155909
 20
6.83255
 30
0.000000
  70
    32
  0
VERTEX
  8
0
  5
B1F
 10
0.161772
 20
6.83322
 30
0.000000
  70
    32
  0
VERTEX
  8
0
  5
B20
 10
0.167634
 20
6.83393
 30
0.000000
  70
    32
  0
VERTEX
  8
0
  5
B21
 10
0.173492
 20
6.83465
 30
0.000000
  70
    32
  0
VERTEX
  8
0
  5
B22
 10
0.179349
 20
6.83540
 30
0.000000
  70
    32
  0
VERTEX
  8
0
  5
B23
 10
0.185203
 20
6.83618
 30
0.000000
  70
    32
  0
VERTEX
  8
0
  5
B24
 10
0.191054
 20
6.83698
 30
0.000000
  70
    32
  0
VERTEX
  8
0
  5
B25
 10
0.196903
 20
6.83781
 30
0.000000
  70
    32
  0
VERTEX
  8
0
  5
B26
 10
0.202749
 20
6.83866
 30
0.000000
  70
    32
  0
VERTEX
  8
0
  5
B27
 10
0.208593
 20
6.83954
 30
0.000000
  70
    32
  0
VERTEX
  8
0
  5
B28
 10
0.214433
 20
6.84044
 30
0.000000
  70
    32
  0
VERTEX
  8
0
  5
B29
 10
0.220271
 20
6.84137
 30
0.000000
  70
    32
  0
VERTEX
  8
0
  5
B2A
 10
0.226105
 20
6.84232
 30
0.000000
  70
    32
  0
VERTEX
  8
0
  5
B2B
 10
0.231937
 20
6.84330
 30
0.000000
  70
    32
  0
VERTEX
  8
0
  5
B2C
 10
0.237765
 20
6.84430
 30
0.000000
  70
    32
  0
VERTEX
  8
0
  5
B2D
 10
0.243590
 20
6.84533
 30
0.000000
  70
    32
  0
VERTEX
  8
0
  5
B2E
 10
0.249412
 20
6.84638
 30
0.000000
  70
    32
  0
VERTEX
  8
0
  5
B2F
 10
0.255230
 20
6.84746
 30
0.000000
  70
    32
  0
VERTEX
  8
0
  5
B30
 10
0.261044
 20
6.84856
 30
0.000000
  70
    32
  0
VERTEX
  8
0
  5
B31
 10
0.266855
 20
6.84969
 30
0.000000
  70
    32
  0
VERTEX
  8
0
  5
B32
 10
0.272663
 20
6.85084
 30
0.000000
  70
    32
  0
VERTEX
  8
0
  5
B33
 10
0.278466
 20
6.85202
 30
0.000000
  70
    32
  0
VERTEX
  8
0
  5
B34
 10
0.284266
 20
6.85322
 30
0.000000
  70
    32
  0
VERTEX
  8
0
  5
B35
 10
0.290062
 20
6.85445
 30
0.000000
  70
    32
  0
VERTEX
  8
0
  5
B36
 10
0.295854
 20
6.85571
 30
0.000000
  70
    32
  0
VERTEX
  8
0
  5
B37
 10
0.301642
 20
6.85698
 30
0.000000
  70
    32
  0
VERTEX
  8
0
  5
B38
 10
0.307426
 20
6.85829
 30
0.000000
  70
    32
  0
VERTEX
  8
0
  5
B39
 10
0.313205
 20
6.85962
 30
0.000000
  70
    32
  0
VERTEX
  8
0
  5
B3A
 10
0.318980
 20
6.86097
 30
0.000000
  70
    32
  0
VERTEX
  8
0
  5
B3B
 10
0.324751
 20
6.86235
 30
0.000000
  70
    32
  0
VERTEX
  8
0
  5
B3C
 10
0.330517
 20
6.86375
 30
0.000000
  70
    32
  0
VERTEX
  8
0
  5
B3D
 10
0.336279
 20
6.86518
 30
0.000000
  70
    32
  0
VERTEX
  8
0
  5
B3E
 10
0.342036
 20
6.86663
 30
0.000000
  70
    32
  0
VERTEX
  8
0
  5
B3F
 10
0.347788
 20
6.86811
 30
0.000000
  70
    32
  0
VERTEX
  8
0
  5
B40
 10
0.353536
 20
6.86962
 30
0.000000
  70
    32
  0
VERTEX
  8
0
  5
B41
 10
0.359278
 20
6.87114
 30
0.000000
  70
    32
  0
VERTEX
  8
0
  5
B42
 10
0.365016
 20
6.87270
 30
0.000000
  70
    32
  0
VERTEX
  8
0
  5
B43
 10
0.370748
 20
6.87428
 30
0.000000
  70
    32
  0
SEQEND
  8
0
  5
B44
  0
POLYLINE
  8
0
  5
B45
  66
     1
 10
0.000000
 20
0.000000
 30
0.000000
  70
     8
  0
VERTEX
  8
0
  5
B46
 10
0.388013
 20
6.87096
 30
0.000000
  70
    32
  0
VERTEX
  8
0
  5
B47
 10
0.387896
 20
6.87104
 30
0.000000
  70
    32
  0
VERTEX
  8
0
  5
B48
 10
0.387779
 20
6.87113
 30
0.000000
  70
    32
  0
VERTEX
  8
0
  5
B49
 10
0.387662
 20
6.87122
 30
0.000000
  70
    32
  0
VERTEX
  8
0
  5
B4A
 10
0.387544
 20
6.87130
 30
0.000000
  70
    32
  0
VERTEX
  8
0
  5
B4B
 10
0.387425
 20
6.87139
 30
0.000000
  70
    32
  0
VERTEX
  8
0
  5
B4C
 10
0.387306
 20
6.87147
 30
0.000000
  70
    32
  0
VERTEX
  8
0
  5
B4D
 10
0.387187
 20
6.87155
 30
0.000000
  70
    32
  0
VERTEX
  8
0
  5
B4E
 10
0.387066
 20
6.87164
 30
0.000000
  70
    32
  0
VERTEX
  8
0
  5
B4F
 10
0.386946
 20
6.87172
 30
0.000000
  70
    32
  0
VERTEX
  8
0
  5
B50
 10
0.386825
 20
6.87180
 30
0.000000
  70
    32
  0
VERTEX
  8
0
  5
B51
 10
0.386703
 20
6.87187
 30
0.000000
  70
    32
  0
VERTEX
  8
0
  5
B52
 10
0.386581
 20
6.87195
 30
0.000000
  70
    32
  0
VERTEX
  8
0
  5
B53
 10
0.386459
 20
6.87203
 30
0.000000
  70
    32
  0
VERTEX
  8
0
  5
B54
 10
0.386335
 20
6.87210
 30
0.000000
  70
    32
  0
VERTEX
  8
0
  5
B55
 10
0.386212
 20
6.87218
 30
0.000000
  70
    32
  0
VERTEX
  8
0
  5
B56
 10
0.386088
 20
6.87225
 30
0.000000
  70
    32
  0
VERTEX
  8
0
  5
B57
 10
0.385964
 20
6.87233
 30
0.000000
  70
    32
  0
VERTEX
  8
0
  5
B58
 10
0.385839
 20
6.87240
 30
0.000000
  70
    32
  0
VERTEX
  8
0
  5
B59
 10
0.385713
 20
6.87247
 30
0.000000
  70
    32
  0
VERTEX
  8
0
  5
B5A
 10
0.385587
 20
6.87254
 30
0.000000
  70
    32
  0
VERTEX
  8
0
  5
B5B
 10
0.385461
 20
6.87261
 30
0.000000
  70
    32
  0
VERTEX
  8
0
  5
B5C
 10
0.385335
 20
6.87268
 30
0.000000
  70
    32
  0
VERTEX
  8
0
  5
B5D
 10
0.385207
 20
6.87274
 30
0.000000
  70
    32
  0
VERTEX
  8
0
  5
B5E
 10
0.385080
 20
6.87281
 30
0.000000
  70
    32
  0
VERTEX
  8
0
  5
B5F
 10
0.384952
 20
6.87288
 30
0.000000
  70
    32
  0
VERTEX
  8
0
  5
B60
 10
0.384824
 20
6.87294
 30
0.000000
  70
    32
  0
VERTEX
  8
0
  5
B61
 10
0.384695
 20
6.87300
 30
0.000000
  70
    32
  0
VERTEX
  8
0
  5
B62
 10
0.384566
 20
6.87307
 30
0.000000
  70
    32
  0
VERTEX
  8
0
  5
B63
 10
0.384436
 20
6.87313
 30
0.000000
  70
    32
  0
VERTEX
  8
0
  5
B64
 10
0.384306
 20
6.87319
 30
0.000000
  70
    32
  0
VERTEX
  8
0
  5
B65
 10
0.384176
 20
6.87325
 30
0.000000
  70
    32
  0
VERTEX
  8
0
  5
B66
 10
0.384045
 20
6.87331
 30
0.000000
  70
    32
  0
VERTEX
  8
0
  5
B67
 10
0.383914
 20
6.87336
 30
0.000000
  70
    32
  0
VERTEX
  8
0
  5
B68
 10
0.383783
 20
6.87342
 30
0.000000
  70
    32
  0
VERTEX
  8
0
  5
B69
 10
0.383651
 20
6.87347
 30
0.000000
  70
    32
  0
VERTEX
  8
0
  5
B6A
 10
0.383519
 20
6.87353
 30
0.000000
  70
    32
  0
VERTEX
  8
0
  5
B6B
 10
0.383387
 20
6.87358
 30
0.000000
  70
    32
  0
VERTEX
  8
0
  5
B6C
 10
0.383254
 20
6.87364
 30
0.000000
  70
    32
  0
VERTEX
  8
0
  5
B6D
 10
0.383121
 20
6.87369
 30
0.000000
  70
    32
  0
VERTEX
  8
0
  5
B6E
 10
0.382987
 20
6.87374
 30
0.000000
  70
    32
  0
VERTEX
  8
0
  5
B6F
 10
0.382853
 20
6.87379
 30
0.000000
  70
    32
  0
VERTEX
  8
0
  5
B70
 10
0.382719
 20
6.87384
 30
0.000000
  70
    32
  0
VERTEX
  8
0
  5
B71
 10
0.382585
 20
6.87388
 30
0.000000
  70
    32
  0
VERTEX
  8
0
  5
B72
 10
0.382450
 20
6.87393
 30
0.000000
  70
    32
  0
VERTEX
  8
0
  5
B73
 10
0.382315
 20
6.87398
 30
0.000000
  70
    32
  0
VERTEX
  8
0
  5
B74
 10
0.382179
 20
6.87402
 30
0.000000
  70
    32
  0
VERTEX
  8
0
  5
B75
 10
0.382044
 20
6.87407
 30
0.000000
  70
    32
  0
VERTEX
  8
0
  5
B76
 10
0.381908
 20
6.87411
 30
0.000000
  70
    32
  0
VERTEX
  8
0
  5
B77
 10
0.381772
 20
6.87415
 30
0.000000
  70
    32
  0
VERTEX
  8
0
  5
B78
 10
0.381635
 20
6.87419
 30
0.000000
  70
    32
  0
VERTEX
  8
0
  5
B79
 10
0.381498
 20
6.87423
 30
0.000000
  70
    32
  0
VERTEX
  8
0
  5
B7A
 10
0.381361
 20
6.87427
 30
0.000000
  70
    32
  0
VERTEX
  8
0
  5
B7B
 10
0.381224
 20
6.87431
 30
0.000000
  70
    32
  0
VERTEX
  8
0
  5
B7C
 10
0.381087
 20
6.87434
 30
0.000000
  70
    32
  0
VERTEX
  8
0
  5
B7D
 10
0.380949
 20
6.87438
 30
0.000000
  70
    32
  0
VERTEX
  8
0
  5
B7E
 10
0.380811
 20
6.87442
 30
0.000000
  70
    32
  0
VERTEX
  8
0
  5
B7F
 10
0.380672
 20
6.87445
 30
0.000000
  70
    32
  0
VERTEX
  8
0
  5
B80
 10
0.380534
 20
6.87448
 30
0.000000
  70
    32
  0
VERTEX
  8
0
  5
B81
 10
0.380395
 20
6.87451
 30
0.000000
  70
    32
  0
VERTEX
  8
0
  5
B82
 10
0.380256
 20
6.87455
 30
0.000000
  70
    32
  0
VERTEX
  8
0
  5
B83
 10
0.380117
 20
6.87458
 30
0.000000
  70
    32
  0
VERTEX
  8
0
  5
B84
 10
0.379978
 20
6.87460
 30
0.000000
  70
    32
  0
VERTEX
  8
0
  5
B85
 10
0.379838
 20
6.87463
 30
0.000000
  70
    32
  0
VERTEX
  8
0
  5
B86
 10
0.379698
 20
6.87466
 30
0.000000
  70
    32
  0
VERTEX
  8
0
  5
B87
 10
0.379558
 20
6.87468
 30
0.000000
  70
    32
  0
VERTEX
  8
0
  5
B88
 10
0.379418
 20
6.87471
 30
0.000000
  70
    32
  0
VERTEX
  8
0
  5
B89
 10
0.379278
 20
6.87473
 30
0.000000
  70
    32
  0
VERTEX
  8
0
  5
B8A
 10
0.379137
 20
6.87476
 30
0.000000
  70
    32
  0
VERTEX
  8
0
  5
B8B
 10
0.378997
 20
6.87478
 30
0.000000
  70
    32
  0
VERTEX
  8
0
  5
B8C
 10
0.378856
 20
6.87480
 30
0.000000
  70
    32
  0
VERTEX
  8
0
  5
B8D
 10
0.378715
 20
6.87482
 30
0.000000
  70
    32
  0
VERTEX
  8
0
  5
B8E
 10
0.378574
 20
6.87484
 30
0.000000
  70
    32
  0
VERTEX
  8
0
  5
B8F
 10
0.378433
 20
6.87486
 30
0.000000
  70
    32
  0
VERTEX
  8
0
  5
B90
 10
0.378291
 20
6.87487
 30
0.000000
  70
    32
  0
VERTEX
  8
0
  5
B91
 10
0.378150
 20
6.87489
 30
0.000000
  70
    32
  0
VERTEX
  8
0
  5
B92
 10
0.378008
 20
6.87490
 30
0.000000
  70
    32
  0
VERTEX
  8
0
  5
B93
 10
0.377866
 20
6.87492
 30
0.000000
  70
    32
  0
VERTEX
  8
0
  5
B94
 10
0.377724
 20
6.87493
 30
0.000000
  70
    32
  0
VERTEX
  8
0
  5
B95
 10
0.377582
 20
6.87494
 30
0.000000
  70
    32
  0
VERTEX
  8
0
  5
B96
 10
0.377440
 20
6.87495
 30
0.000000
  70
    32
  0
VERTEX
  8
0
  5
B97
 10
0.377298
 20
6.87496
 30
0.000000
  70
    32
  0
VERTEX
  8
0
  5
B98
 10
0.377155
 20
6.87497
 30
0.000000
  70
    32
  0
VERTEX
  8
0
  5
B99
 10
0.377013
 20
6.87498
 30
0.000000
  70
    32
  0
VERTEX
  8
0
  5
B9A
 10
0.376870
 20
6.87498
 30
0.000000
  70
    32
  0
VERTEX
  8
0
  5
B9B
 10
0.376728
 20
6.87499
 30
0.000000
  70
    32
  0
VERTEX
  8
0
  5
B9C
 10
0.376585
 20
6.87499
 30
0.000000
  70
    32
  0
VERTEX
  8
0
  5
B9D
 10
0.376442
 20
6.87500
 30
0.000000
  70
    32
  0
VERTEX
  8
0
  5
B9E
 10
0.376300
 20
6.87500
 30
0.000000
  70
    32
  0
VERTEX
  8
0
  5
B9F
 10
0.376157
 20
6.87500
 30
0.000000
  70
    32
  0
VERTEX
  8
0
  5
BA0
 10
0.376014
 20
6.87500
 30
0.000000
  70
    32
  0
VERTEX
  8
0
  5
BA1
 10
0.375871
 20
6.87500
 30
0.000000
  70
    32
  0
VERTEX
  8
0
  5
BA2
 10
0.375728
 20
6.87500
 30
0.000000
  70
    32
  0
VERTEX
  8
0
  5
BA3
 10
0.375585
 20
6.87500
 30
0.000000
  70
    32
  0
VERTEX
  8
0
  5
BA4
 10
0.375442
 20
6.87499
 30
0.000000
  70
    32
  0
VERTEX
  8
0
  5
BA5
 10
0.375299
 20
6.87499
 30
0.000000
  70
    32
  0
VERTEX
  8
0
  5
BA6
 10
0.375156
 20
6.87498
 30
0.000000
  70
    32
  0
VERTEX
  8
0
  5
BA7
 10
0.375012
 20
6.87498
 30
0.000000
  70
    32
  0
VERTEX
  8
0
  5
BA8
 10
0.374869
 20
6.87497
 30
0.000000
  70
    32
  0
VERTEX
  8
0
  5
BA9
 10
0.374726
 20
6.87496
 30
0.000000
  70
    32
  0
VERTEX
  8
0
  5
BAA
 10
0.374583
 20
6.87495
 30
0.000000
  70
    32
  0
VERTEX
  8
0
  5
BAB
 10
0.374440
 20
6.87494
 30
0.000000
  70
    32
  0
VERTEX
  8
0
  5
BAC
 10
0.374297
 20
6.87493
 30
0.000000
  70
    32
  0
VERTEX
  8
0
  5
BAD
 10
0.374154
 20
6.87491
 30
0.000000
  70
    32
  0
VERTEX
  8
0
  5
BAE
 10
0.374011
 20
6.87490
 30
0.000000
  70
    32
  0
VERTEX
  8
0
  5
BAF
 10
0.373868
 20
6.87488
 30
0.000000
  70
    32
  0
VERTEX
  8
0
  5
BB0
 10
0.373725
 20
6.87487
 30
0.000000
  70
    32
  0
VERTEX
  8
0
  5
BB1
 10
0.373582
 20
6.87485
 30
0.000000
  70
    32
  0
VERTEX
  8
0
  5
BB2
 10
0.373439
 20
6.87483
 30
0.000000
  70
    32
  0
VERTEX
  8
0
  5
BB3
 10
0.373296
 20
6.87481
 30
0.000000
  70
    32
  0
VERTEX
  8
0
  5
BB4
 10
0.373154
 20
6.87479
 30
0.000000
  70
    32
  0
VERTEX
  8
0
  5
BB5
 10
0.373011
 20
6.87477
 30
0.000000
  70
    32
  0
VERTEX
  8
0
  5
BB6
 10
0.372868
 20
6.87475
 30
0.000000
  70
    32
  0
VERTEX
  8
0
  5
BB7
 10
0.372726
 20
6.87473
 30
0.000000
  70
    32
  0
VERTEX
  8
0
  5
BB8
 10
0.372583
 20
6.87470
 30
0.000000
  70
    32
  0
VERTEX
  8
0
  5
BB9
 10
0.372441
 20
6.87468
 30
0.000000
  70
    32
  0
VERTEX
  8
0
  5
BBA
 10
0.372299
 20
6.87465
 30
0.000000
  70
    32
  0
VERTEX
  8
0
  5
BBB
 10
0.372156
 20
6.87462
 30
0.000000
  70
    32
  0
VERTEX
  8
0
  5
BBC
 10
0.372014
 20
6.87459
 30
0.000000
  70
    32
  0
VERTEX
  8
0
  5
BBD
 10
0.371872
 20
6.87456
 30
0.000000
  70
    32
  0
VERTEX
  8
0
  5
BBE
 10
0.371731
 20
6.87453
 30
0.000000
  70
    32
  0
VERTEX
  8
0
  5
BBF
 10
0.371589
 20
6.87450
 30
0.000000
  70
    32
  0
VERTEX
  8
0
  5
BC0
 10
0.371447
 20
6.87447
 30
0.000000
  70
    32
  0
VERTEX
  8
0
  5
BC1
 10
0.371306
 20
6.87443
 30
0.000000
  70
    32
  0
VERTEX
  8
0
  5
BC2
 10
0.371165
 20
6.87440
 30
0.000000
  70
    32
  0
VERTEX
  8
0
  5
BC3
 10
0.371023
 20
6.87436
 30
0.000000
  70
    32
  0
VERTEX
  8
0
  5
BC4
 10
0.370882
 20
6.87432
 30
0.000000
  70
    32
  0
VERTEX
  8
0
  5
BC5
 10
0.370742
 20
6.87428
 30
0.000000
  70
    32
  0
SEQEND
  8
0
  5
BC6
  0
POLYLINE
  8
0
  5
BC7
  66
     1
 10
0.000000
 20
0.000000
 30
0.000000
  70
     8
  0
VERTEX
  8
0
  5
BC8
 10
0.395833
 20
6.85521
 30
0.000000
  70
    32
  0
VERTEX
  8
0
  5
BC9
 10
0.395833
 20
6.85535
 30
0.000000
  70
    32
  0
VERTEX
  8
0
  5
BCA
 10
0.395831
 20
6.85550
 30
0.000000
  70
    32
  0
VERTEX
  8
0
  5
BCB
 10
0.395829
 20
6.85564
 30
0.000000
  70
    32
  0
VERTEX
  8
0
  5
BCC
 10
0.395825
 20
6.85579
 30
0.000000
  70
    32
  0
VERTEX
  8
0
  5
BCD
 10
0.395820
 20
6.85594
 30
0.000000
  70
    32
  0
VERTEX
  8
0
  5
BCE
 10
0.395814
 20
6.85608
 30
0.000000
  70
    32
  0
VERTEX
  8
0
  5
BCF
 10
0.395807
 20
6.85623
 30
0.000000
  70
    32
  0
VERTEX
  8
0
  5
BD0
 10
0.395799
 20
6.85637
 30
0.000000
  70
    32
  0
VERTEX
  8
0
  5
BD1
 10
0.395790
 20
6.85652
 30
0.000000
  70
    32
  0
VERTEX
  8
0
  5
BD2
 10
0.395780
 20
6.85666
 30
0.000000
  70
    32
  0
VERTEX
  8
0
  5
BD3
 10
0.395769
 20
6.85681
 30
0.000000
  70
    32
  0
VERTEX
  8
0
  5
BD4
 10
0.395757
 20
6.85695
 30
0.000000
  70
    32
  0
VERTEX
  8
0
  5
BD5
 10
0.395743
 20
6.85709
 30
0.000000
  70
    32
  0
VERTEX
  8
0
  5
BD6
 10
0.395729
 20
6.85724
 30
0.000000
  70
    32
  0
VERTEX
  8
0
  5
BD7
 10
0.395714
 20
6.85738
 30
0.000000
  70
    32
  0
VERTEX
  8
0
  5
BD8
 10
0.395697
 20
6.85753
 30
0.000000
  70
    32
  0
VERTEX
  8
0
  5
BD9
 10
0.395680
 20
6.85767
 30
0.000000
  70
    32
  0
VERTEX
  8
0
  5
BDA
 10
0.395662
 20
6.85781
 30
0.000000
  70
    32
  0
VERTEX
  8
0
  5
BDB
 10
0.395642
 20
6.85795
 30
0.000000
  70
    32
  0
VERTEX
  8
0
  5
BDC
 10
0.395622
 20
6.85810
 30
0.000000
  70
    32
  0
VERTEX
  8
0
  5
BDD
 10
0.395600
 20
6.85824
 30
0.000000
  70
    32
  0
VERTEX
  8
0
  5
BDE
 10
0.395578
 20
6.85838
 30
0.000000
  70
    32
  0
VERTEX
  8
0
  5
BDF
 10
0.395554
 20
6.85852
 30
0.000000
  70
    32
  0
VERTEX
  8
0
  5
BE0
 10
0.395529
 20
6.85867
 30
0.000000
  70
    32
  0
VERTEX
  8
0
  5
BE1
 10
0.395504
 20
6.85881
 30
0.000000
  70
    32
  0
VERTEX
  8
0
  5
BE2
 10
0.395477
 20
6.85895
 30
0.000000
  70
    32
  0
VERTEX
  8
0
  5
BE3
 10
0.395450
 20
6.85909
 30
0.000000
  70
    32
  0
VERTEX
  8
0
  5
BE4
 10
0.395421
 20
6.85923
 30
0.000000
  70
    32
  0
VERTEX
  8
0
  5
BE5
 10
0.395391
 20
6.85937
 30
0.000000
  70
    32
  0
VERTEX
  8
0
  5
BE6
 10
0.395361
 20
6.85951
 30
0.000000
  70
    32
  0
VERTEX
  8
0
  5
BE7
 10
0.395329
 20
6.85965
 30
0.000000
  70
    32
  0
VERTEX
  8
0
  5
BE8
 10
0.395296
 20
6.85979
 30
0.000000
  70
    32
  0
VERTEX
  8
0
  5
BE9
 10
0.395263
 20
6.85993
 30
0.000000
  70
    32
  0
VERTEX
  8
0
  5
BEA
 10
0.395228
 20
6.86007
 30
0.000000
  70
    32
  0
VERTEX
  8
0
  5
BEB
 10
0.395192
 20
6.86020
 30
0.000000
  70
    32
  0
VERTEX
  8
0
  5
BEC
 10
0.395156
 20
6.86034
 30
0.000000
  70
    32
  0
VERTEX
  8
0
  5
BED
 10
0.395118
 20
6.86048
 30
0.000000
  70
    32
  0
VERTEX
  8
0
  5
BEE
 10
0.395080
 20
6.86062
 30
0.000000
  70
    32
  0
VERTEX
  8
0
  5
BEF
 10
0.395040
 20
6.86076
 30
0.000000
  70
    32
  0
VERTEX
  8
0
  5
BF0
 10
0.395000
 20
6.86089
 30
0.000000
  70
    32
  0
VERTEX
  8
0
  5
BF1
 10
0.394958
 20
6.86103
 30
0.000000
  70
    32
  0
VERTEX
  8
0
  5
BF2
 10
0.394916
 20
6.86117
 30
0.000000
  70
    32
  0
VERTEX
  8
0
  5
BF3
 10
0.394872
 20
6.86130
 30
0.000000
  70
    32
  0
VERTEX
  8
0
  5
BF4
 10
0.394828
 20
6.86144
 30
0.000000
  70
    32
  0
VERTEX
  8
0
  5
BF5
 10
0.394782
 20
6.86157
 30
0.000000
  70
    32
  0
VERTEX
  8
0
  5
BF6
 10
0.394736
 20
6.86171
 30
0.000000
  70
    32
  0
VERTEX
  8
0
  5
BF7
 10
0.394689
 20
6.86184
 30
0.000000
  70
    32
  0
VERTEX
  8
0
  5
BF8
 10
0.394640
 20
6.86198
 30
0.000000
  70
    32
  0
VERTEX
  8
0
  5
BF9
 10
0.394591
 20
6.86211
 30
0.000000
  70
    32
  0
VERTEX
  8
0
  5
BFA
 10
0.394541
 20
6.86224
 30
0.000000
  70
    32
  0
VERTEX
  8
0
  5
BFB
 10
0.394490
 20
6.86238
 30
0.000000
  70
    32
  0
VERTEX
  8
0
  5
BFC
 10
0.394438
 20
6.86251
 30
0.000000
  70
    32
  0
VERTEX
  8
0
  5
BFD
 10
0.394385
 20
6.86264
 30
0.000000
  70
    32
  0
VERTEX
  8
0
  5
BFE
 10
0.394331
 20
6.86277
 30
0.000000
  70
    32
  0
VERTEX
  8
0
  5
BFF
 10
0.394276
 20
6.86290
 30
0.000000
  70
    32
  0
VERTEX
  8
0
  5
C00
 10
0.394220
 20
6.86303
 30
0.000000
  70
    32
  0
VERTEX
  8
0
  5
C01
 10
0.394163
 20
6.86316
 30
0.000000
  70
    32
  0
VERTEX
  8
0
  5
C02
 10
0.394106
 20
6.86329
 30
0.000000
  70
    32
  0
VERTEX
  8
0
  5
C03
 10
0.394047
 20
6.86342
 30
0.000000
  70
    32
  0
VERTEX
  8
0
  5
C04
 10
0.393987
 20
6.86355
 30
0.000000
  70
    32
  0
VERTEX
  8
0
  5
C05
 10
0.393927
 20
6.86368
 30
0.000000
  70
    32
  0
VERTEX
  8
0
  5
C06
 10
0.393865
 20
6.86381
 30
0.000000
  70
    32
  0
VERTEX
  8
0
  5
C07
 10
0.393803
 20
6.86394
 30
0.000000
  70
    32
  0
VERTEX
  8
0
  5
C08
 10
0.393740
 20
6.86407
 30
0.000000
  70
    32
  0
VERTEX
  8
0
  5
C09
 10
0.393676
 20
6.86419
 30
0.000000
  70
    32
  0
VERTEX
  8
0
  5
C0A
 10
0.393611
 20
6.86432
 30
0.000000
  70
    32
  0
VERTEX
  8
0
  5
C0B
 10
0.393545
 20
6.86444
 30
0.000000
  70
    32
  0
VERTEX
  8
0
  5
C0C
 10
0.393478
 20
6.86457
 30
0.000000
  70
    32
  0
VERTEX
  8
0
  5
C0D
 10
0.393410
 20
6.86470
 30
0.000000
  70
    32
  0
VERTEX
  8
0
  5
C0E
 10
0.393341
 20
6.86482
 30
0.000000
  70
    32
  0
VERTEX
  8
0
  5
C0F
 10
0.393272
 20
6.86494
 30
0.000000
  70
    32
  0
VERTEX
  8
0
  5
C10
 10
0.393201
 20
6.86507
 30
0.000000
  70
    32
  0
VERTEX
  8
0
  5
C11
 10
0.393130
 20
6.86519
 30
0.000000
  70
    32
  0
VERTEX
  8
0
  5
C12
 10
0.393057
 20
6.86531
 30
0.000000
  70
    32
  0
VERTEX
  8
0
  5
C13
 10
0.392984
 20
6.86544
 30
0.000000
  70
    32
  0
VERTEX
  8
0
  5
C14
 10
0.392910
 20
6.86556
 30
0.000000
  70
    32
  0
VERTEX
  8
0
  5
C15
 10
0.392835
 20
6.86568
 30
0.000000
  70
    32
  0
VERTEX
  8
0
  5
C16
 10
0.392759
 20
6.86580
 30
0.000000
  70
    32
  0
VERTEX
  8
0
  5
C17
 10
0.392683
 20
6.86592
 30
0.000000
  70
    32
  0
VERTEX
  8
0
  5
C18
 10
0.392605
 20
6.86604
 30
0.000000
  70
    32
  0
VERTEX
  8
0
  5
C19
 10
0.392526
 20
6.86616
 30
0.000000
  70
    32
  0
VERTEX
  8
0
  5
C1A
 10
0.392447
 20
6.86628
 30
0.000000
  70
    32
  0
VERTEX
  8
0
  5
C1B
 10
0.392367
 20
6.86639
 30
0.000000
  70
    32
  0
VERTEX
  8
0
  5
C1C
 10
0.392286
 20
6.86651
 30
0.000000
  70
    32
  0
VERTEX
  8
0
  5
C1D
 10
0.392204
 20
6.86663
 30
0.000000
  70
    32
  0
VERTEX
  8
0
  5
C1E
 10
0.392121
 20
6.86674
 30
0.000000
  70
    32
  0
VERTEX
  8
0
  5
C1F
 10
0.392037
 20
6.86686
 30
0.000000
  70
    32
  0
VERTEX
  8
0
  5
C20
 10
0.391953
 20
6.86697
 30
0.000000
  70
    32
  0
VERTEX
  8
0
  5
C21
 10
0.391867
 20
6.86709
 30
0.000000
  70
    32
  0
VERTEX
  8
0
  5
C22
 10
0.391781
 20
6.86720
 30
0.000000
  70
    32
  0
VERTEX
  8
0
  5
C23
 10
0.391694
 20
6.86732
 30
0.000000
  70
    32
  0
VERTEX
  8
0
  5
C24
 10
0.391606
 20
6.86743
 30
0.000000
  70
    32
  0
VERTEX
  8
0
  5
C25
 10
0.391517
 20
6.86754
 30
0.000000
  70
    32
  0
VERTEX
  8
0
  5
C26
 10
0.391428
 20
6.86765
 30
0.000000
  70
    32
  0
VERTEX
  8
0
  5
C27
 10
0.391337
 20
6.86776
 30
0.000000
  70
    32
  0
VERTEX
  8
0
  5
C28
 10
0.391246
 20
6.86787
 30
0.000000
  70
    32
  0
VERTEX
  8
0
  5
C29
 10
0.391154
 20
6.86798
 30
0.000000
  70
    32
  0
VERTEX
  8
0
  5
C2A
 10
0.391061
 20
6.86809
 30
0.000000
  70
    32
  0
VERTEX
  8
0
  5
C2B
 10
0.390967
 20
6.86820
 30
0.000000
  70
    32
  0
VERTEX
  8
0
  5
C2C
 10
0.390872
 20
6.86831
 30
0.000000
  70
    32
  0
VERTEX
  8
0
  5
C2D
 10
0.390777
 20
6.86841
 30
0.000000
  70
    32
  0
VERTEX
  8
0
  5
C2E
 10
0.390680
 20
6.86852
 30
0.000000
  70
    32
  0
VERTEX
  8
0
  5
C2F
 10
0.390583
 20
6.86863
 30
0.000000
  70
    32
  0
VERTEX
  8
0
  5
C30
 10
0.390485
 20
6.86873
 30
0.000000
  70
    32
  0
VERTEX
  8
0
  5
C31
 10
0.390387
 20
6.86884
 30
0.000000
  70
    32
  0
VERTEX
  8
0
  5
C32
 10
0.390287
 20
6.86894
 30
0.000000
  70
    32
  0
VERTEX
  8
0
  5
C33
 10
0.390187
 20
6.86904
 30
0.000000
  70
    32
  0
VERTEX
  8
0
  5
C34
 10
0.390085
 20
6.86915
 30
0.000000
  70
    32
  0
VERTEX
  8
0
  5
C35
 10
0.389983
 20
6.86925
 30
0.000000
  70
    32
  0
VERTEX
  8
0
  5
C36
 10
0.389881
 20
6.86935
 30
0.000000
  70
    32
  0
VERTEX
  8
0
  5
C37
 10
0.389777
 20
6.86945
 30
0.000000
  70
    32
  0
VERTEX
  8
0
  5
C38
 10
0.389673
 20
6.86955
 30
0.000000
  70
    32
  0
VERTEX
  8
0
  5
C39
 10
0.389567
 20
6.86965
 30
0.000000
  70
    32
  0
VERTEX
  8
0
  5
C3A
 10
0.389461
 20
6.86975
 30
0.000000
  70
    32
  0
VERTEX
  8
0
  5
C3B
 10
0.389355
 20
6.86984
 30
0.000000
  70
    32
  0
VERTEX
  8
0
  5
C3C
 10
0.389247
 20
6.86994
 30
0.000000
  70
    32
  0
VERTEX
  8
0
  5
C3D
 10
0.389139
 20
6.87004
 30
0.000000
  70
    32
  0
VERTEX
  8
0
  5
C3E
 10
0.389030
 20
6.87013
 30
0.000000
  70
    32
  0
VERTEX
  8
0
  5
C3F
 10
0.388920
 20
6.87023
 30
0.000000
  70
    32
  0
VERTEX
  8
0
  5
C40
 10
0.388809
 20
6.87032
 30
0.000000
  70
    32
  0
VERTEX
  8
0
  5
C41
 10
0.388698
 20
6.87041
 30
0.000000
  70
    32
  0
VERTEX
  8
0
  5
C42
 10
0.388585
 20
6.87051
 30
0.000000
  70
    32
  0
VERTEX
  8
0
  5
C43
 10
0.388472
 20
6.87060
 30
0.000000
  70
    32
  0
VERTEX
  8
0
  5
C44
 10
0.388359
 20
6.87069
 30
0.000000
  70
    32
  0
VERTEX
  8
0
  5
C45
 10
0.388244
 20
6.87078
 30
0.000000
  70
    32
  0
VERTEX
  8
0
  5
C46
 10
0.388129
 20
6.87087
 30
0.000000
  70
    32
  0
VERTEX
  8
0
  5
C47
 10
0.388013
 20
6.87096
 30
0.000000
  70
    32
  0
SEQEND
  8
0
  5
C48
  0
POLYLINE
  8
0
  5
C49
  66
     1
 10
0.000000
 20
0.000000
 30
0.000000
  70
     8
  0
VERTEX
  8
0
  5
C4A
 10
1.16771
 20
5.00625
 30
0.000000
  70
    32
  0
VERTEX
  8
0
  5
C4B
 10
1.16796
 20
5.00625
 30
0.000000
  70
    32
  0
VERTEX
  8
0
  5
C4C
 10
1.16822
 20
5.00626
 30
0.000000
  70
    32
  0
VERTEX
  8
0
  5
C4D
 10
1.16848
 20
5.00627
 30
0.000000
  70
    32
  0
VERTEX
  8
0
  5
C4E
 10
1.16873
 20
5.00628
 30
0.000000
  70
    32
  0
VERTEX
  8
0
  5
C4F
 10
1.16899
 20
5.00629
 30
0.000000
  70
    32
  0
VERTEX
  8
0
  5
C50
 10
1.16924
 20
5.00631
 30
0.000000
  70
    32
  0
VERTEX
  8
0
  5
C51
 10
1.16949
 20
5.00633
 30
0.000000
  70
    32
  0
VERTEX
  8
0
  5
C52
 10
1.16975
 20
5.00635
 30
0.000000
  70
    32
  0
VERTEX
  8
0
  5
C53
 10
1.17000
 20
5.00638
 30
0.000000
  70
    32
  0
VERTEX
  8
0
  5
C54
 10
1.17025
 20
5.00641
 30
0.000000
  70
    32
  0
VERTEX
  8
0
  5
C55
 10
1.17050
 20
5.00645
 30
0.000000
  70
    32
  0
VERTEX
  8
0
  5
C56
 10
1.17074
 20
5.00648
 30
0.000000
  70
    32
  0
VERTEX
  8
0
  5
C57
 10
1.17099
 20
5.00652
 30
0.000000
  70
    32
  0
VERTEX
  8
0
  5
C58
 10
1.17124
 20
5.00656
 30
0.000000
  70
    32
  0
VERTEX
  8
0
  5
C59
 10
1.17148
 20
5.00661
 30
0.000000
  70
    32
  0
VERTEX
  8
0
  5
C5A
 10
1.17173
 20
5.00666
 30
0.000000
  70
    32
  0
VERTEX
  8
0
  5
C5B
 10
1.17197
 20
5.00671
 30
0.000000
  70
    32
  0
VERTEX
  8
0
  5
C5C
 10
1.17221
 20
5.00677
 30
0.000000
  70
    32
  0
VERTEX
  8
0
  5
C5D
 10
1.17245
 20
5.00682
 30
0.000000
  70
    32
  0
VERTEX
  8
0
  5
C5E
 10
1.17269
 20
5.00688
 30
0.000000
  70
    32
  0
VERTEX
  8
0
  5
C5F
 10
1.17293
 20
5.00695
 30
0.000000
  70
    32
  0
VERTEX
  8
0
  5
C60
 10
1.17317
 20
5.00701
 30
0.000000
  70
    32
  0
VERTEX
  8
0
  5
C61
 10
1.17340
 20
5.00708
 30
0.000000
  70
    32
  0
VERTEX
  8
0
  5
C62
 10
1.17364
 20
5.00715
 30
0.000000
  70
    32
  0
VERTEX
  8
0
  5
C63
 10
1.17387
 20
5.00723
 30
0.000000
  70
    32
  0
VERTEX
  8
0
  5
C64
 10
1.17410
 20
5.00731
 30
0.000000
  70
    32
  0
VERTEX
  8
0
  5
C65
 10
1.17433
 20
5.00739
 30
0.000000
  70
    32
  0
VERTEX
  8
0
  5
C66
 10
1.17456
 20
5.00747
 30
0.000000
  70
    32
  0
VERTEX
  8
0
  5
C67
 10
1.17479
 20
5.00756
 30
0.000000
  70
    32
  0
VERTEX
  8
0
  5
C68
 10
1.17502
 20
5.00765
 30
0.000000
  70
    32
  0
VERTEX
  8
0
  5
C69
 10
1.17524
 20
5.00774
 30
0.000000
  70
    32
  0
VERTEX
  8
0
  5
C6A
 10
1.17547
 20
5.00783
 30
0.000000
  70
    32
  0
VERTEX
  8
0
  5
C6B
 10
1.17569
 20
5.00793
 30
0.000000
  70
    32
  0
VERTEX
  8
0
  5
C6C
 10
1.17591
 20
5.00803
 30
0.000000
  70
    32
  0
VERTEX
  8
0
  5
C6D
 10
1.17613
 20
5.00813
 30
0.000000
  70
    32
  0
VERTEX
  8
0
  5
C6E
 10
1.17635
 20
5.00823
 30
0.000000
  70
    32
  0
VERTEX
  8
0
  5
C6F
 10
1.17657
 20
5.00834
 30
0.000000
  70
    32
  0
VERTEX
  8
0
  5
C70
 10
1.17678
 20
5.00845
 30
0.000000
  70
    32
  0
VERTEX
  8
0
  5
C71
 10
1.17700
 20
5.00856
 30
0.000000
  70
    32
  0
VERTEX
  8
0
  5
C72
 10
1.17721
 20
5.00868
 30
0.000000
  70
    32
  0
VERTEX
  8
0
  5
C73
 10
1.17742
 20
5.00879
 30
0.000000
  70
    32
  0
VERTEX
  8
0
  5
C74
 10
1.17763
 20
5.00891
 30
0.000000
  70
    32
  0
VERTEX
  8
0
  5
C75
 10
1.17784
 20
5.00904
 30
0.000000
  70
    32
  0
VERTEX
  8
0
  5
C76
 10
1.17804
 20
5.00916
 30
0.000000
  70
    32
  0
VERTEX
  8
0
  5
C77
 10
1.17825
 20
5.00929
 30
0.000000
  70
    32
  0
VERTEX
  8
0
  5
C78
 10
1.17845
 20
5.00942
 30
0.000000
  70
    32
  0
VERTEX
  8
0
  5
C79
 10
1.17865
 20
5.00955
 30
0.000000
  70
    32
  0
VERTEX
  8
0
  5
C7A
 10
1.17885
 20
5.00968
 30
0.000000
  70
    32
  0
VERTEX
  8
0
  5
C7B
 10
1.17905
 20
5.00982
 30
0.000000
  70
    32
  0
VERTEX
  8
0
  5
C7C
 10
1.17924
 20
5.00996
 30
0.000000
  70
    32
  0
VERTEX
  8
0
  5
C7D
 10
1.17943
 20
5.01010
 30
0.000000
  70
    32
  0
VERTEX
  8
0
  5
C7E
 10
1.17963
 20
5.01024
 30
0.000000
  70
    32
  0
VERTEX
  8
0
  5
C7F
 10
1.17982
 20
5.01039
 30
0.000000
  70
    32
  0
VERTEX
  8
0
  5
C80
 10
1.18001
 20
5.01054
 30
0.000000
  70
    32
  0
VERTEX
  8
0
  5
C81
 10
1.18019
 20
5.01069
 30
0.000000
  70
    32
  0
VERTEX
  8
0
  5
C82
 10
1.18038
 20
5.01084
 30
0.000000
  70
    32
  0
VERTEX
  8
0
  5
C83
 10
1.18056
 20
5.01099
 30
0.000000
  70
    32
  0
VERTEX
  8
0
  5
C84
 10
1.18074
 20
5.01115
 30
0.000000
  70
    32
  0
VERTEX
  8
0
  5
C85
 10
1.18092
 20
5.01131
 30
0.000000
  70
    32
  0
VERTEX
  8
0
  5
C86
 10
1.18110
 20
5.01147
 30
0.000000
  70
    32
  0
VERTEX
  8
0
  5
C87
 10
1.18127
 20
5.01163
 30
0.000000
  70
    32
  0
VERTEX
  8
0
  5
C88
 10
1.18145
 20
5.01180
 30
0.000000
  70
    32
  0
VERTEX
  8
0
  5
C89
 10
1.18162
 20
5.01197
 30
0.000000
  70
    32
  0
VERTEX
  8
0
  5
C8A
 10
1.18179
 20
5.01214
 30
0.000000
  70
    32
  0
VERTEX
  8
0
  5
C8B
 10
1.18195
 20
5.01231
 30
0.000000
  70
    32
  0
VERTEX
  8
0
  5
C8C
 10
1.18212
 20
5.01248
 30
0.000000
  70
    32
  0
VERTEX
  8
0
  5
C8D
 10
1.18228
 20
5.01265
 30
0.000000
  70
    32
  0
VERTEX
  8
0
  5
C8E
 10
1.18244
 20
5.01283
 30
0.000000
  70
    32
  0
VERTEX
  8
0
  5
C8F
 10
1.18260
 20
5.01301
 30
0.000000
  70
    32
  0
VERTEX
  8
0
  5
C90
 10
1.18276
 20
5.01319
 30
0.000000
  70
    32
  0
VERTEX
  8
0
  5
C91
 10
1.18291
 20
5.01338
 30
0.000000
  70
    32
  0
VERTEX
  8
0
  5
C92
 10
1.18306
 20
5.01356
 30
0.000000
  70
    32
  0
VERTEX
  8
0
  5
C93
 10
1.18321
 20
5.01375
 30
0.000000
  70
    32
  0
VERTEX
  8
0
  5
C94
 10
1.18336
 20
5.01394
 30
0.000000
  70
    32
  0
VERTEX
  8
0
  5
C95
 10
1.18351
 20
5.01413
 30
0.000000
  70
    32
  0
VERTEX
  8
0
  5
C96
 10
1.18365
 20
5.01432
 30
0.000000
  70
    32
  0
VERTEX
  8
0
  5
C97
 10
1.18379
 20
5.01451
 30
0.000000
  70
    32
  0
VERTEX
  8
0
  5
C98
 10
1.18393
 20
5.01471
 30
0.000000
  70
    32
  0
VERTEX
  8
0
  5
C99
 10
1.18407
 20
5.01490
 30
0.000000
  70
    32
  0
VERTEX
  8
0
  5
C9A
 10
1.18420
 20
5.01510
 30
0.000000
  70
    32
  0
VERTEX
  8
0
  5
C9B
 10
1.18433
 20
5.01530
 30
0.000000
  70
    32
  0
VERTEX
  8
0
  5
C9C
 10
1.18446
 20
5.01551
 30
0.000000
  70
    32
  0
VERTEX
  8
0
  5
C9D
 10
1.18459
 20
5.01571
 30
0.000000
  70
    32
  0
VERTEX
  8
0
  5
C9E
 10
1.18471
 20
5.01592
 30
0.000000
  70
    32
  0
VERTEX
  8
0
  5
C9F
 10
1.18483
 20
5.01613
 30
0.000000
  70
    32
  0
VERTEX
  8
0
  5
CA0
 10
1.18495
 20
5.01633
 30
0.000000
  70
    32
  0
VERTEX
  8
0
  5
CA1
 10
1.18507
 20
5.01654
 30
0.000000
  70
    32
  0
VERTEX
  8
0
  5
CA2
 10
1.18519
 20
5.01676
 30
0.000000
  70
    32
  0
VERTEX
  8
0
  5
CA3
 10
1.18530
 20
5.01697
 30
0.000000
  70
    32
  0
VERTEX
  8
0
  5
CA4
 10
1.18541
 20
5.01719
 30
0.000000
  70
    32
  0
VERTEX
  8
0
  5
CA5
 10
1.18551
 20
5.01740
 30
0.000000
  70
    32
  0
VERTEX
  8
0
  5
CA6
 10
1.18562
 20
5.01762
 30
0.000000
  70
    32
  0
VERTEX
  8
0
  5
CA7
 10
1.18572
 20
5.01784
 30
0.000000
  70
    32
  0
VERTEX
  8
0
  5
CA8
 10
1.18582
 20
5.01806
 30
0.000000
  70
    32
  0
VERTEX
  8
0
  5
CA9
 10
1.18592
 20
5.01828
 30
0.000000
  70
    32
  0
VERTEX
  8
0
  5
CAA
 10
1.18601
 20
5.01851
 30
0.000000
  70
    32
  0
VERTEX
  8
0
  5
CAB
 10
1.18610
 20
5.01873
 30
0.000000
  70
    32
  0
VERTEX
  8
0
  5
CAC
 10
1.18619
 20
5.01896
 30
0.000000
  70
    32
  0
VERTEX
  8
0
  5
CAD
 10
1.18628
 20
5.01919
 30
0.000000
  70
    32
  0
VERTEX
  8
0
  5
CAE
 10
1.18636
 20
5.01942
 30
0.000000
  70
    32
  0
VERTEX
  8
0
  5
CAF
 10
1.18644
 20
5.01965
 30
0.000000
  70
    32
  0
VERTEX
  8
0
  5
CB0
 10
1.18652
 20
5.01988
 30
0.000000
  70
    32
  0
VERTEX
  8
0
  5
CB1
 10
1.18659
 20
5.02011
 30
0.000000
  70
    32
  0
VERTEX
  8
0
  5
CB2
 10
1.18666
 20
5.02035
 30
0.000000
  70
    32
  0
VERTEX
  8
0
  5
CB3
 10
1.18673
 20
5.02058
 30
0.000000
  70
    32
  0
VERTEX
  8
0
  5
CB4
 10
1.18680
 20
5.02082
 30
0.000000
  70
    32
  0
VERTEX
  8
0
  5
CB5
 10
1.18686
 20
5.02106
 30
0.000000
  70
    32
  0
VERTEX
  8
0
  5
CB6
 10
1.18692
 20
5.02130
 30
0.000000
  70
    32
  0
VERTEX
  8
0
  5
CB7
 10
1.18698
 20
5.02154
 30
0.000000
  70
    32
  0
VERTEX
  8
0
  5
CB8
 10
1.18703
 20
5.02178
 30
0.000000
  70
    32
  0
VERTEX
  8
0
  5
CB9
 10
1.18709
 20
5.02202
 30
0.000000
  70
    32
  0
VERTEX
  8
0
  5
CBA
 10
1.18713
 20
5.02227
 30
0.000000
  70
    32
  0
VERTEX
  8
0
  5
CBB
 10
1.18718
 20
5.02251
 30
0.000000
  70
    32
  0
VERTEX
  8
0
  5
CBC
 10
1.18722
 20
5.02276
 30
0.000000
  70
    32
  0
VERTEX
  8
0
  5
CBD
 10
1.18726
 20
5.02300
 30
0.000000
  70
    32
  0
VERTEX
  8
0
  5
CBE
 10
1.18730
 20
5.02325
 30
0.000000
  70
    32
  0
VERTEX
  8
0
  5
CBF
 10
1.18733
 20
5.02350
 30
0.000000
  70
    32
  0
VERTEX
  8
0
  5
CC0
 10
1.18736
 20
5.02375
 30
0.000000
  70
    32
  0
VERTEX
  8
0
  5
CC1
 10
1.18739
 20
5.02400
 30
0.000000
  70
    32
  0
VERTEX
  8
0
  5
CC2
 10
1.18741
 20
5.02425
 30
0.000000
  70
    32
  0
VERTEX
  8
0
  5
CC3
 10
1.18743
 20
5.02450
 30
0.000000
  70
    32
  0
VERTEX
  8
0
  5
CC4
 10
1.18745
 20
5.02476
 30
0.000000
  70
    32
  0
VERTEX
  8
0
  5
CC5
 10
1.18747
 20
5.02501
 30
0.000000
  70
    32
  0
VERTEX
  8
0
  5
CC6
 10
1.18748
 20
5.02527
 30
0.000000
  70
    32
  0
VERTEX
  8
0
  5
CC7
 10
1.18749
 20
5.02552
 30
0.000000
  70
    32
  0
VERTEX
  8
0
  5
CC8
 10
1.18749
 20
5.02578
 30
0.000000
  70
    32
  0
VERTEX
  8
0
  5
CC9
 10
1.18749
 20
5.02604
 30
0.000000
  70
    32
  0
SEQEND
  8
0
  5
CCA
  0
POLYLINE
  8
0
  5
CCB
  66
     1
 10
0.000000
 20
0.000000
 30
0.000000
  70
     8
  0
VERTEX
  8
0
  5
CCC
 10
1.18750
 20
5.10521
 30
0.000000
  70
    32
  0
VERTEX
  8
0
  5
CCD
 10
1.18750
 20
5.10547
 30
0.000000
  70
    32
  0
VERTEX
  8
0
  5
CCE
 10
1.18749
 20
5.10573
 30
0.000000
  70
    32
  0
VERTEX
  8
0
  5
CCF
 10
1.18749
 20
5.10598
 30
0.000000
  70
    32
  0
VERTEX
  8
0
  5
CD0
 10
1.18747
 20
5.10624
 30
0.000000
  70
    32
  0
VERTEX
  8
0
  5
CD1
 10
1.18746
 20
5.10649
 30
0.000000
  70
    32
  0
VERTEX
  8
0
  5
CD2
 10
1.18744
 20
5.10675
 30
0.000000
  70
    32
  0
VERTEX
  8
0
  5
CD3
 10
1.18742
 20
5.10700
 30
0.000000
  70
    32
  0
VERTEX
  8
0
  5
CD4
 10
1.18740
 20
5.10725
 30
0.000000
  70
    32
  0
VERTEX
  8
0
  5
CD5
 10
1.18737
 20
5.10750
 30
0.000000
  70
    32
  0
VERTEX
  8
0
  5
CD6
 10
1.18734
 20
5.10775
 30
0.000000
  70
    32
  0
VERTEX
  8
0
  5
CD7
 10
1.18730
 20
5.10800
 30
0.000000
  70
    32
  0
VERTEX
  8
0
  5
CD8
 10
1.18727
 20
5.10825
 30
0.000000
  70
    32
  0
VERTEX
  8
0
  5
CD9
 10
1.18723
 20
5.10850
 30
0.000000
  70
    32
  0
VERTEX
  8
0
  5
CDA
 10
1.18719
 20
5.10874
 30
0.000000
  70
    32
  0
VERTEX
  8
0
  5
CDB
 10
1.18714
 20
5.10899
 30
0.000000
  70
    32
  0
VERTEX
  8
0
  5
CDC
 10
1.18709
 20
5.10923
 30
0.000000
  70
    32
  0
VERTEX
  8
0
  5
CDD
 10
1.18704
 20
5.10947
 30
0.000000
  70
    32
  0
VERTEX
  8
0
  5
CDE
 10
1.18698
 20
5.10972
 30
0.000000
  70
    32
  0
VERTEX
  8
0
  5
CDF
 10
1.18693
 20
5.10996
 30
0.000000
  70
    32
  0
VERTEX
  8
0
  5
CE0
 10
1.18687
 20
5.11020
 30
0.000000
  70
    32
  0
VERTEX
  8
0
  5
CE1
 10
1.18680
 20
5.11043
 30
0.000000
  70
    32
  0
VERTEX
  8
0
  5
CE2
 10
1.18674
 20
5.11067
 30
0.000000
  70
    32
  0
VERTEX
  8
0
  5
CE3
 10
1.18667
 20
5.11091
 30
0.000000
  70
    32
  0
VERTEX
  8
0
  5
CE4
 10
1.18660
 20
5.11114
 30
0.000000
  70
    32
  0
VERTEX
  8
0
  5
CE5
 10
1.18652
 20
5.11137
 30
0.000000
  70
    32
  0
VERTEX
  8
0
  5
CE6
 10
1.18644
 20
5.11161
 30
0.000000
  70
    32
  0
VERTEX
  8
0
  5
CE7
 10
1.18636
 20
5.11184
 30
0.000000
  70
    32
  0
VERTEX
  8
0
  5
CE8
 10
1.18628
 20
5.11207
 30
0.000000
  70
    32
  0
VERTEX
  8
0
  5
CE9
 10
1.18619
 20
5.11230
 30
0.000000
  70
    32
  0
VERTEX
  8
0
  5
CEA
 10
1.18611
 20
5.11252
 30
0.000000
  70
    32
  0
VERTEX
  8
0
  5
CEB
 10
1.18601
 20
5.11275
 30
0.000000
  70
    32
  0
VERTEX
  8
0
  5
CEC
 10
1.18592
 20
5.11297
 30
0.000000
  70
    32
  0
VERTEX
  8
0
  5
CED
 10
1.18582
 20
5.11319
 30
0.000000
  70
    32
  0
VERTEX
  8
0
  5
CEE
 10
1.18572
 20
5.11342
 30
0.000000
  70
    32
  0
VERTEX
  8
0
  5
CEF
 10
1.18562
 20
5.11364
 30
0.000000
  70
    32
  0
VERTEX
  8
0
  5
CF0
 10
1.18552
 20
5.11385
 30
0.000000
  70
    32
  0
VERTEX
  8
0
  5
CF1
 10
1.18541
 20
5.11407
 30
0.000000
  70
    32
  0
VERTEX
  8
0
  5
CF2
 10
1.18530
 20
5.11429
 30
0.000000
  70
    32
  0
VERTEX
  8
0
  5
CF3
 10
1.18519
 20
5.11450
 30
0.000000
  70
    32
  0
VERTEX
  8
0
  5
CF4
 10
1.18507
 20
5.11471
 30
0.000000
  70
    32
  0
VERTEX
  8
0
  5
CF5
 10
1.18496
 20
5.11492
 30
0.000000
  70
    32
  0
VERTEX
  8
0
  5
CF6
 10
1.18484
 20
5.11513
 30
0.000000
  70
    32
  0
VERTEX
  8
0
  5
CF7
 10
1.18471
 20
5.11534
 30
0.000000
  70
    32
  0
VERTEX
  8
0
  5
CF8
 10
1.18459
 20
5.11554
 30
0.000000
  70
    32
  0
VERTEX
  8
0
  5
CF9
 10
1.18446
 20
5.11575
 30
0.000000
  70
    32
  0
VERTEX
  8
0
  5
CFA
 10
1.18433
 20
5.11595
 30
0.000000
  70
    32
  0
VERTEX
  8
0
  5
CFB
 10
1.18420
 20
5.11615
 30
0.000000
  70
    32
  0
VERTEX
  8
0
  5
CFC
 10
1.18407
 20
5.11635
 30
0.000000
  70
    32
  0
VERTEX
  8
0
  5
CFD
 10
1.18393
 20
5.11655
 30
0.000000
  70
    32
  0
VERTEX
  8
0
  5
CFE
 10
1.18379
 20
5.11674
 30
0.000000
  70
    32
  0
VERTEX
  8
0
  5
CFF
 10
1.18365
 20
5.11694
 30
0.000000
  70
    32
  0
VERTEX
  8
0
  5
D00
 10
1.18351
 20
5.11713
 30
0.000000
  70
    32
  0
VERTEX
  8
0
  5
D01
 10
1.18336
 20
5.11732
 30
0.000000
  70
    32
  0
VERTEX
  8
0
  5
D02
 10
1.18321
 20
5.11751
 30
0.000000
  70
    32
  0
VERTEX
  8
0
  5
D03
 10
1.18306
 20
5.11770
 30
0.000000
  70
    32
  0
VERTEX
  8
0
  5
D04
 10
1.18291
 20
5.11788
 30
0.000000
  70
    32
  0
VERTEX
  8
0
  5
D05
 10
1.18276
 20
5.11806
 30
0.000000
  70
    32
  0
VERTEX
  8
0
  5
D06
 10
1.18260
 20
5.11824
 30
0.000000
  70
    32
  0
VERTEX
  8
0
  5
D07
 10
1.18244
 20
5.11842
 30
0.000000
  70
    32
  0
VERTEX
  8
0
  5
D08
 10
1.18228
 20
5.11860
 30
0.000000
  70
    32
  0
VERTEX
  8
0
  5
D09
 10
1.18212
 20
5.11878
 30
0.000000
  70
    32
  0
VERTEX
  8
0
  5
D0A
 10
1.18195
 20
5.11895
 30
0.000000
  70
    32
  0
VERTEX
  8
0
  5
D0B
 10
1.18178
 20
5.11912
 30
0.000000
  70
    32
  0
VERTEX
  8
0
  5
D0C
 10
1.18162
 20
5.11929
 30
0.000000
  70
    32
  0
VERTEX
  8
0
  5
D0D
 10
1.18144
 20
5.11946
 30
0.000000
  70
    32
  0
VERTEX
  8
0
  5
D0E
 10
1.18127
 20
5.11962
 30
0.000000
  70
    32
  0
VERTEX
  8
0
  5
D0F
 10
1.18110
 20
5.11978
 30
0.000000
  70
    32
  0
VERTEX
  8
0
  5
D10
 10
1.18092
 20
5.11995
 30
0.000000
  70
    32
  0
VERTEX
  8
0
  5
D11
 10
1.18074
 20
5.12010
 30
0.000000
  70
    32
  0
VERTEX
  8
0
  5
D12
 10
1.18056
 20
5.12026
 30
0.000000
  70
    32
  0
VERTEX
  8
0
  5
D13
 10
1.18038
 20
5.12042
 30
0.000000
  70
    32
  0
VERTEX
  8
0
  5
D14
 10
1.18019
 20
5.12057
 30
0.000000
  70
    32
  0
VERTEX
  8
0
  5
D15
 10
1.18000
 20
5.12072
 30
0.000000
  70
    32
  0
VERTEX
  8
0
  5
D16
 10
1.17982
 20
5.12087
 30
0.000000
  70
    32
  0
VERTEX
  8
0
  5
D17
 10
1.17962
 20
5.12101
 30
0.000000
  70
    32
  0
VERTEX
  8
0
  5
D18
 10
1.17943
 20
5.12115
 30
0.000000
  70
    32
  0
VERTEX
  8
0
  5
D19
 10
1.17924
 20
5.12130
 30
0.000000
  70
    32
  0
VERTEX
  8
0
  5
D1A
 10
1.17904
 20
5.12143
 30
0.000000
  70
    32
  0
VERTEX
  8
0
  5
D1B
 10
1.17885
 20
5.12157
 30
0.000000
  70
    32
  0
VERTEX
  8
0
  5
D1C
 10
1.17865
 20
5.12170
 30
0.000000
  70
    32
  0
VERTEX
  8
0
  5
D1D
 10
1.17845
 20
5.12184
 30
0.000000
  70
    32
  0
VERTEX
  8
0
  5
D1E
 10
1.17824
 20
5.12197
 30
0.000000
  70
    32
  0
VERTEX
  8
0
  5
D1F
 10
1.17804
 20
5.12209
 30
0.000000
  70
    32
  0
VERTEX
  8
0
  5
D20
 10
1.17783
 20
5.12222
 30
0.000000
  70
    32
  0
VERTEX
  8
0
  5
D21
 10
1.17763
 20
5.12234
 30
0.000000
  70
    32
  0
VERTEX
  8
0
  5
D22
 10
1.17742
 20
5.12246
 30
0.000000
  70
    32
  0
VERTEX
  8
0
  5
D23
 10
1.17721
 20
5.12258
 30
0.000000
  70
    32
  0
VERTEX
  8
0
  5
D24
 10
1.17699
 20
5.12269
 30
0.000000
  70
    32
  0
VERTEX
  8
0
  5
D25
 10
1.17678
 20
5.12280
 30
0.000000
  70
    32
  0
VERTEX
  8
0
  5
D26
 10
1.17656
 20
5.12291
 30
0.000000
  70
    32
  0
VERTEX
  8
0
  5
D27
 10
1.17635
 20
5.12302
 30
0.000000
  70
    32
  0
VERTEX
  8
0
  5
D28
 10
1.17613
 20
5.12312
 30
0.000000
  70
    32
  0
VERTEX
  8
0
  5
D29
 10
1.17591
 20
5.12323
 30
0.000000
  70
    32
  0
VERTEX
  8
0
  5
D2A
 10
1.17569
 20
5.12332
 30
0.000000
  70
    32
  0
VERTEX
  8
0
  5
D2B
 10
1.17547
 20
5.12342
 30
0.000000
  70
    32
  0
VERTEX
  8
0
  5
D2C
 10
1.17524
 20
5.12352
 30
0.000000
  70
    32
  0
VERTEX
  8
0
  5
D2D
 10
1.17502
 20
5.12361
 30
0.000000
  70
    32
  0
VERTEX
  8
0
  5
D2E
 10
1.17479
 20
5.12370
 30
0.000000
  70
    32
  0
VERTEX
  8
0
  5
D2F
 10
1.17456
 20
5.12378
 30
0.000000
  70
    32
  0
VERTEX
  8
0
  5
D30
 10
1.17433
 20
5.12386
 30
0.000000
  70
    32
  0
VERTEX
  8
0
  5
D31
 10
1.17410
 20
5.12394
 30
0.000000
  70
    32
  0
VERTEX
  8
0
  5
D32
 10
1.17387
 20
5.12402
 30
0.000000
  70
    32
  0
VERTEX
  8
0
  5
D33
 10
1.17364
 20
5.12410
 30
0.000000
  70
    32
  0
VERTEX
  8
0
  5
D34
 10
1.17340
 20
5.12417
 30
0.000000
  70
    32
  0
VERTEX
  8
0
  5
D35
 10
1.17317
 20
5.12424
 30
0.000000
  70
    32
  0
VERTEX
  8
0
  5
D36
 10
1.17293
 20
5.12430
 30
0.000000
  70
    32
  0
VERTEX
  8
0
  5
D37
 10
1.17269
 20
5.12437
 30
0.000000
  70
    32
  0
VERTEX
  8
0
  5
D38
 10
1.17245
 20
5.12443
 30
0.000000
  70
    32
  0
VERTEX
  8
0
  5
D39
 10
1.17221
 20
5.12449
 30
0.000000
  70
    32
  0
VERTEX
  8
0
  5
D3A
 10
1.17197
 20
5.12454
 30
0.000000
  70
    32
  0
VERTEX
  8
0
  5
D3B
 10
1.17173
 20
5.12459
 30
0.000000
  70
    32
  0
VERTEX
  8
0
  5
D3C
 10
1.17148
 20
5.12464
 30
0.000000
  70
    32
  0
VERTEX
  8
0
  5
D3D
 10
1.17124
 20
5.12469
 30
0.000000
  70
    32
  0
VERTEX
  8
0
  5
D3E
 10
1.17099
 20
5.12473
 30
0.000000
  70
    32
  0
VERTEX
  8
0
  5
D3F
 10
1.17075
 20
5.12477
 30
0.000000
  70
    32
  0
VERTEX
  8
0
  5
D40
 10
1.17050
 20
5.12481
 30
0.000000
  70
    32
  0
VERTEX
  8
0
  5
D41
 10
1.17025
 20
5.12484
 30
0.000000
  70
    32
  0
VERTEX
  8
0
  5
D42
 10
1.17000
 20
5.12487
 30
0.000000
  70
    32
  0
VERTEX
  8
0
  5
D43
 10
1.16975
 20
5.12490
 30
0.000000
  70
    32
  0
VERTEX
  8
0
  5
D44
 10
1.16950
 20
5.12492
 30
0.000000
  70
    32
  0
VERTEX
  8
0
  5
D45
 10
1.16925
 20
5.12494
 30
0.000000
  70
    32
  0
VERTEX
  8
0
  5
D46
 10
1.16899
 20
5.12496
 30
0.000000
  70
    32
  0
VERTEX
  8
0
  5
D47
 10
1.16874
 20
5.12497
 30
0.000000
  70
    32
  0
VERTEX
  8
0
  5
D48
 10
1.16848
 20
5.12499
 30
0.000000
  70
    32
  0
VERTEX
  8
0
  5
D49
 10
1.16823
 20
5.12499
 30
0.000000
  70
    32
  0
VERTEX
  8
0
  5
D4A
 10
1.16797
 20
5.12500
 30
0.000000
  70
    32
  0
VERTEX
  8
0
  5
D4B
 10
1.16771
 20
5.12500
 30
0.000000
  70
    32
  0
SEQEND
  8
0
  5
D4C
  0
POLYLINE
  8
0
  5
D4D
  66
     1
 10
0.000000
 20
0.000000
 30
0.000000
  70
     8
  0
VERTEX
  8
0
  5
D4E
 10
1.18750
 20
4.98646
 30
0.000000
  70
    32
  0
VERTEX
  8
0
  5
D4F
 10
1.18750
 20
4.98672
 30
0.000000
  70
    32
  0
VERTEX
  8
0
  5
D50
 10
1.18749
 20
4.98698
 30
0.000000
  70
    32
  0
VERTEX
  8
0
  5
D51
 10
1.18749
 20
4.98723
 30
0.000000
  70
    32
  0
VERTEX
  8
0
  5
D52
 10
1.18747
 20
4.98749
 30
0.000000
  70
    32
  0
VERTEX
  8
0
  5
D53
 10
1.18746
 20
4.98774
 30
0.000000
  70
    32
  0
VERTEX
  8
0
  5
D54
 10
1.18744
 20
4.98800
 30
0.000000
  70
    32
  0
VERTEX
  8
0
  5
D55
 10
1.18742
 20
4.98825
 30
0.000000
  70
    32
  0
VERTEX
  8
0
  5
D56
 10
1.18740
 20
4.98850
 30
0.000000
  70
    32
  0
VERTEX
  8
0
  5
D57
 10
1.18737
 20
4.98875
 30
0.000000
  70
    32
  0
VERTEX
  8
0
  5
D58
 10
1.18734
 20
4.98900
 30
0.000000
  70
    32
  0
VERTEX
  8
0
  5
D59
 10
1.18730
 20
4.98925
 30
0.000000
  70
    32
  0
VERTEX
  8
0
  5
D5A
 10
1.18727
 20
4.98950
 30
0.000000
  70
    32
  0
VERTEX
  8
0
  5
D5B
 10
1.18723
 20
4.98975
 30
0.000000
  70
    32
  0
VERTEX
  8
0
  5
D5C
 10
1.18719
 20
4.98999
 30
0.000000
  70
    32
  0
VERTEX
  8
0
  5
D5D
 10
1.18714
 20
4.99024
 30
0.000000
  70
    32
  0
VERTEX
  8
0
  5
D5E
 10
1.18709
 20
4.99048
 30
0.000000
  70
    32
  0
VERTEX
  8
0
  5
D5F
 10
1.18704
 20
4.99072
 30
0.000000
  70
    32
  0
VERTEX
  8
0
  5
D60
 10
1.18698
 20
4.99097
 30
0.000000
  70
    32
  0
VERTEX
  8
0
  5
D61
 10
1.18693
 20
4.99121
 30
0.000000
  70
    32
  0
VERTEX
  8
0
  5
D62
 10
1.18687
 20
4.99145
 30
0.000000
  70
    32
  0
VERTEX
  8
0
  5
D63
 10
1.18680
 20
4.99168
 30
0.000000
  70
    32
  0
VERTEX
  8
0
  5
D64
 10
1.18674
 20
4.99192
 30
0.000000
  70
    32
  0
VERTEX
  8
0
  5
D65
 10
1.18667
 20
4.99216
 30
0.000000
  70
    32
  0
VERTEX
  8
0
  5
D66
 10
1.18660
 20
4.99239
 30
0.000000
  70
    32
  0
VERTEX
  8
0
  5
D67
 10
1.18652
 20
4.99263
 30
0.000000
  70
    32
  0
VERTEX
  8
0
  5
D68
 10
1.18644
 20
4.99286
 30
0.000000
  70
    32
  0
VERTEX
  8
0
  5
D69
 10
1.18636
 20
4.99309
 30
0.000000
  70
    32
  0
VERTEX
  8
0
  5
D6A
 10
1.18628
 20
4.99332
 30
0.000000
  70
    32
  0
VERTEX
  8
0
  5
D6B
 10
1.18619
 20
4.99355
 30
0.000000
  70
    32
  0
VERTEX
  8
0
  5
D6C
 10
1.18611
 20
4.99377
 30
0.000000
  70
    32
  0
VERTEX
  8
0
  5
D6D
 10
1.18601
 20
4.99400
 30
0.000000
  70
    32
  0
VERTEX
  8
0
  5
D6E
 10
1.18592
 20
4.99422
 30
0.000000
  70
    32
  0
VERTEX
  8
0
  5
D6F
 10
1.18582
 20
4.99444
 30
0.000000
  70
    32
  0
VERTEX
  8
0
  5
D70
 10
1.18572
 20
4.99467
 30
0.000000
  70
    32
  0
VERTEX
  8
0
  5
D71
 10
1.18562
 20
4.99489
 30
0.000000
  70
    32
  0
VERTEX
  8
0
  5
D72
 10
1.18552
 20
4.99510
 30
0.000000
  70
    32
  0
VERTEX
  8
0
  5
D73
 10
1.18541
 20
4.99532
 30
0.000000
  70
    32
  0
VERTEX
  8
0
  5
D74
 10
1.18530
 20
4.99554
 30
0.000000
  70
    32
  0
VERTEX
  8
0
  5
D75
 10
1.18519
 20
4.99575
 30
0.000000
  70
    32
  0
VERTEX
  8
0
  5
D76
 10
1.18507
 20
4.99596
 30
0.000000
  70
    32
  0
VERTEX
  8
0
  5
D77
 10
1.18496
 20
4.99617
 30
0.000000
  70
    32
  0
VERTEX
  8
0
  5
D78
 10
1.18484
 20
4.99638
 30
0.000000
  70
    32
  0
VERTEX
  8
0
  5
D79
 10
1.18471
 20
4.99659
 30
0.000000
  70
    32
  0
VERTEX
  8
0
  5
D7A
 10
1.18459
 20
4.99679
 30
0.000000
  70
    32
  0
VERTEX
  8
0
  5
D7B
 10
1.18446
 20
4.99700
 30
0.000000
  70
    32
  0
VERTEX
  8
0
  5
D7C
 10
1.18433
 20
4.99720
 30
0.000000
  70
    32
  0
VERTEX
  8
0
  5
D7D
 10
1.18420
 20
4.99740
 30
0.000000
  70
    32
  0
VERTEX
  8
0
  5
D7E
 10
1.18407
 20
4.99760
 30
0.000000
  70
    32
  0
VERTEX
  8
0
  5
D7F
 10
1.18393
 20
4.99780
 30
0.000000
  70
    32
  0
VERTEX
  8
0
  5
D80
 10
1.18379
 20
4.99799
 30
0.000000
  70
    32
  0
VERTEX
  8
0
  5
D81
 10
1.18365
 20
4.99819
 30
0.000000
  70
    32
  0
VERTEX
  8
0
  5
D82
 10
1.18351
 20
4.99838
 30
0.000000
  70
    32
  0
VERTEX
  8
0
  5
D83
 10
1.18336
 20
4.99857
 30
0.000000
  70
    32
  0
VERTEX
  8
0
  5
D84
 10
1.18321
 20
4.99876
 30
0.000000
  70
    32
  0
VERTEX
  8
0
  5
D85
 10
1.18306
 20
4.99895
 30
0.000000
  70
    32
  0
VERTEX
  8
0
  5
D86
 10
1.18291
 20
4.99913
 30
0.000000
  70
    32
  0
VERTEX
  8
0
  5
D87
 10
1.18276
 20
4.99931
 30
0.000000
  70
    32
  0
VERTEX
  8
0
  5
D88
 10
1.18260
 20
4.99949
 30
0.000000
  70
    32
  0
VERTEX
  8
0
  5
D89
 10
1.18244
 20
4.99967
 30
0.000000
  70
    32
  0
VERTEX
  8
0
  5
D8A
 10
1.18228
 20
4.99985
 30
0.000000
  70
    32
  0
VERTEX
  8
0
  5
D8B
 10
1.18212
 20
5.00003
 30
0.000000
  70
    32
  0
VERTEX
  8
0
  5
D8C
 10
1.18195
 20
5.00020
 30
0.000000
  70
    32
  0
VERTEX
  8
0
  5
D8D
 10
1.18178
 20
5.00037
 30
0.000000
  70
    32
  0
VERTEX
  8
0
  5
D8E
 10
1.18162
 20
5.00054
 30
0.000000
  70
    32
  0
VERTEX
  8
0
  5
D8F
 10
1.18144
 20
5.00071
 30
0.000000
  70
    32
  0
VERTEX
  8
0
  5
D90
 10
1.18127
 20
5.00087
 30
0.000000
  70
    32
  0
VERTEX
  8
0
  5
D91
 10
1.18110
 20
5.00103
 30
0.000000
  70
    32
  0
VERTEX
  8
0
  5
D92
 10
1.18092
 20
5.00120
 30
0.000000
  70
    32
  0
VERTEX
  8
0
  5
D93
 10
1.18074
 20
5.00135
 30
0.000000
  70
    32
  0
VERTEX
  8
0
  5
D94
 10
1.18056
 20
5.00151
 30
0.000000
  70
    32
  0
VERTEX
  8
0
  5
D95
 10
1.18038
 20
5.00167
 30
0.000000
  70
    32
  0
VERTEX
  8
0
  5
D96
 10
1.18019
 20
5.00182
 30
0.000000
  70
    32
  0
VERTEX
  8
0
  5
D97
 10
1.18000
 20
5.00197
 30
0.000000
  70
    32
  0
VERTEX
  8
0
  5
D98
 10
1.17982
 20
5.00212
 30
0.000000
  70
    32
  0
VERTEX
  8
0
  5
D99
 10
1.17962
 20
5.00226
 30
0.000000
  70
    32
  0
VERTEX
  8
0
  5
D9A
 10
1.17943
 20
5.00240
 30
0.000000
  70
    32
  0
VERTEX
  8
0
  5
D9B
 10
1.17924
 20
5.00255
 30
0.000000
  70
    32
  0
VERTEX
  8
0
  5
D9C
 10
1.17904
 20
5.00268
 30
0.000000
  70
    32
  0
VERTEX
  8
0
  5
D9D
 10
1.17885
 20
5.00282
 30
0.000000
  70
    32
  0
VERTEX
  8
0
  5
D9E
 10
1.17865
 20
5.00296
 30
0.000000
  70
    32
  0
VERTEX
  8
0
  5
D9F
 10
1.17845
 20
5.00309
 30
0.000000
  70
    32
  0
VERTEX
  8
0
  5
DA0
 10
1.17824
 20
5.00322
 30
0.000000
  70
    32
  0
VERTEX
  8
0
  5
DA1
 10
1.17804
 20
5.00334
 30
0.000000
  70
    32
  0
VERTEX
  8
0
  5
DA2
 10
1.17783
 20
5.00347
 30
0.000000
  70
    32
  0
VERTEX
  8
0
  5
DA3
 10
1.17763
 20
5.00359
 30
0.000000
  70
    32
  0
VERTEX
  8
0
  5
DA4
 10
1.17742
 20
5.00371
 30
0.000000
  70
    32
  0
VERTEX
  8
0
  5
DA5
 10
1.17721
 20
5.00383
 30
0.000000
  70
    32
  0
VERTEX
  8
0
  5
DA6
 10
1.17699
 20
5.00394
 30
0.000000
  70
    32
  0
VERTEX
  8
0
  5
DA7
 10
1.17678
 20
5.00405
 30
0.000000
  70
    32
  0
VERTEX
  8
0
  5
DA8
 10
1.17656
 20
5.00416
 30
0.000000
  70
    32
  0
VERTEX
  8
0
  5
DA9
 10
1.17635
 20
5.00427
 30
0.000000
  70
    32
  0
VERTEX
  8
0
  5
DAA
 10
1.17613
 20
5.00437
 30
0.000000
  70
    32
  0
VERTEX
  8
0
  5
DAB
 10
1.17591
 20
5.00448
 30
0.000000
  70
    32
  0
VERTEX
  8
0
  5
DAC
 10
1.17569
 20
5.00458
 30
0.000000
  70
    32
  0
VERTEX
  8
0
  5
DAD
 10
1.17547
 20
5.00467
 30
0.000000
  70
    32
  0
VERTEX
  8
0
  5
DAE
 10
1.17524
 20
5.00477
 30
0.000000
  70
    32
  0
VERTEX
  8
0
  5
DAF
 10
1.17502
 20
5.00486
 30
0.000000
  70
    32
  0
VERTEX
  8
0
  5
DB0
 10
1.17479
 20
5.00495
 30
0.000000
  70
    32
  0
VERTEX
  8
0
  5
DB1
 10
1.17456
 20
5.00503
 30
0.000000
  70
    32
  0
VERTEX
  8
0
  5
DB2
 10
1.17433
 20
5.00511
 30
0.000000
  70
    32
  0
VERTEX
  8
0
  5
DB3
 10
1.17410
 20
5.00519
 30
0.000000
  70
    32
  0
VERTEX
  8
0
  5
DB4
 10
1.17387
 20
5.00527
 30
0.000000
  70
    32
  0
VERTEX
  8
0
  5
DB5
 10
1.17364
 20
5.00535
 30
0.000000
  70
    32
  0
VERTEX
  8
0
  5
DB6
 10
1.17340
 20
5.00542
 30
0.000000
  70
    32
  0
VERTEX
  8
0
  5
DB7
 10
1.17317
 20
5.00549
 30
0.000000
  70
    32
  0
VERTEX
  8
0
  5
DB8
 10
1.17293
 20
5.00555
 30
0.000000
  70
    32
  0
VERTEX
  8
0
  5
DB9
 10
1.17269
 20
5.00562
 30
0.000000
  70
    32
  0
VERTEX
  8
0
  5
DBA
 10
1.17245
 20
5.00568
 30
0.000000
  70
    32
  0
VERTEX
  8
0
  5
DBB
 10
1.17221
 20
5.00574
 30
0.000000
  70
    32
  0
VERTEX
  8
0
  5
DBC
 10
1.17197
 20
5.00579
 30
0.000000
  70
    32
  0
VERTEX
  8
0
  5
DBD
 10
1.17173
 20
5.00584
 30
0.000000
  70
    32
  0
VERTEX
  8
0
  5
DBE
 10
1.17148
 20
5.00589
 30
0.000000
  70
    32
  0
VERTEX
  8
0
  5
DBF
 10
1.17124
 20
5.00594
 30
0.000000
  70
    32
  0
VERTEX
  8
0
  5
DC0
 10
1.17099
 20
5.00598
 30
0.000000
  70
    32
  0
VERTEX
  8
0
  5
DC1
 10
1.17075
 20
5.00602
 30
0.000000
  70
    32
  0
VERTEX
  8
0
  5
DC2
 10
1.17050
 20
5.00606
 30
0.000000
  70
    32
  0
VERTEX
  8
0
  5
DC3
 10
1.17025
 20
5.00609
 30
0.000000
  70
    32
  0
VERTEX
  8
0
  5
DC4
 10
1.17000
 20
5.00612
 30
0.000000
  70
    32
  0
VERTEX
  8
0
  5
DC5
 10
1.16975
 20
5.00615
 30
0.000000
  70
    32
  0
VERTEX
  8
0
  5
DC6
 10
1.16950
 20
5.00617
 30
0.000000
  70
    32
  0
VERTEX
  8
0
  5
DC7
 10
1.16925
 20
5.00619
 30
0.000000
  70
    32
  0
VERTEX
  8
0
  5
DC8
 10
1.16899
 20
5.00621
 30
0.000000
  70
    32
  0
VERTEX
  8
0
  5
DC9
 10
1.16874
 20
5.00622
 30
0.000000
  70
    32
  0
VERTEX
  8
0
  5
DCA
 10
1.16848
 20
5.00624
 30
0.000000
  70
    32
  0
VERTEX
  8
0
  5
DCB
 10
1.16823
 20
5.00624
 30
0.000000
  70
    32
  0
VERTEX
  8
0
  5
DCC
 10
1.16797
 20
5.00625
 30
0.000000
  70
    32
  0
VERTEX
  8
0
  5
DCD
 10
1.16771
 20
5.00625
 30
0.000000
  70
    32
  0
SEQEND
  8
0
  5
DCE
  0
ATTDEF
  5
F3
  8
DEFPOINTS
 10
0.0
 20
-0.005
 30
0.0
 40
0.001
  1
METAL
  3

  2
MATERIAL
 70
     8
1001
AcDbAttr
1070
     0
1070
     1
  0
ATTDEF
  5
F5
  8
DEFPOINTS
 10
0.0
 20
-0.0033333333333333
 30
0.0
 40
0.001
  1
SOAP/LOTION DISPENSER
  3

  2
PRODUCT
 70
     8
1001
AcDbAttr
1070
     0
1070
     1
  0
ATTDEF
  5
F6
  8
DEFPOINTS
 10
0.0
 20
-0.0016666666666667
 30
0.0
 40
0.001
  1
PURIST
  3

  2
TRADENAME
 70
     8
1001
AcDbAttr
1070
     0
1070
     1
  0
ATTDEF
  5
F7
  8
DEFPOINTS
 10
0.0
 20
0.0
 30
0.0
 40
0.001
  1
K-14379
  3

  2
MODELNUMBER
 70
     8
1001
AcDbAttr
1070
     0
1070
     1
  0
ENDSEC
  0
EOF
