  0
SECTION
  2
HEADER
  9
$ACADVER
  1
AC1009
  9
$INSBASE
 10
0.0
 20
0.0
 30
0.0
  9
$EXTMIN
 10
-12.94675848265055
 20
-5.8472901808620881
 30
-0.0000000000112498
  9
$EXTMAX
 10
12.94598759876321
 20
0.0020954072840098
 30
0.0000000000002956
  9
$LIMMIN
 10
0.0
 20
0.0
  9
$LIMMAX
 10
12.0
 20
9.0
  9
$ORTHOMODE
 70
     0
  9
$REGENMODE
 70
     1
  9
$FILLMODE
 70
     1
  9
$QTEXTMODE
 70
     0
  9
$MIRRTEXT
 70
     1
  9
$DRAGMODE
 70
     2
  9
$LTSCALE
 40
1.0
  9
$OSMODE
 70
    37
  9
$ATTMODE
 70
     1
  9
$TEXTSIZE
 40
0.001
  9
$TRACEWID
 40
0.05
  9
$TEXTSTYLE
  7
STANDARD
  9
$CLAYER
  8
0
  9
$CELTYPE
  6
BYLAYER
  9
$CECOLOR
 62
   256
  9
$DIMSCALE
 40
1.0
  9
$DIMASZ
 40
0.18
  9
$DIMEXO
 40
0.0625
  9
$DIMDLI
 40
0.38
  9
$DIMRND
 40
0.0
  9
$DIMDLE
 40
0.0
  9
$DIMEXE
 40
0.18
  9
$DIMTP
 40
0.0
  9
$DIMTM
 40
0.0
  9
$DIMTXT
 40
0.18
  9
$DIMCEN
 40
0.09
  9
$DIMTSZ
 40
0.0
  9
$DIMTOL
 70
     0
  9
$DIMLIM
 70
     0
  9
$DIMTIH
 70
     1
  9
$DIMTOH
 70
     1
  9
$DIMSE1
 70
     0
  9
$DIMSE2
 70
     0
  9
$DIMTAD
 70
     0
  9
$DIMZIN
 70
     0
  9
$DIMBLK
  1

  9
$DIMASO
 70
     1
  9
$DIMSHO
 70
     1
  9
$DIMPOST
  1

  9
$DIMAPOST
  1

  9
$DIMALT
 70
     0
  9
$DIMALTD
 70
     2
  9
$DIMALTF
 40
25.399999999999999
  9
$DIMLFAC
 40
1.0
  9
$DIMTOFL
 70
     0
  9
$DIMTVP
 40
0.0
  9
$DIMTIX
 70
     0
  9
$DIMSOXD
 70
     0
  9
$DIMSAH
 70
     0
  9
$DIMBLK1
  1

  9
$DIMBLK2
  1

  9
$DIMSTYLE
  2
STANDARD
  9
$DIMCLRD
 70
     0
  9
$DIMCLRE
 70
     0
  9
$DIMCLRT
 70
     0
  9
$DIMTFAC
 40
1.0
  9
$DIMGAP
 40
0.09
  9
$LUNITS
 70
     2
  9
$LUPREC
 70
     4
  9
$SKETCHINC
 40
0.1
  9
$FILLETRAD
 40
0.0
  9
$AUNITS
 70
     0
  9
$AUPREC
 70
     0
  9
$MENU
  1
.
  9
$ELEVATION
 40
0.0
  9
$PELEVATION
 40
0.0
  9
$THICKNESS
 40
0.0
  9
$LIMCHECK
 70
     0
  9
$BLIPMODE
 70
     0
  9
$CHAMFERA
 40
0.5
  9
$CHAMFERB
 40
0.5
  9
$SKPOLY
 70
     0
  9
$TDCREATE
 40
2451380.5970990621
  9
$TDUPDATE
 40
2456485.572258322
  9
$TDINDWG
 40
0.108486713
  9
$TDUSRTIMER
 40
0.1084776736
  9
$USRTIMER
 70
     1
  9
$ANGBASE
 50
0.0
  9
$ANGDIR
 70
     0
  9
$PDMODE
 70
     0
  9
$PDSIZE
 40
0.0
  9
$PLINEWID
 40
0.0
  9
$COORDS
 70
     1
  9
$SPLFRAME
 70
     0
  9
$SPLINETYPE
 70
     6
  9
$SPLINESEGS
 70
     8
  9
$ATTDIA
 70
     0
  9
$ATTREQ
 70
     1
  9
$HANDLING
 70
     1
  9
$HANDSEED
  5
BB6
  9
$SURFTAB1
 70
     6
  9
$SURFTAB2
 70
     6
  9
$SURFTYPE
 70
     6
  9
$SURFU
 70
     6
  9
$SURFV
 70
     6
  9
$UCSNAME
  2

  9
$UCSORG
 10
0.0
 20
0.0
 30
0.0
  9
$UCSXDIR
 10
1.0
 20
0.0
 30
0.0
  9
$UCSYDIR
 10
0.0
 20
1.0
 30
0.0
  9
$PUCSNAME
  2

  9
$PUCSORG
 10
0.0
 20
0.0
 30
0.0
  9
$PUCSXDIR
 10
1.0
 20
0.0
 30
0.0
  9
$PUCSYDIR
 10
0.0
 20
1.0
 30
0.0
  9
$USERI1
 70
     0
  9
$USERI2
 70
     0
  9
$USERI3
 70
     0
  9
$USERI4
 70
     0
  9
$USERI5
 70
     0
  9
$USERR1
 40
0.0
  9
$USERR2
 40
0.0
  9
$USERR3
 40
0.0
  9
$USERR4
 40
0.0
  9
$USERR5
 40
0.0
  9
$WORLDVIEW
 70
     1
  9
$SHADEDGE
 70
     3
  9
$SHADEDIF
 70
    70
  9
$TILEMODE
 70
     1
  9
$MAXACTVP
 70
    64
  9
$PLIMCHECK
 70
     0
  9
$PEXTMIN
 10
1.0000000000000000E+020
 20
1.0000000000000000E+020
 30
1.0000000000000000E+020
  9
$PEXTMAX
 10
-1.0000000000000000E+020
 20
-1.0000000000000000E+020
 30
-1.0000000000000000E+020
  9
$PLIMMIN
 10
0.0
 20
0.0
  9
$PLIMMAX
 10
12.0
 20
9.0
  9
$UNITMODE
 70
     0
  9
$VISRETAIN
 70
     1
  9
$PLINEGEN
 70
     0
  9
$PSLTSCALE
 70
     1
  0
ENDSEC
  0
SECTION
  2
TABLES
  0
TABLE
  2
VPORT
 70
     1
  0
VPORT
  2
*ACTIVE
 70
     0
 10
0.0
 20
0.0
 11
1.0
 21
1.0
 12
-0.0003854419436706
 22
-2.9225973867890391
 13
0.0
 23
0.0
 14
0.5
 24
0.5
 15
0.5
 25
0.5
 16
0.0
 26
0.0
 36
1.0
 17
0.0
 27
0.0
 37
0.0
 40
13.03529541084872
 41
1.9926393270241849
 42
50.0
 43
0.0
 44
0.0
 50
0.0
 51
0.0
 71
     0
 72
  5000
 73
     1
 74
     1
 75
     0
 76
     0
 77
     0
 78
     0
  0
ENDTAB
  0
TABLE
  2
LTYPE
 70
     2
  0
LTYPE
  2
CONTINUOUS
 70
     0
  3
Solid line
 72
    65
 73
     0
 40
0.0
  0
LTYPE
  2
PHANTOM2
 70
     0
  3
Phantom (.5x) ___ _ _ ___ _ _ ___ _ _ ___ _ _
 72
    65
 73
     6
 40
1.25
 49
0.625
 49
-0.125
 49
0.125
 49
-0.125
 49
0.125
 49
-0.125
  0
ENDTAB
  0
TABLE
  2
LAYER
 70
     2
  0
LAYER
  2
0
 70
     0
 62
     7
  6
CONTINUOUS
  0
LAYER
  2
DEFPOINTS
 70
     0
 62
     7
  6
CONTINUOUS
  0
ENDTAB
  0
TABLE
  2
STYLE
 70
     1
  0
STYLE
  2
STANDARD
 70
     0
 40
0.0
 41
1.0
 50
0.0
 71
     0
 42
0.001
  3
txt
  4

  0
ENDTAB
  0
TABLE
  2
VIEW
 70
     0
  0
ENDTAB
  0
TABLE
  2
UCS
 70
     0
  0
ENDTAB
  0
TABLE
  2
APPID
 70
     4
  0
APPID
  2
ACAD
 70
     0
  0
APPID
  2
ACAD_MLEADERVER
 70
     0
  0
APPID
  2
ACAD_NAV_VCDISPLAY
 70
     0
  0
APPID
  2
AcDbAttr
 70
     0
  0
ENDTAB
  0
TABLE
  2
DIMSTYLE
 70
     1
  0
DIMSTYLE
  2
STANDARD
 70
     0
  3

  4

  5

  6

  7

 40
1.0
 41
0.18
 42
0.0625
 43
0.38
 44
0.18
 45
0.0
 46
0.0
 47
0.0
 48
0.0
140
0.18
141
0.09
142
0.0
143
25.399999999999999
144
1.0
145
0.0
146
1.0
147
0.09
 71
     0
 72
     0
 73
     1
 74
     1
 75
     0
 76
     0
 77
     0
 78
     0
170
     0
171
     2
172
     0
173
     0
174
     0
175
     0
176
     0
177
     0
178
     0
  0
ENDTAB
  0
ENDSEC
  0
SECTION
  2
BLOCKS
  0
BLOCK
  8
0
  2
$MODEL_SPACE
 70
     2
 10
0.0
 20
0.0
 30
0.0
  3
$MODEL_SPACE
  1

  0
ENDBLK
  5
16
  8
0
  0
BLOCK
 67
     1
  8
0
  2
$PAPER_SPACE
 70
     0
 10
0.0
 20
0.0
 30
0.0
  3
$PAPER_SPACE
  1

  0
ENDBLK
  5
1D
 67
     1
  8
0
  0
ENDSEC
  0
SECTION
  2
ENTITIES
  0
POLYLINE
  5
70
  8
0
 66
     1
 10
0.0
 20
0.0
 30
0.0
  0
VERTEX
  5
71
  8
0
 10
-12.826790928859969
 20
-5.846524210561256
 30
0.0
  0
VERTEX
  5
72
  8
0
 10
-12.826790928859969
 20
-5.059121717113384
 30
0.0
  0
SEQEND
  5
73
  8
0
  0
POLYLINE
  5
74
  8
0
 66
     1
 10
0.0
 20
0.0
 30
0.0
  0
VERTEX
  5
75
  8
0
 10
-12.787416056958371
 20
-5.846524210561256
 30
0.0
  0
VERTEX
  5
76
  8
0
 10
-12.787416056958371
 20
-5.059121717113384
 30
0.0
  0
SEQEND
  5
77
  8
0
  0
POLYLINE
  5
78
  8
0
 66
     1
 10
0.0
 20
0.0
 30
0.0
  0
VERTEX
  5
79
  8
0
 10
-11.7835263673635
 20
-2.322859735464021
 30
0.0
  0
VERTEX
  5
7A
  8
0
 10
-11.783309351190621
 20
-2.333737671139033
 30
0.0
  0
VERTEX
  5
7B
  8
0
 10
-11.78244128649863
 20
-2.3448597500089359
 30
0.0
  0
VERTEX
  5
7C
  8
0
 10
-11.780976427329961
 20
-2.3561852815408879
 30
0.0
  0
VERTEX
  5
7D
  8
0
 10
-11.77891477368599
 20
-2.3677142657352301
 30
0.0
  0
VERTEX
  5
7E
  8
0
 10
-11.776283452587681
 20
-2.3794738296132891
 30
0.0
  0
VERTEX
  5
7F
  8
0
 10
-11.772919701905041
 20
-2.3914911001970718
 30
0.0
  0
VERTEX
  5
80
  8
0
 10
-11.768864212170911
 20
-2.4038610220619598
 30
0.0
  0
VERTEX
  5
81
  8
0
 10
-11.764171237428179
 20
-2.4164750871216252
 30
0.0
  0
VERTEX
  5
82
  8
0
 10
-11.758772960123
 20
-2.4292790413326202
 30
0.0
  0
VERTEX
  5
83
  8
0
 10
-11.75275076132062
 20
-2.442300011716724
 30
0.0
  0
VERTEX
  5
84
  8
0
 10
-11.74610464102012
 20
-2.4554973077415521
 30
0.0
  0
VERTEX
  5
85
  8
0
 10
-11.73899736135195
 20
-2.4686674767447121
 30
0.0
  0
VERTEX
  5
86
  8
0
 10
-11.731361104762311
 20
-2.4818512092585929
 30
0.0
  0
VERTEX
  5
87
  8
0
 10
-11.723385760402159
 20
-2.495021378261753
 30
0.0
  0
VERTEX
  5
88
  8
0
 10
-11.71541041604201
 20
-2.5075811892779711
 30
0.0
  0
VERTEX
  5
89
  8
0
 10
-11.707530016257129
 20
-2.5195035152860319
 30
0.0
  0
VERTEX
  5
8A
  8
0
 10
-11.699798815091761
 20
-2.5308019197964309
 30
0.0
  0
VERTEX
  5
8B
  8
0
 10
-11.69250164627215
 20
-2.5412458231253359
 30
0.0
  0
VERTEX
  5
8C
  8
0
 10
-11.68574701788544
 20
-2.5506860266539202
 30
0.0
  0
VERTEX
  5
8D
  8
0
 10
-11.67943998535543
 20
-2.5592717290008968
 30
0.0
  0
VERTEX
  5
8E
  8
0
 10
-11.67368905676927
 20
-2.567030057188048
 30
0.0
  0
VERTEX
  5
8F
  8
0
 10
-11.668494232126481
 20
-2.5739474477046538
 30
0.0
  0
VERTEX
  5
90
  8
0
 10
-11.66385551142708
 20
-2.5800239005506
 30
0.0
  0
VERTEX
  5
91
  8
0
 10
-11.659745767649619
 20
-2.5853543603016069
 30
0.0
  0
VERTEX
  5
92
  8
0
 10
-11.656219254837429
 20
-2.5899659539793438
 30
0.0
  0
VERTEX
  5
93
  8
0
 10
-11.648691506333989
 20
-2.599555356126757
 30
0.0
  0
SEQEND
  5
94
  8
0
  0
POLYLINE
  5
95
  8
0
 66
     1
 10
0.0
 20
0.0
 30
0.0
  0
VERTEX
  5
96
  8
0
 10
-12.354346720089101
 20
-0.5511803890624379
 30
0.0
  0
VERTEX
  5
97
  8
0
 10
-12.354346720089101
 20
-5.0590945900917168
 30
0.0
  0
SEQEND
  5
98
  8
0
  0
POLYLINE
  5
99
  8
0
 66
     1
 10
0.0
 20
0.0
 30
0.0
  0
VERTEX
  5
9A
  8
0
 10
-11.64568040693235
 20
-0.5511803890624379
 30
0.0
  0
VERTEX
  5
9B
  8
0
 10
-11.64568040693235
 20
-2.043030943802477
 30
0.0
  0
SEQEND
  5
9C
  8
0
  0
POLYLINE
  5
9D
  8
0
 66
     1
 10
0.0
 20
0.0
 30
0.0
  0
VERTEX
  5
9E
  8
0
 10
-11.64568040693235
 20
-2.6033802661770551
 30
0.0
  0
VERTEX
  5
9F
  8
0
 10
-11.64568040693235
 20
-5.0591081536026641
 30
0.0
  0
SEQEND
  5
A0
  8
0
  0
POLYLINE
  5
A1
  8
0
 66
     1
 10
0.0
 20
0.0
 30
0.0
  0
VERTEX
  5
A2
  8
0
 10
-11.7835263673635
 20
-2.322859735464021
 30
0.0
  0
VERTEX
  5
A3
  8
0
 10
-11.783309351190621
 20
-2.3119682362780618
 30
0.0
  0
VERTEX
  5
A4
  8
0
 10
-11.78244128649863
 20
-2.3008597209191062
 30
0.0
  0
VERTEX
  5
A5
  8
0
 10
-11.780976427329961
 20
-2.2895477528979882
 30
0.0
  0
VERTEX
  5
A6
  8
0
 10
-11.77891477368599
 20
-2.277991641682092
 30
0.0
  0
VERTEX
  5
A7
  8
0
 10
-11.776283452587681
 20
-2.2662456413146401
 30
0.0
  0
VERTEX
  5
A8
  8
0
 10
-11.772919701905041
 20
-2.2542148072201371
 30
0.0
  0
VERTEX
  5
A9
  8
0
 10
-11.768864212170911
 20
-2.2418584488660822
 30
0.0
  0
VERTEX
  5
AA
  8
0
 10
-11.76414411040628
 20
-2.2292172567847501
 30
0.0
  0
VERTEX
  5
AB
  8
0
 10
-11.758772960123
 20
-2.2163861755520879
 30
0.0
  0
VERTEX
  5
AC
  8
0
 10
-11.75272363429872
 20
-2.2033516416571501
 30
0.0
  0
VERTEX
  5
AD
  8
0
 10
-11.74607751399868
 20
-2.1901543456324362
 30
0.0
  0
VERTEX
  5
AE
  8
0
 10
-11.738970234330511
 20
-2.1769977401401088
 30
0.0
  0
VERTEX
  5
AF
  8
0
 10
-11.73133397774086
 20
-2.1637733170937281
 30
0.0
  0
VERTEX
  5
B0
  8
0
 10
-11.72333150635882
 20
-2.1506302751122339
 30
0.0
  0
VERTEX
  5
B1
  8
0
 10
-11.715383289020121
 20
-2.1380433370742362
 30
0.0
  0
VERTEX
  5
B2
  8
0
 10
-11.707502889235689
 20
-2.1261617015986749
 30
0.0
  0
VERTEX
  5
B3
  8
0
 10
-11.699771688069861
 20
-2.1148497335775569
 30
0.0
  0
VERTEX
  5
B4
  8
0
 10
-11.692474519250711
 20
-2.104432957270205
 30
0.0
  0
VERTEX
  5
B5
  8
0
 10
-11.685719890864
 20
-2.094965626720068
 30
0.0
  0
VERTEX
  5
B6
  8
0
 10
-11.67941285833399
 20
-2.086407051394644
 30
0.0
  0
VERTEX
  5
B7
  8
0
 10
-11.67366192974783
 20
-2.078662286718326
 30
0.0
  0
VERTEX
  5
B8
  8
0
 10
-11.66846710510459
 20
-2.0717448962017211
 30
0.0
  0
VERTEX
  5
B9
  8
0
 10
-11.66382838440564
 20
-2.0656548798449421
 30
0.0
  0
VERTEX
  5
BA
  8
0
 10
-11.659745767649619
 20
-2.0603244200939339
 30
0.0
  0
VERTEX
  5
BB
  8
0
 10
-11.65619212781553
 20
-2.0557399534378642
 30
0.0
  0
SEQEND
  5
BC
  8
0
  0
POLYLINE
  5
BD
  8
0
 66
     1
 10
0.0
 20
0.0
 30
0.0
  0
VERTEX
  5
BE
  8
0
 10
-12.33088184637586
 20
-5.0800909048361973
 30
0.0
  0
VERTEX
  5
BF
  8
0
 10
-12.32487321108397
 20
-5.0853942375656507
 30
0.0
  0
VERTEX
  5
C0
  8
0
 10
-12.31826778131631
 20
-5.0912265472168201
 30
0.0
  0
VERTEX
  5
C1
  8
0
 10
-12.311011303029099
 20
-5.0976285243223174
 30
0.0
  0
VERTEX
  5
C2
  8
0
 10
-12.303158030266109
 20
-5.104491660795702
 30
0.0
  0
VERTEX
  5
C3
  8
0
 10
-12.294762217070691
 20
-5.1117617025934123
 30
0.0
  0
VERTEX
  5
C4
  8
0
 10
-12.28587811748571
 20
-5.1193843956724541
 30
0.0
  0
VERTEX
  5
C5
  8
0
 10
-12.27651929502213
 20
-5.1273868670543834
 30
0.0
  0
VERTEX
  5
C6
  8
0
 10
-12.26676713074472
 20
-5.1356063546093083
 30
0.0
  0
VERTEX
  5
C7
  8
0
 10
-12.25671656922964
 20
-5.1440157313157888
 30
0.0
  0
VERTEX
  5
C8
  8
0
 10
-12.246326919944069
 20
-5.1526149971737141
 30
0.0
  0
VERTEX
  5
C9
  8
0
 10
-12.23573381799611
 20
-5.161241390053191
 30
0.0
  0
VERTEX
  5
CA
  8
0
 10
-12.225018644450531
 20
-5.1698135288893354
 30
0.0
  0
VERTEX
  5
CB
  8
0
 10
-12.21418139930825
 20
-5.1783856677255917
 30
0.0
  0
VERTEX
  5
CC
  8
0
 10
-12.2032085190574
 20
-5.1868492984751811
 30
0.0
  0
VERTEX
  5
CD
  8
0
 10
-12.192154257741331
 20
-5.1951772941167738
 30
0.0
  0
VERTEX
  5
CE
  8
0
 10
-12.18107286940427
 20
-5.203369654650146
 30
0.0
  0
VERTEX
  5
CF
  8
0
 10
-12.169869409469589
 20
-5.2113449990104073
 30
0.0
  0
VERTEX
  5
D0
  8
0
 10
-12.15859813198063
 20
-5.2191304542192247
 30
0.0
  0
VERTEX
  5
D1
  8
0
 10
-12.147286163959739
 20
-5.2266717662333804
 30
0.0
  0
VERTEX
  5
D2
  8
0
 10
-12.13590637838411
 20
-5.2339146810095372
 30
0.0
  0
VERTEX
  5
D3
  8
0
 10
-12.12443164823322
 20
-5.240804944504589
 30
0.0
  0
VERTEX
  5
D4
  8
0
 10
-12.112929791060431
 20
-5.2473968107615292
 30
0.0
  0
VERTEX
  5
D5
  8
0
 10
-12.1014008068662
 20
-5.253473263607475
 30
0.0
  0
VERTEX
  5
D6
  8
0
 10
-12.08987182267197
 20
-5.2590614300638663
 30
0.0
  0
VERTEX
  5
D7
  8
0
 10
-12.07834283847774
 20
-5.264161310131044
 30
0.0
  0
VERTEX
  5
D8
  8
0
 10
-12.06678672726162
 20
-5.2686372687005578
 30
0.0
  0
VERTEX
  5
D9
  8
0
 10
-12.05520348902451
 20
-5.2724893057725231
 30
0.0
  0
VERTEX
  5
DA
  8
0
 10
-12.043647377808391
 20
-5.2757174213469389
 30
0.0
  0
VERTEX
  5
DB
  8
0
 10
-12.03234897329799
 20
-5.2781859803155831
 30
0.0
  0
VERTEX
  5
DC
  8
0
 10
-12.021294711982369
 20
-5.2798949826785702
 30
0.0
  0
VERTEX
  5
DD
  8
0
 10
-12.01051172088297
 20
-5.280925809500558
 30
0.0
  0
VERTEX
  5
DE
  8
0
 10
-12.00001356351072
 20
-5.2811970797170034
 30
0.0
  0
SEQEND
  5
DF
  8
0
  0
POLYLINE
  5
E0
  8
0
 66
     1
 10
0.0
 20
0.0
 30
0.0
  0
VERTEX
  5
E1
  8
0
 10
-12.352366447509899
 20
-5.0608849735195909
 30
0.0
  0
VERTEX
  5
E2
  8
0
 10
-12.35056250057119
 20
-5.0624990313067419
 30
0.0
  0
VERTEX
  5
E3
  8
0
 10
-12.347998997026711
 20
-5.0648048281457241
 30
0.0
  0
VERTEX
  5
E4
  8
0
 10
-12.34475731794123
 20
-5.0677209829713092
 30
0.0
  0
VERTEX
  5
E5
  8
0
 10
-12.34081033629378
 20
-5.0712474957836093
 30
0.0
  0
VERTEX
  5
E6
  8
0
 10
-12.33086828286492
 20
-5.0800773413253628
 30
0.0
  0
SEQEND
  5
E7
  8
0
  0
POLYLINE
  5
E8
  8
0
 66
     1
 10
0.0
 20
0.0
 30
0.0
  0
VERTEX
  5
E9
  8
0
 10
-12.352366447509899
 20
-5.0608849735195909
 30
0.0
  0
VERTEX
  5
EA
  8
0
 10
-12.354333156578161
 20
-5.0591081536026641
 30
0.0
  0
SEQEND
  5
EB
  8
0
  0
POLYLINE
  5
EC
  8
0
 66
     1
 10
0.0
 20
0.0
 30
0.0
  0
VERTEX
  5
ED
  8
0
 10
-12.354346720089101
 20
-5.0590945900917168
 30
0.0
  0
VERTEX
  5
EE
  8
0
 10
-12.354346720089101
 20
-5.0590945900917168
 30
0.0
  0
SEQEND
  5
EF
  8
0
  0
POLYLINE
  5
F0
  8
0
 66
     1
 10
0.0
 20
0.0
 30
0.0
  0
VERTEX
  5
F1
  8
0
 10
-11.65619212781553
 20
-2.0557399534378642
 30
0.0
  0
VERTEX
  5
F2
  8
0
 10
-11.648691506333989
 20
-2.0461505512903382
 30
0.0
  0
SEQEND
  5
F3
  8
0
  0
POLYLINE
  5
F4
  8
0
 66
     1
 10
0.0
 20
0.0
 30
0.0
  0
VERTEX
  5
F5
  8
0
 10
-11.648691506333989
 20
-2.0461505512903382
 30
0.0
  0
VERTEX
  5
F6
  8
0
 10
-11.646209383854289
 20
-2.043030943802477
 30
0.0
  0
VERTEX
  5
F7
  8
0
 10
-11.6456939704433
 20
-2.0423392047508742
 30
0.0
  0
SEQEND
  5
F8
  8
0
  0
POLYLINE
  5
F9
  8
0
 66
     1
 10
0.0
 20
0.0
 30
0.0
  0
VERTEX
  5
FA
  8
0
 10
-11.648691506333989
 20
-2.599555356126757
 30
0.0
  0
VERTEX
  5
FB
  8
0
 10
-11.64622294736524
 20
-2.6026749636146169
 30
0.0
  0
SEQEND
  5
FC
  8
0
  0
POLYLINE
  5
FD
  8
0
 66
     1
 10
0.0
 20
0.0
 30
0.0
  0
VERTEX
  5
FE
  8
0
 10
-11.64622294736524
 20
-2.6026749636146169
 30
0.0
  0
VERTEX
  5
FF
  8
0
 10
-11.645666843421861
 20
-2.6033938296880019
 30
0.0
  0
SEQEND
  5
100
  8
0
  0
POLYLINE
  5
101
  8
0
 66
     1
 10
0.0
 20
0.0
 30
0.0
  0
VERTEX
  5
102
  8
0
 10
-11.64568040693235
 20
-5.0591081536026641
 30
0.0
  0
VERTEX
  5
103
  8
0
 10
-11.64568040693235
 20
-5.0591081536026641
 30
0.0
  0
SEQEND
  5
104
  8
0
  0
POLYLINE
  5
105
  8
0
 66
     1
 10
0.0
 20
0.0
 30
0.0
  0
VERTEX
  5
106
  8
0
 10
-11.64568040693235
 20
-5.0590945900917168
 30
0.0
  0
VERTEX
  5
107
  8
0
 10
-11.64568040693235
 20
-5.0590945900917168
 30
0.0
  0
SEQEND
  5
108
  8
0
  0
POLYLINE
  5
109
  8
0
 66
     1
 10
0.0
 20
0.0
 30
0.0
  0
VERTEX
  5
10A
  8
0
 10
-11.647701370044389
 20
-5.0609392275628116
 30
0.0
  0
VERTEX
  5
10B
  8
0
 10
-11.64568040693235
 20
-5.0591081536026641
 30
0.0
  0
SEQEND
  5
10C
  8
0
  0
POLYLINE
  5
10D
  8
0
 66
     1
 10
0.0
 20
0.0
 30
0.0
  0
VERTEX
  5
10E
  8
0
 10
-11.659379552857679
 20
-5.0713966944026652
 30
0.0
  0
VERTEX
  5
10F
  8
0
 10
-11.65540544418832
 20
-5.0678430545685842
 30
0.0
  0
VERTEX
  5
110
  8
0
 10
-11.65212307457046
 20
-5.0648997727214464
 30
0.0
  0
VERTEX
  5
111
  8
0
 10
-11.64954600751549
 20
-5.0625668488609099
 30
0.0
  0
VERTEX
  5
112
  8
0
 10
-11.64771493355534
 20
-5.0609256640520917
 30
0.0
  0
SEQEND
  5
113
  8
0
  0
POLYLINE
  5
114
  8
0
 66
     1
 10
0.0
 20
0.0
 30
0.0
  0
VERTEX
  5
115
  8
0
 10
-12.787416056958371
 20
-5.846524210561256
 30
0.0
  0
VERTEX
  5
116
  8
0
 10
-12.82677736534902
 20
-5.846524210561256
 30
0.0
  0
SEQEND
  5
117
  8
0
  0
POLYLINE
  5
118
  8
0
 66
     1
 10
0.0
 20
0.0
 30
0.0
  0
VERTEX
  5
119
  8
0
 10
12.787402493447861
 20
-5.846524210561256
 30
0.0
  0
VERTEX
  5
11A
  8
0
 10
12.826763801838521
 20
-5.846524210561256
 30
0.0
  0
SEQEND
  5
11B
  8
0
  0
POLYLINE
  5
11C
  8
0
 66
     1
 10
0.0
 20
0.0
 30
0.0
  0
VERTEX
  5
11D
  8
0
 10
11.999986436489269
 20
-5.2811970797170034
 30
0.0
  0
VERTEX
  5
11E
  8
0
 10
12.010484593861509
 20
-5.280925809500558
 30
0.0
  0
VERTEX
  5
11F
  8
0
 10
12.02125402144997
 20
-5.2799221097002373
 30
0.0
  0
VERTEX
  5
120
  8
0
 10
12.0322675922332
 20
-5.2781859803155831
 30
0.0
  0
VERTEX
  5
121
  8
0
 10
12.04357956025455
 20
-5.2757174213469389
 30
0.0
  0
VERTEX
  5
122
  8
0
 10
12.05510854444878
 20
-5.2725435598158583
 30
0.0
  0
VERTEX
  5
123
  8
0
 10
12.066691782686339
 20
-5.2686915227438931
 30
0.0
  0
VERTEX
  5
124
  8
0
 10
12.07819363985913
 20
-5.2642155641742638
 30
0.0
  0
VERTEX
  5
125
  8
0
 10
12.08972262405336
 20
-5.2591428111288669
 30
0.0
  0
VERTEX
  5
126
  8
0
 10
12.10125160824758
 20
-5.2535546446722492
 30
0.0
  0
VERTEX
  5
127
  8
0
 10
12.11275346542037
 20
-5.2475053188479697
 30
0.0
  0
VERTEX
  5
128
  8
0
 10
12.12420106854983
 20
-5.2409405796126967
 30
0.0
  0
VERTEX
  5
129
  8
0
 10
12.135648671679281
 20
-5.2340503161177594
 30
0.0
  0
VERTEX
  5
12A
  8
0
 10
12.14701489374351
 20
-5.2268345283632689
 30
0.0
  0
VERTEX
  5
12B
  8
0
 10
12.15832686176485
 20
-5.2193203433706676
 30
0.0
  0
VERTEX
  5
12C
  8
0
 10
12.169584575742871
 20
-5.2115348881618502
 30
0.0
  0
VERTEX
  5
12D
  8
0
 10
12.18073378163421
 20
-5.2035866708231424
 30
0.0
  0
VERTEX
  5
12E
  8
0
 10
12.19182873348222
 20
-5.1953943102898839
 30
0.0
  0
VERTEX
  5
12F
  8
0
 10
12.20286943128735
 20
-5.1870934416699583
 30
0.0
  0
VERTEX
  5
130
  8
0
 10
12.21380162100535
 20
-5.1786298109202562
 30
0.0
  0
VERTEX
  5
131
  8
0
 10
12.22465242965904
 20
-5.1700847991056662
 30
0.0
  0
VERTEX
  5
132
  8
0
 10
12.235367603204161
 20
-5.161512660269409
 30
0.0
  0
VERTEX
  5
133
  8
0
 10
12.245947141641169
 20
-5.1529133944115983
 30
0.0
  0
VERTEX
  5
134
  8
0
 10
12.25633679092674
 20
-5.1443141285537868
 30
0.0
  0
VERTEX
  5
135
  8
0
 10
12.26640091595322
 20
-5.135904751847419
 30
0.0
  0
VERTEX
  5
136
  8
0
 10
12.27613951671969
 20
-5.1276852642923814
 30
0.0
  0
VERTEX
  5
137
  8
0
 10
12.28552546620471
 20
-5.119682792910452
 30
0.0
  0
VERTEX
  5
138
  8
0
 10
12.294423129300631
 20
-5.1120329728098559
 30
0.0
  0
VERTEX
  5
139
  8
0
 10
12.302832506007
 20
-5.1047629310119191
 30
0.0
  0
VERTEX
  5
13A
  8
0
 10
12.310699342280479
 20
-5.0978726675170938
 30
0.0
  0
VERTEX
  5
13B
  8
0
 10
12.317969384078641
 20
-5.0914706904114828
 30
0.0
  0
VERTEX
  5
13C
  8
0
 10
12.324642631400581
 20
-5.0856112537386471
 30
0.0
  0
VERTEX
  5
13D
  8
0
 10
12.33063770318153
 20
-5.0802672304768057
 30
0.0
  0
VERTEX
  5
13E
  8
0
 10
12.34062044714277
 20
-5.0713966944026652
 30
0.0
  0
SEQEND
  5
13F
  8
0
  0
POLYLINE
  5
140
  8
0
 66
     1
 10
0.0
 20
0.0
 30
0.0
  0
VERTEX
  5
141
  8
0
 10
-12.00001356351072
 20
-5.2811970797170034
 30
0.0
  0
VERTEX
  5
142
  8
0
 10
-11.98951540613848
 20
-5.280925809500558
 30
0.0
  0
VERTEX
  5
143
  8
0
 10
-11.97875954206097
 20
-5.2799221097002373
 30
0.0
  0
VERTEX
  5
144
  8
0
 10
-11.967732407766791
 20
-5.2781859803155831
 30
0.0
  0
VERTEX
  5
145
  8
0
 10
-11.95642043974545
 20
-5.2757174213469389
 30
0.0
  0
VERTEX
  5
146
  8
0
 10
-11.944905019062171
 20
-5.2725435598158583
 30
0.0
  0
VERTEX
  5
147
  8
0
 10
-11.933321780824601
 20
-5.2686915227438931
 30
0.0
  0
VERTEX
  5
148
  8
0
 10
-11.92181992365181
 20
-5.2642155641742638
 30
0.0
  0
VERTEX
  5
149
  8
0
 10
-11.910290939457591
 20
-5.2591428111288669
 30
0.0
  0
VERTEX
  5
14A
  8
0
 10
-11.89876195526336
 20
-5.2535546446722492
 30
0.0
  0
VERTEX
  5
14B
  8
0
 10
-11.88726009809057
 20
-5.2475053188479697
 30
0.0
  0
VERTEX
  5
14C
  8
0
 10
-11.87578536793967
 20
-5.2409405796126967
 30
0.0
  0
VERTEX
  5
14D
  8
0
 10
-11.86433776481022
 20
-5.2340503161177594
 30
0.0
  0
VERTEX
  5
14E
  8
0
 10
-11.85298510625649
 20
-5.2268345283632689
 30
0.0
  0
VERTEX
  5
14F
  8
0
 10
-11.841673138235141
 20
-5.2193203433706676
 30
0.0
  0
VERTEX
  5
150
  8
0
 10
-11.83042898776808
 20
-5.2115348881618502
 30
0.0
  0
VERTEX
  5
151
  8
0
 10
-11.819252654855299
 20
-5.2035866708231424
 30
0.0
  0
VERTEX
  5
152
  8
0
 10
-11.80817126651778
 20
-5.1953943102898839
 30
0.0
  0
VERTEX
  5
153
  8
0
 10
-11.7971441322236
 20
-5.1870934416699583
 30
0.0
  0
VERTEX
  5
154
  8
0
 10
-11.78619837899465
 20
-5.1786298109202562
 30
0.0
  0
VERTEX
  5
155
  8
0
 10
-11.77534757034141
 20
-5.1700847991056662
 30
0.0
  0
VERTEX
  5
156
  8
0
 10
-11.76464596030678
 20
-5.161512660269409
 30
0.0
  0
VERTEX
  5
157
  8
0
 10
-11.754066421869769
 20
-5.1529133944115983
 30
0.0
  0
VERTEX
  5
158
  8
0
 10
-11.7436767725842
 20
-5.1443141285537868
 30
0.0
  0
VERTEX
  5
159
  8
0
 10
-11.73358552053628
 20
-5.135904751847419
 30
0.0
  0
VERTEX
  5
15A
  8
0
 10
-11.723874046791259
 20
-5.1276852642923814
 30
0.0
  0
VERTEX
  5
15B
  8
0
 10
-11.71447453379529
 20
-5.119682792910452
 30
0.0
  0
VERTEX
  5
15C
  8
0
 10
-11.705590434210309
 20
-5.1120329728098559
 30
0.0
  0
VERTEX
  5
15D
  8
0
 10
-11.697167493993
 20
-5.1047629310119191
 30
0.0
  0
VERTEX
  5
15E
  8
0
 10
-11.68931422123047
 20
-5.0978726675170938
 30
0.0
  0
VERTEX
  5
15F
  8
0
 10
-11.682030615921811
 20
-5.0914706904114828
 30
0.0
  0
VERTEX
  5
160
  8
0
 10
-11.67537093211036
 20
-5.0856112537386471
 30
0.0
  0
VERTEX
  5
161
  8
0
 10
-11.669362296818919
 20
-5.0802672304768057
 30
0.0
  0
VERTEX
  5
162
  8
0
 10
-11.65936598934673
 20
-5.0713966944026652
 30
0.0
  0
SEQEND
  5
163
  8
0
  0
POLYLINE
  5
164
  8
0
 66
     1
 10
0.0
 20
0.0
 30
0.0
  0
VERTEX
  5
165
  8
0
 10
-12.787416056958371
 20
-5.0591081536026641
 30
0.0
  0
VERTEX
  5
166
  8
0
 10
-12.82677736534902
 20
-5.0591081536026641
 30
0.0
  0
SEQEND
  5
167
  8
0
  0
POLYLINE
  5
168
  8
0
 66
     1
 10
0.0
 20
0.0
 30
0.0
  0
VERTEX
  5
169
  8
0
 10
12.787402493447861
 20
-5.0591081536026641
 30
0.0
  0
VERTEX
  5
16A
  8
0
 10
12.826763801838521
 20
-5.0591081536026641
 30
0.0
  0
SEQEND
  5
16B
  8
0
  0
POLYLINE
  5
16C
  8
0
 66
     1
 10
0.0
 20
0.0
 30
0.0
  0
VERTEX
  5
16D
  8
0
 10
11.649532444004979
 20
-2.5984431482397659
 30
0.0
  0
VERTEX
  5
16E
  8
0
 10
-11.64955957102598
 20
-2.5984431482397659
 30
0.0
  0
SEQEND
  5
16F
  8
0
  0
POLYLINE
  5
170
  8
0
 66
     1
 10
0.0
 20
0.0
 30
0.0
  0
VERTEX
  5
171
  8
0
 10
11.649532444004979
 20
-2.047262759177328
 30
0.0
  0
VERTEX
  5
172
  8
0
 10
-11.64955957102598
 20
-2.047262759177328
 30
0.0
  0
SEQEND
  5
173
  8
0
  0
POLYLINE
  5
174
  8
0
 66
     1
 10
0.0
 20
0.0
 30
0.0
  0
VERTEX
  5
175
  8
0
 10
-12.354346720089101
 20
-0.5511803890624379
 30
0.0
  0
VERTEX
  5
176
  8
0
 10
-11.645666843421861
 20
-0.5511803890624379
 30
0.0
  0
SEQEND
  5
177
  8
0
  0
POLYLINE
  5
178
  8
0
 66
     1
 10
0.0
 20
0.0
 30
0.0
  0
VERTEX
  5
179
  8
0
 10
11.64565327991135
 20
-0.5511803890624379
 30
0.0
  0
VERTEX
  5
17A
  8
0
 10
12.35431959306765
 20
-0.5511803890624379
 30
0.0
  0
SEQEND
  5
17B
  8
0
  0
POLYLINE
  5
17C
  8
0
 66
     1
 10
0.0
 20
0.0
 30
0.0
  0
VERTEX
  5
17D
  8
0
 10
12.36725918238675
 20
-0.5328153954163782
 30
0.0
  0
VERTEX
  5
17E
  8
0
 10
11.632713690591791
 20
-0.5328153954163782
 30
0.0
  0
SEQEND
  5
17F
  8
0
  0
POLYLINE
  5
180
  8
0
 66
     1
 10
0.0
 20
0.0
 30
0.0
  0
VERTEX
  5
181
  8
0
 10
-11.632740817613239
 20
-0.5328153954163782
 30
0.0
  0
VERTEX
  5
182
  8
0
 10
-12.36727274589726
 20
-0.5328153954163782
 30
0.0
  0
SEQEND
  5
183
  8
0
  0
POLYLINE
  5
184
  8
0
 66
     1
 10
0.0
 20
0.0
 30
0.0
  0
VERTEX
  5
185
  8
0
 10
11.66911815362413
 20
-5.0800909048361973
 30
0.0
  0
VERTEX
  5
186
  8
0
 10
11.67511322540553
 20
-5.0853942375656507
 30
0.0
  0
VERTEX
  5
187
  8
0
 10
11.681732218684139
 20
-5.0912265472168201
 30
0.0
  0
VERTEX
  5
188
  8
0
 10
11.68897513345995
 20
-5.0976285243223174
 30
0.0
  0
VERTEX
  5
189
  8
0
 10
11.696841969733891
 20
-5.104491660795702
 30
0.0
  0
VERTEX
  5
18A
  8
0
 10
11.70522421941836
 20
-5.1117617025934123
 30
0.0
  0
VERTEX
  5
18B
  8
0
 10
11.714121882514281
 20
-5.1193843956724541
 30
0.0
  0
VERTEX
  5
18C
  8
0
 10
11.72348070497786
 20
-5.1273868670543834
 30
0.0
  0
VERTEX
  5
18D
  8
0
 10
11.733246432766229
 20
-5.1356063546093083
 30
0.0
  0
VERTEX
  5
18E
  8
0
 10
11.743283430770809
 20
-5.1440157313157888
 30
0.0
  0
VERTEX
  5
18F
  8
0
 10
11.75367308005638
 20
-5.1526149971737141
 30
0.0
  0
VERTEX
  5
190
  8
0
 10
11.764252618493391
 20
-5.161241390053191
 30
0.0
  0
VERTEX
  5
191
  8
0
 10
11.77499491906041
 20
-5.1698135288893354
 30
0.0
  0
VERTEX
  5
192
  8
0
 10
11.785818600692201
 20
-5.1783856677255917
 30
0.0
  0
VERTEX
  5
193
  8
0
 10
11.796777917432101
 20
-5.1868492984751811
 30
0.0
  0
VERTEX
  5
194
  8
0
 10
11.807845742258669
 20
-5.1951772941167738
 30
0.0
  0
VERTEX
  5
195
  8
0
 10
11.818940694106679
 20
-5.203369654650146
 30
0.0
  0
VERTEX
  5
196
  8
0
 10
11.830117027019909
 20
-5.2113449990104073
 30
0.0
  0
VERTEX
  5
197
  8
0
 10
11.841401868019361
 20
-5.2191304542192247
 30
0.0
  0
VERTEX
  5
198
  8
0
 10
11.85271383604071
 20
-5.2266717662333804
 30
0.0
  0
VERTEX
  5
199
  8
0
 10
11.86410718512683
 20
-5.2339146810095372
 30
0.0
  0
VERTEX
  5
19A
  8
0
 10
11.87558191527773
 20
-5.240804944504589
 30
0.0
  0
VERTEX
  5
19B
  8
0
 10
11.88705664542862
 20
-5.2473968107615292
 30
0.0
  0
VERTEX
  5
19C
  8
0
 10
11.89861275664474
 20
-5.253473263607475
 30
0.0
  0
VERTEX
  5
19D
  8
0
 10
11.910114613817081
 20
-5.2590614300638663
 30
0.0
  0
VERTEX
  5
19E
  8
0
 10
11.921643598011309
 20
-5.264161310131044
 30
0.0
  0
VERTEX
  5
19F
  8
0
 10
11.933199709227431
 20
-5.2686372687005578
 30
0.0
  0
VERTEX
  5
1A0
  8
0
 10
11.94478294746499
 20
-5.2724893057725231
 30
0.0
  0
VERTEX
  5
1A1
  8
0
 10
11.95633905868066
 20
-5.2757174213469389
 30
0.0
  0
VERTEX
  5
1A2
  8
0
 10
11.967678153723901
 20
-5.2781859803155831
 30
0.0
  0
VERTEX
  5
1A3
  8
0
 10
11.978718851528569
 20
-5.2798949826785702
 30
0.0
  0
VERTEX
  5
1A4
  8
0
 10
11.98948827911703
 20
-5.280925809500558
 30
0.0
  0
VERTEX
  5
1A5
  8
0
 10
11.999986436489269
 20
-5.2811970797170034
 30
0.0
  0
SEQEND
  5
1A6
  8
0
  0
POLYLINE
  5
1A7
  8
0
 66
     1
 10
0.0
 20
0.0
 30
0.0
  0
VERTEX
  5
1A8
  8
0
 10
11.64763355249055
 20
-5.0608849735195909
 30
0.0
  0
VERTEX
  5
1A9
  8
0
 10
11.64942393591831
 20
-5.0624990313067419
 30
0.0
  0
VERTEX
  5
1AA
  8
0
 10
11.652001002973281
 20
-5.0648048281457241
 30
0.0
  0
VERTEX
  5
1AB
  8
0
 10
11.65525624556971
 20
-5.0677209829713092
 30
0.0
  0
VERTEX
  5
1AC
  8
0
 10
11.65918966370622
 20
-5.0712474957836093
 30
0.0
  0
VERTEX
  5
1AD
  8
0
 10
11.669145280646021
 20
-5.0800773413253628
 30
0.0
  0
SEQEND
  5
1AE
  8
0
  0
POLYLINE
  5
1AF
  8
0
 66
     1
 10
0.0
 20
0.0
 30
0.0
  0
VERTEX
  5
1B0
  8
0
 10
11.64763355249055
 20
-5.0608849735195909
 30
0.0
  0
VERTEX
  5
1B1
  8
0
 10
11.64565327991135
 20
-5.0591081536026641
 30
0.0
  0
SEQEND
  5
1B2
  8
0
  0
POLYLINE
  5
1B3
  8
0
 66
     1
 10
0.0
 20
0.0
 30
0.0
  0
VERTEX
  5
1B4
  8
0
 10
11.64565327991135
 20
-5.0590945900917168
 30
0.0
  0
VERTEX
  5
1B5
  8
0
 10
11.64565327991135
 20
-5.0590945900917168
 30
0.0
  0
SEQEND
  5
1B6
  8
0
  0
POLYLINE
  5
1B7
  8
0
 66
     1
 10
0.0
 20
0.0
 30
0.0
  0
VERTEX
  5
1B8
  8
0
 10
11.65617856430503
 20
-2.5899795174900642
 30
0.0
  0
VERTEX
  5
1B9
  8
0
 10
11.648664379312541
 20
-2.599555356126757
 30
0.0
  0
SEQEND
  5
1BA
  8
0
  0
POLYLINE
  5
1BB
  8
0
 66
     1
 10
0.0
 20
0.0
 30
0.0
  0
VERTEX
  5
1BC
  8
0
 10
11.648664379312541
 20
-2.5995689196375902
 30
0.0
  0
VERTEX
  5
1BD
  8
0
 10
11.646195820343779
 20
-2.6026749636146169
 30
0.0
  0
VERTEX
  5
1BE
  8
0
 10
11.64568040693279
 20
-2.6033667026663352
 30
0.0
  0
SEQEND
  5
1BF
  8
0
  0
POLYLINE
  5
1C0
  8
0
 66
     1
 10
0.0
 20
0.0
 30
0.0
  0
VERTEX
  5
1C1
  8
0
 10
11.64869150633398
 20
-2.046164114801285
 30
0.0
  0
VERTEX
  5
1C2
  8
0
 10
11.646195820343779
 20
-2.0430445073134251
 30
0.0
  0
SEQEND
  5
1C3
  8
0
  0
POLYLINE
  5
1C4
  8
0
 66
     1
 10
0.0
 20
0.0
 30
0.0
  0
VERTEX
  5
1C5
  8
0
 10
11.64565327991135
 20
-2.0423392047508742
 30
0.0
  0
VERTEX
  5
1C6
  8
0
 10
11.646222947365681
 20
-2.043030943802477
 30
0.0
  0
SEQEND
  5
1C7
  8
0
  0
POLYLINE
  5
1C8
  8
0
 66
     1
 10
0.0
 20
0.0
 30
0.0
  0
VERTEX
  5
1C9
  8
0
 10
12.35431959306765
 20
-5.0591081536026641
 30
0.0
  0
VERTEX
  5
1CA
  8
0
 10
12.35431959306765
 20
-5.0591081536026641
 30
0.0
  0
SEQEND
  5
1CB
  8
0
  0
POLYLINE
  5
1CC
  8
0
 66
     1
 10
0.0
 20
0.0
 30
0.0
  0
VERTEX
  5
1CD
  8
0
 10
12.35431959306765
 20
-5.0590945900917168
 30
0.0
  0
VERTEX
  5
1CE
  8
0
 10
12.35431959306765
 20
-5.0590945900917168
 30
0.0
  0
SEQEND
  5
1CF
  8
0
  0
POLYLINE
  5
1D0
  8
0
 66
     1
 10
0.0
 20
0.0
 30
0.0
  0
VERTEX
  5
1D1
  8
0
 10
12.352285066445109
 20
-5.0609392275628116
 30
0.0
  0
VERTEX
  5
1D2
  8
0
 10
12.35431959306765
 20
-5.0591081536026641
 30
0.0
  0
SEQEND
  5
1D3
  8
0
  0
POLYLINE
  5
1D4
  8
0
 66
     1
 10
0.0
 20
0.0
 30
0.0
  0
VERTEX
  5
1D5
  8
0
 10
12.34062044714277
 20
-5.0713966944026652
 30
0.0
  0
VERTEX
  5
1D6
  8
0
 10
12.34458099230118
 20
-5.0678430545685842
 30
0.0
  0
VERTEX
  5
1D7
  8
0
 10
12.34786336191859
 20
-5.0648997727214464
 30
0.0
  0
VERTEX
  5
1D8
  8
0
 10
12.35044042897402
 20
-5.0625668488609099
 30
0.0
  0
VERTEX
  5
1D9
  8
0
 10
12.352285066445109
 20
-5.0609256640520917
 30
0.0
  0
SEQEND
  5
1DA
  8
0
  0
POLYLINE
  5
1DB
  8
0
 66
     1
 10
0.0
 20
0.0
 30
0.0
  0
VERTEX
  5
1DC
  8
0
 10
11.64565327991135
 20
-0.5511803890624379
 30
0.0
  0
VERTEX
  5
1DD
  8
0
 10
11.64565327991135
 20
-2.043030943802477
 30
0.0
  0
SEQEND
  5
1DE
  8
0
  0
POLYLINE
  5
1DF
  8
0
 66
     1
 10
0.0
 20
0.0
 30
0.0
  0
VERTEX
  5
1E0
  8
0
 10
11.64565327991135
 20
-2.6033802661770551
 30
0.0
  0
VERTEX
  5
1E1
  8
0
 10
11.64565327991135
 20
-5.0591081536026641
 30
0.0
  0
SEQEND
  5
1E2
  8
0
  0
POLYLINE
  5
1E3
  8
0
 66
     1
 10
0.0
 20
0.0
 30
0.0
  0
VERTEX
  5
1E4
  8
0
 10
11.783512803852989
 20
-2.322859735464021
 30
0.0
  0
VERTEX
  5
1E5
  8
0
 10
11.78329578768011
 20
-2.3119682362780618
 30
0.0
  0
VERTEX
  5
1E6
  8
0
 10
11.78242772298767
 20
-2.3008597209191062
 30
0.0
  0
VERTEX
  5
1E7
  8
0
 10
11.780962863819459
 20
-2.2895206258763201
 30
0.0
  0
VERTEX
  5
1E8
  8
0
 10
11.77890121017548
 20
-2.277991641682092
 30
0.0
  0
VERTEX
  5
1E9
  8
0
 10
11.77626988907717
 20
-2.2662456413146401
 30
0.0
  0
VERTEX
  5
1EA
  8
0
 10
11.772906138394539
 20
-2.2542148072201371
 30
0.0
  0
VERTEX
  5
1EB
  8
0
 10
11.76883708514946
 20
-2.2418584488660822
 30
0.0
  0
VERTEX
  5
1EC
  8
0
 10
11.76414411040672
 20
-2.2292443838064169
 30
0.0
  0
VERTEX
  5
1ED
  8
0
 10
11.75874583310155
 20
-2.2164404295954219
 30
0.0
  0
VERTEX
  5
1EE
  8
0
 10
11.75272363429916
 20
-2.2034058957003699
 30
0.0
  0
VERTEX
  5
1EF
  8
0
 10
11.74610464102056
 20
-2.190208599675656
 30
0.0
  0
VERTEX
  5
1F0
  8
0
 10
11.738970234330949
 20
-2.1770519941833291
 30
0.0
  0
VERTEX
  5
1F1
  8
0
 10
11.7313475412518
 20
-2.1638546981586151
 30
0.0
  0
VERTEX
  5
1F2
  8
0
 10
11.723372196891651
 20
-2.1506845291555692
 30
0.0
  0
VERTEX
  5
1F3
  8
0
 10
11.71539685253105
 20
-2.1381247181391241
 30
0.0
  0
VERTEX
  5
1F4
  8
0
 10
11.70750288923567
 20
-2.1262159556420102
 30
0.0
  0
VERTEX
  5
1F5
  8
0
 10
11.6997716880703
 20
-2.114903987620778
 30
0.0
  0
VERTEX
  5
1F6
  8
0
 10
11.6924745192507
 20
-2.104460084291758
 30
0.0
  0
VERTEX
  5
1F7
  8
0
 10
11.685719890863981
 20
-2.095019880763402
 30
0.0
  0
VERTEX
  5
1F8
  8
0
 10
11.67942642184493
 20
-2.0864341784163112
 30
0.0
  0
VERTEX
  5
1F9
  8
0
 10
11.673675493258759
 20
-2.0786894137399941
 30
0.0
  0
VERTEX
  5
1FA
  8
0
 10
11.66846710510503
 20
-2.071772023223275
 30
0.0
  0
VERTEX
  5
1FB
  8
0
 10
11.663828384405621
 20
-2.0656820068666089
 30
0.0
  0
VERTEX
  5
1FC
  8
0
 10
11.659732204139109
 20
-2.0603515471156011
 30
0.0
  0
VERTEX
  5
1FD
  8
0
 10
11.656205691326919
 20
-2.0557399534378642
 30
0.0
  0
VERTEX
  5
1FE
  8
0
 10
11.648664379312541
 20
-2.046164114801285
 30
0.0
  0
SEQEND
  5
1FF
  8
0
  0
POLYLINE
  5
200
  8
0
 66
     1
 10
0.0
 20
0.0
 30
0.0
  0
VERTEX
  5
201
  8
0
 10
12.35431959306765
 20
-0.5511803890624379
 30
0.0
  0
VERTEX
  5
202
  8
0
 10
12.35431959306765
 20
-5.0590945900917168
 30
0.0
  0
SEQEND
  5
203
  8
0
  0
POLYLINE
  5
204
  8
0
 66
     1
 10
0.0
 20
0.0
 30
0.0
  0
VERTEX
  5
205
  8
0
 10
12.787402493447861
 20
-5.0591081536026641
 30
0.0
  0
VERTEX
  5
206
  8
0
 10
12.787402493447861
 20
-5.846497083539588
 30
0.0
  0
SEQEND
  5
207
  8
0
  0
POLYLINE
  5
208
  8
0
 66
     1
 10
0.0
 20
0.0
 30
0.0
  0
VERTEX
  5
209
  8
0
 10
12.826763801838521
 20
-5.0591081536026641
 30
0.0
  0
VERTEX
  5
20A
  8
0
 10
12.826763801838521
 20
-5.846497083539588
 30
0.0
  0
SEQEND
  5
20B
  8
0
  0
POLYLINE
  5
20C
  8
0
 66
     1
 10
0.0
 20
0.0
 30
0.0
  0
VERTEX
  5
20D
  8
0
 10
11.783512803852989
 20
-2.322859735464021
 30
0.0
  0
VERTEX
  5
20E
  8
0
 10
11.78329578768011
 20
-2.333737671139033
 30
0.0
  0
VERTEX
  5
20F
  8
0
 10
11.78242772298767
 20
-2.3448597500089359
 30
0.0
  0
VERTEX
  5
210
  8
0
 10
11.780962863819459
 20
-2.356158154519334
 30
0.0
  0
VERTEX
  5
211
  8
0
 10
11.77890121017548
 20
-2.3677142657352301
 30
0.0
  0
VERTEX
  5
212
  8
0
 10
11.77626988907717
 20
-2.3794738296132891
 30
0.0
  0
VERTEX
  5
213
  8
0
 10
11.772906138394539
 20
-2.3914911001970718
 30
0.0
  0
VERTEX
  5
214
  8
0
 10
11.76883708514946
 20
-2.4038610220619598
 30
0.0
  0
VERTEX
  5
215
  8
0
 10
11.76411698338528
 20
-2.4165022141432919
 30
0.0
  0
VERTEX
  5
216
  8
0
 10
11.75874583310155
 20
-2.4293332953759541
 30
0.0
  0
VERTEX
  5
217
  8
0
 10
11.752696507277269
 20
-2.4423542657600592
 30
0.0
  0
VERTEX
  5
218
  8
0
 10
11.74605038697722
 20
-2.4555515617847732
 30
0.0
  0
VERTEX
  5
219
  8
0
 10
11.73894310730906
 20
-2.4687217307879332
 30
0.0
  0
VERTEX
  5
21A
  8
0
 10
11.7313204142299
 20
-2.4819461538343139
 30
0.0
  0
VERTEX
  5
21B
  8
0
 10
11.72331794284832
 20
-2.4950756323049741
 30
0.0
  0
VERTEX
  5
21C
  8
0
 10
11.715369725509611
 20
-2.5076625703429718
 30
0.0
  0
VERTEX
  5
21D
  8
0
 10
11.70747576221423
 20
-2.5195577693293671
 30
0.0
  0
VERTEX
  5
21E
  8
0
 10
11.6997716880703
 20
-2.530856173839652
 30
0.0
  0
VERTEX
  5
21F
  8
0
 10
11.69244739222926
 20
-2.5412729501470031
 30
0.0
  0
VERTEX
  5
220
  8
0
 10
11.685692763842541
 20
-2.5507131536754741
 30
0.0
  0
VERTEX
  5
221
  8
0
 10
11.67939929482349
 20
-2.5592988560224512
 30
0.0
  0
VERTEX
  5
222
  8
0
 10
11.67364836623687
 20
-2.5670571842097161
 30
0.0
  0
VERTEX
  5
223
  8
0
 10
11.66843997808359
 20
-2.573974574726321
 30
0.0
  0
VERTEX
  5
224
  8
0
 10
11.663801257384179
 20
-2.5800510275721531
 30
0.0
  0
VERTEX
  5
225
  8
0
 10
11.659732204139109
 20
-2.5853814873232741
 30
0.0
  0
VERTEX
  5
226
  8
0
 10
11.65617856430503
 20
-2.5899659539793438
 30
0.0
  0
SEQEND
  5
227
  8
0
  0
POLYLINE
  8
0
  5
396
  66
     1
 10
0.000000
 20
0.000000
 30
0.000000
  70
     8
  0
VERTEX
  8
0
  5
397
 10
-11.6475
 20
-0.550570
 30
0.000000
  70
    32
  0
VERTEX
  8
0
  5
398
 10
-11.6473
 20
-0.550519
 30
0.000000
  70
    32
  0
VERTEX
  8
0
  5
399
 10
-11.6471
 20
-0.550466
 30
0.000000
  70
    32
  0
VERTEX
  8
0
  5
39A
 10
-11.6469
 20
-0.550412
 30
0.000000
  70
    32
  0
VERTEX
  8
0
  5
39B
 10
-11.6467
 20
-0.550355
 30
0.000000
  70
    32
  0
VERTEX
  8
0
  5
39C
 10
-11.6465
 20
-0.550297
 30
0.000000
  70
    32
  0
VERTEX
  8
0
  5
39D
 10
-11.6463
 20
-0.550237
 30
0.000000
  70
    32
  0
VERTEX
  8
0
  5
39E
 10
-11.6462
 20
-0.550175
 30
0.000000
  70
    32
  0
VERTEX
  8
0
  5
39F
 10
-11.6460
 20
-0.550111
 30
0.000000
  70
    32
  0
VERTEX
  8
0
  5
3A0
 10
-11.6458
 20
-0.550046
 30
0.000000
  70
    32
  0
VERTEX
  8
0
  5
3A1
 10
-11.6456
 20
-0.549978
 30
0.000000
  70
    32
  0
VERTEX
  8
0
  5
3A2
 10
-11.6454
 20
-0.549909
 30
0.000000
  70
    32
  0
VERTEX
  8
0
  5
3A3
 10
-11.6452
 20
-0.549838
 30
0.000000
  70
    32
  0
VERTEX
  8
0
  5
3A4
 10
-11.6450
 20
-0.549766
 30
0.000000
  70
    32
  0
VERTEX
  8
0
  5
3A5
 10
-11.6449
 20
-0.549691
 30
0.000000
  70
    32
  0
VERTEX
  8
0
  5
3A6
 10
-11.6447
 20
-0.549615
 30
0.000000
  70
    32
  0
VERTEX
  8
0
  5
3A7
 10
-11.6445
 20
-0.549538
 30
0.000000
  70
    32
  0
VERTEX
  8
0
  5
3A8
 10
-11.6443
 20
-0.549458
 30
0.000000
  70
    32
  0
VERTEX
  8
0
  5
3A9
 10
-11.6441
 20
-0.549377
 30
0.000000
  70
    32
  0
VERTEX
  8
0
  5
3AA
 10
-11.6440
 20
-0.549294
 30
0.000000
  70
    32
  0
VERTEX
  8
0
  5
3AB
 10
-11.6438
 20
-0.549210
 30
0.000000
  70
    32
  0
VERTEX
  8
0
  5
3AC
 10
-11.6436
 20
-0.549123
 30
0.000000
  70
    32
  0
VERTEX
  8
0
  5
3AD
 10
-11.6434
 20
-0.549036
 30
0.000000
  70
    32
  0
VERTEX
  8
0
  5
3AE
 10
-11.6433
 20
-0.548946
 30
0.000000
  70
    32
  0
VERTEX
  8
0
  5
3AF
 10
-11.6431
 20
-0.548855
 30
0.000000
  70
    32
  0
VERTEX
  8
0
  5
3B0
 10
-11.6429
 20
-0.548762
 30
0.000000
  70
    32
  0
VERTEX
  8
0
  5
3B1
 10
-11.6427
 20
-0.548668
 30
0.000000
  70
    32
  0
VERTEX
  8
0
  5
3B2
 10
-11.6426
 20
-0.548572
 30
0.000000
  70
    32
  0
VERTEX
  8
0
  5
3B3
 10
-11.6424
 20
-0.548475
 30
0.000000
  70
    32
  0
VERTEX
  8
0
  5
3B4
 10
-11.6422
 20
-0.548376
 30
0.000000
  70
    32
  0
VERTEX
  8
0
  5
3B5
 10
-11.6421
 20
-0.548275
 30
0.000000
  70
    32
  0
VERTEX
  8
0
  5
3B6
 10
-11.6419
 20
-0.548173
 30
0.000000
  70
    32
  0
VERTEX
  8
0
  5
3B7
 10
-11.6418
 20
-0.548069
 30
0.000000
  70
    32
  0
VERTEX
  8
0
  5
3B8
 10
-11.6416
 20
-0.547964
 30
0.000000
  70
    32
  0
VERTEX
  8
0
  5
3B9
 10
-11.6414
 20
-0.547857
 30
0.000000
  70
    32
  0
VERTEX
  8
0
  5
3BA
 10
-11.6413
 20
-0.547749
 30
0.000000
  70
    32
  0
VERTEX
  8
0
  5
3BB
 10
-11.6411
 20
-0.547639
 30
0.000000
  70
    32
  0
VERTEX
  8
0
  5
3BC
 10
-11.6410
 20
-0.547528
 30
0.000000
  70
    32
  0
VERTEX
  8
0
  5
3BD
 10
-11.6408
 20
-0.547415
 30
0.000000
  70
    32
  0
VERTEX
  8
0
  5
3BE
 10
-11.6406
 20
-0.547301
 30
0.000000
  70
    32
  0
VERTEX
  8
0
  5
3BF
 10
-11.6405
 20
-0.547186
 30
0.000000
  70
    32
  0
VERTEX
  8
0
  5
3C0
 10
-11.6403
 20
-0.547069
 30
0.000000
  70
    32
  0
VERTEX
  8
0
  5
3C1
 10
-11.6402
 20
-0.546950
 30
0.000000
  70
    32
  0
VERTEX
  8
0
  5
3C2
 10
-11.6400
 20
-0.546830
 30
0.000000
  70
    32
  0
VERTEX
  8
0
  5
3C3
 10
-11.6399
 20
-0.546709
 30
0.000000
  70
    32
  0
VERTEX
  8
0
  5
3C4
 10
-11.6397
 20
-0.546586
 30
0.000000
  70
    32
  0
VERTEX
  8
0
  5
3C5
 10
-11.6396
 20
-0.546462
 30
0.000000
  70
    32
  0
VERTEX
  8
0
  5
3C6
 10
-11.6394
 20
-0.546337
 30
0.000000
  70
    32
  0
VERTEX
  8
0
  5
3C7
 10
-11.6393
 20
-0.546210
 30
0.000000
  70
    32
  0
VERTEX
  8
0
  5
3C8
 10
-11.6392
 20
-0.546082
 30
0.000000
  70
    32
  0
VERTEX
  8
0
  5
3C9
 10
-11.6390
 20
-0.545952
 30
0.000000
  70
    32
  0
VERTEX
  8
0
  5
3CA
 10
-11.6389
 20
-0.545821
 30
0.000000
  70
    32
  0
VERTEX
  8
0
  5
3CB
 10
-11.6387
 20
-0.545689
 30
0.000000
  70
    32
  0
VERTEX
  8
0
  5
3CC
 10
-11.6386
 20
-0.545556
 30
0.000000
  70
    32
  0
VERTEX
  8
0
  5
3CD
 10
-11.6385
 20
-0.545421
 30
0.000000
  70
    32
  0
VERTEX
  8
0
  5
3CE
 10
-11.6383
 20
-0.545285
 30
0.000000
  70
    32
  0
VERTEX
  8
0
  5
3CF
 10
-11.6382
 20
-0.545148
 30
0.000000
  70
    32
  0
VERTEX
  8
0
  5
3D0
 10
-11.6381
 20
-0.545009
 30
0.000000
  70
    32
  0
VERTEX
  8
0
  5
3D1
 10
-11.6379
 20
-0.544869
 30
0.000000
  70
    32
  0
VERTEX
  8
0
  5
3D2
 10
-11.6378
 20
-0.544728
 30
0.000000
  70
    32
  0
VERTEX
  8
0
  5
3D3
 10
-11.6377
 20
-0.544586
 30
0.000000
  70
    32
  0
VERTEX
  8
0
  5
3D4
 10
-11.6376
 20
-0.544442
 30
0.000000
  70
    32
  0
VERTEX
  8
0
  5
3D5
 10
-11.6374
 20
-0.544298
 30
0.000000
  70
    32
  0
VERTEX
  8
0
  5
3D6
 10
-11.6373
 20
-0.544152
 30
0.000000
  70
    32
  0
VERTEX
  8
0
  5
3D7
 10
-11.6372
 20
-0.544004
 30
0.000000
  70
    32
  0
VERTEX
  8
0
  5
3D8
 10
-11.6371
 20
-0.543856
 30
0.000000
  70
    32
  0
VERTEX
  8
0
  5
3D9
 10
-11.6369
 20
-0.543707
 30
0.000000
  70
    32
  0
VERTEX
  8
0
  5
3DA
 10
-11.6368
 20
-0.543556
 30
0.000000
  70
    32
  0
VERTEX
  8
0
  5
3DB
 10
-11.6367
 20
-0.543404
 30
0.000000
  70
    32
  0
VERTEX
  8
0
  5
3DC
 10
-11.6366
 20
-0.543251
 30
0.000000
  70
    32
  0
VERTEX
  8
0
  5
3DD
 10
-11.6365
 20
-0.543097
 30
0.000000
  70
    32
  0
VERTEX
  8
0
  5
3DE
 10
-11.6364
 20
-0.542942
 30
0.000000
  70
    32
  0
VERTEX
  8
0
  5
3DF
 10
-11.6363
 20
-0.542786
 30
0.000000
  70
    32
  0
VERTEX
  8
0
  5
3E0
 10
-11.6361
 20
-0.542629
 30
0.000000
  70
    32
  0
VERTEX
  8
0
  5
3E1
 10
-11.6360
 20
-0.542470
 30
0.000000
  70
    32
  0
VERTEX
  8
0
  5
3E2
 10
-11.6359
 20
-0.542311
 30
0.000000
  70
    32
  0
VERTEX
  8
0
  5
3E3
 10
-11.6358
 20
-0.542150
 30
0.000000
  70
    32
  0
VERTEX
  8
0
  5
3E4
 10
-11.6357
 20
-0.541988
 30
0.000000
  70
    32
  0
VERTEX
  8
0
  5
3E5
 10
-11.6356
 20
-0.541826
 30
0.000000
  70
    32
  0
VERTEX
  8
0
  5
3E6
 10
-11.6355
 20
-0.541662
 30
0.000000
  70
    32
  0
VERTEX
  8
0
  5
3E7
 10
-11.6354
 20
-0.541497
 30
0.000000
  70
    32
  0
VERTEX
  8
0
  5
3E8
 10
-11.6353
 20
-0.541332
 30
0.000000
  70
    32
  0
VERTEX
  8
0
  5
3E9
 10
-11.6352
 20
-0.541165
 30
0.000000
  70
    32
  0
VERTEX
  8
0
  5
3EA
 10
-11.6351
 20
-0.540997
 30
0.000000
  70
    32
  0
VERTEX
  8
0
  5
3EB
 10
-11.6351
 20
-0.540829
 30
0.000000
  70
    32
  0
VERTEX
  8
0
  5
3EC
 10
-11.6350
 20
-0.540659
 30
0.000000
  70
    32
  0
VERTEX
  8
0
  5
3ED
 10
-11.6349
 20
-0.540489
 30
0.000000
  70
    32
  0
VERTEX
  8
0
  5
3EE
 10
-11.6348
 20
-0.540317
 30
0.000000
  70
    32
  0
VERTEX
  8
0
  5
3EF
 10
-11.6347
 20
-0.540145
 30
0.000000
  70
    32
  0
VERTEX
  8
0
  5
3F0
 10
-11.6346
 20
-0.539972
 30
0.000000
  70
    32
  0
VERTEX
  8
0
  5
3F1
 10
-11.6345
 20
-0.539797
 30
0.000000
  70
    32
  0
VERTEX
  8
0
  5
3F2
 10
-11.6345
 20
-0.539622
 30
0.000000
  70
    32
  0
VERTEX
  8
0
  5
3F3
 10
-11.6344
 20
-0.539446
 30
0.000000
  70
    32
  0
VERTEX
  8
0
  5
3F4
 10
-11.6343
 20
-0.539269
 30
0.000000
  70
    32
  0
VERTEX
  8
0
  5
3F5
 10
-11.6342
 20
-0.539092
 30
0.000000
  70
    32
  0
VERTEX
  8
0
  5
3F6
 10
-11.6342
 20
-0.538913
 30
0.000000
  70
    32
  0
VERTEX
  8
0
  5
3F7
 10
-11.6341
 20
-0.538734
 30
0.000000
  70
    32
  0
VERTEX
  8
0
  5
3F8
 10
-11.6340
 20
-0.538553
 30
0.000000
  70
    32
  0
VERTEX
  8
0
  5
3F9
 10
-11.6339
 20
-0.538372
 30
0.000000
  70
    32
  0
VERTEX
  8
0
  5
3FA
 10
-11.6339
 20
-0.538191
 30
0.000000
  70
    32
  0
VERTEX
  8
0
  5
3FB
 10
-11.6338
 20
-0.538008
 30
0.000000
  70
    32
  0
VERTEX
  8
0
  5
3FC
 10
-11.6337
 20
-0.537824
 30
0.000000
  70
    32
  0
VERTEX
  8
0
  5
3FD
 10
-11.6337
 20
-0.537640
 30
0.000000
  70
    32
  0
VERTEX
  8
0
  5
3FE
 10
-11.6336
 20
-0.537455
 30
0.000000
  70
    32
  0
VERTEX
  8
0
  5
3FF
 10
-11.6336
 20
-0.537270
 30
0.000000
  70
    32
  0
VERTEX
  8
0
  5
400
 10
-11.6335
 20
-0.537083
 30
0.000000
  70
    32
  0
VERTEX
  8
0
  5
401
 10
-11.6335
 20
-0.536896
 30
0.000000
  70
    32
  0
VERTEX
  8
0
  5
402
 10
-11.6334
 20
-0.536708
 30
0.000000
  70
    32
  0
VERTEX
  8
0
  5
403
 10
-11.6334
 20
-0.536519
 30
0.000000
  70
    32
  0
VERTEX
  8
0
  5
404
 10
-11.6333
 20
-0.536330
 30
0.000000
  70
    32
  0
VERTEX
  8
0
  5
405
 10
-11.6333
 20
-0.536140
 30
0.000000
  70
    32
  0
VERTEX
  8
0
  5
406
 10
-11.6332
 20
-0.535949
 30
0.000000
  70
    32
  0
VERTEX
  8
0
  5
407
 10
-11.6332
 20
-0.535758
 30
0.000000
  70
    32
  0
VERTEX
  8
0
  5
408
 10
-11.6331
 20
-0.535566
 30
0.000000
  70
    32
  0
VERTEX
  8
0
  5
409
 10
-11.6331
 20
-0.535373
 30
0.000000
  70
    32
  0
VERTEX
  8
0
  5
40A
 10
-11.6331
 20
-0.535180
 30
0.000000
  70
    32
  0
VERTEX
  8
0
  5
40B
 10
-11.6330
 20
-0.534986
 30
0.000000
  70
    32
  0
VERTEX
  8
0
  5
40C
 10
-11.6330
 20
-0.534792
 30
0.000000
  70
    32
  0
VERTEX
  8
0
  5
40D
 10
-11.6330
 20
-0.534596
 30
0.000000
  70
    32
  0
VERTEX
  8
0
  5
40E
 10
-11.6329
 20
-0.534401
 30
0.000000
  70
    32
  0
VERTEX
  8
0
  5
40F
 10
-11.6329
 20
-0.534205
 30
0.000000
  70
    32
  0
VERTEX
  8
0
  5
410
 10
-11.6329
 20
-0.534008
 30
0.000000
  70
    32
  0
VERTEX
  8
0
  5
411
 10
-11.6328
 20
-0.533810
 30
0.000000
  70
    32
  0
VERTEX
  8
0
  5
412
 10
-11.6328
 20
-0.533612
 30
0.000000
  70
    32
  0
VERTEX
  8
0
  5
413
 10
-11.6328
 20
-0.533414
 30
0.000000
  70
    32
  0
VERTEX
  8
0
  5
414
 10
-11.6328
 20
-0.533215
 30
0.000000
  70
    32
  0
VERTEX
  8
0
  5
415
 10
-11.6328
 20
-0.533015
 30
0.000000
  70
    32
  0
VERTEX
  8
0
  5
416
 10
-11.6328
 20
-0.532815
 30
0.000000
  70
    32
  0
SEQEND
  8
0
  5
417
  0
POLYLINE
  8
0
  5
418
  66
     1
 10
0.000000
 20
0.000000
 30
0.000000
  70
     8
  0
VERTEX
  8
0
  5
419
 10
-12.3673
 20
-0.532815
 30
0.000000
  70
    32
  0
VERTEX
  8
0
  5
41A
 10
-12.3673
 20
-0.533015
 30
0.000000
  70
    32
  0
VERTEX
  8
0
  5
41B
 10
-12.3672
 20
-0.533215
 30
0.000000
  70
    32
  0
VERTEX
  8
0
  5
41C
 10
-12.3672
 20
-0.533414
 30
0.000000
  70
    32
  0
VERTEX
  8
0
  5
41D
 10
-12.3672
 20
-0.533612
 30
0.000000
  70
    32
  0
VERTEX
  8
0
  5
41E
 10
-12.3672
 20
-0.533810
 30
0.000000
  70
    32
  0
VERTEX
  8
0
  5
41F
 10
-12.3672
 20
-0.534008
 30
0.000000
  70
    32
  0
VERTEX
  8
0
  5
420
 10
-12.3671
 20
-0.534205
 30
0.000000
  70
    32
  0
VERTEX
  8
0
  5
421
 10
-12.3671
 20
-0.534401
 30
0.000000
  70
    32
  0
VERTEX
  8
0
  5
422
 10
-12.3671
 20
-0.534596
 30
0.000000
  70
    32
  0
VERTEX
  8
0
  5
423
 10
-12.3670
 20
-0.534792
 30
0.000000
  70
    32
  0
VERTEX
  8
0
  5
424
 10
-12.3670
 20
-0.534986
 30
0.000000
  70
    32
  0
VERTEX
  8
0
  5
425
 10
-12.3670
 20
-0.535180
 30
0.000000
  70
    32
  0
VERTEX
  8
0
  5
426
 10
-12.3669
 20
-0.535373
 30
0.000000
  70
    32
  0
VERTEX
  8
0
  5
427
 10
-12.3669
 20
-0.535566
 30
0.000000
  70
    32
  0
VERTEX
  8
0
  5
428
 10
-12.3669
 20
-0.535758
 30
0.000000
  70
    32
  0
VERTEX
  8
0
  5
429
 10
-12.3668
 20
-0.535949
 30
0.000000
  70
    32
  0
VERTEX
  8
0
  5
42A
 10
-12.3668
 20
-0.536140
 30
0.000000
  70
    32
  0
VERTEX
  8
0
  5
42B
 10
-12.3667
 20
-0.536330
 30
0.000000
  70
    32
  0
VERTEX
  8
0
  5
42C
 10
-12.3667
 20
-0.536519
 30
0.000000
  70
    32
  0
VERTEX
  8
0
  5
42D
 10
-12.3666
 20
-0.536708
 30
0.000000
  70
    32
  0
VERTEX
  8
0
  5
42E
 10
-12.3666
 20
-0.536896
 30
0.000000
  70
    32
  0
VERTEX
  8
0
  5
42F
 10
-12.3665
 20
-0.537083
 30
0.000000
  70
    32
  0
VERTEX
  8
0
  5
430
 10
-12.3665
 20
-0.537270
 30
0.000000
  70
    32
  0
VERTEX
  8
0
  5
431
 10
-12.3664
 20
-0.537455
 30
0.000000
  70
    32
  0
VERTEX
  8
0
  5
432
 10
-12.3663
 20
-0.537640
 30
0.000000
  70
    32
  0
VERTEX
  8
0
  5
433
 10
-12.3663
 20
-0.537824
 30
0.000000
  70
    32
  0
VERTEX
  8
0
  5
434
 10
-12.3662
 20
-0.538008
 30
0.000000
  70
    32
  0
VERTEX
  8
0
  5
435
 10
-12.3661
 20
-0.538191
 30
0.000000
  70
    32
  0
VERTEX
  8
0
  5
436
 10
-12.3661
 20
-0.538372
 30
0.000000
  70
    32
  0
VERTEX
  8
0
  5
437
 10
-12.3660
 20
-0.538553
 30
0.000000
  70
    32
  0
VERTEX
  8
0
  5
438
 10
-12.3659
 20
-0.538734
 30
0.000000
  70
    32
  0
VERTEX
  8
0
  5
439
 10
-12.3659
 20
-0.538913
 30
0.000000
  70
    32
  0
VERTEX
  8
0
  5
43A
 10
-12.3658
 20
-0.539092
 30
0.000000
  70
    32
  0
VERTEX
  8
0
  5
43B
 10
-12.3657
 20
-0.539269
 30
0.000000
  70
    32
  0
VERTEX
  8
0
  5
43C
 10
-12.3656
 20
-0.539446
 30
0.000000
  70
    32
  0
VERTEX
  8
0
  5
43D
 10
-12.3656
 20
-0.539622
 30
0.000000
  70
    32
  0
VERTEX
  8
0
  5
43E
 10
-12.3655
 20
-0.539797
 30
0.000000
  70
    32
  0
VERTEX
  8
0
  5
43F
 10
-12.3654
 20
-0.539972
 30
0.000000
  70
    32
  0
VERTEX
  8
0
  5
440
 10
-12.3653
 20
-0.540145
 30
0.000000
  70
    32
  0
VERTEX
  8
0
  5
441
 10
-12.3652
 20
-0.540317
 30
0.000000
  70
    32
  0
VERTEX
  8
0
  5
442
 10
-12.3651
 20
-0.540489
 30
0.000000
  70
    32
  0
VERTEX
  8
0
  5
443
 10
-12.3651
 20
-0.540659
 30
0.000000
  70
    32
  0
VERTEX
  8
0
  5
444
 10
-12.3650
 20
-0.540829
 30
0.000000
  70
    32
  0
VERTEX
  8
0
  5
445
 10
-12.3649
 20
-0.540997
 30
0.000000
  70
    32
  0
VERTEX
  8
0
  5
446
 10
-12.3648
 20
-0.541165
 30
0.000000
  70
    32
  0
VERTEX
  8
0
  5
447
 10
-12.3647
 20
-0.541332
 30
0.000000
  70
    32
  0
VERTEX
  8
0
  5
448
 10
-12.3646
 20
-0.541497
 30
0.000000
  70
    32
  0
VERTEX
  8
0
  5
449
 10
-12.3645
 20
-0.541662
 30
0.000000
  70
    32
  0
VERTEX
  8
0
  5
44A
 10
-12.3644
 20
-0.541826
 30
0.000000
  70
    32
  0
VERTEX
  8
0
  5
44B
 10
-12.3643
 20
-0.541988
 30
0.000000
  70
    32
  0
VERTEX
  8
0
  5
44C
 10
-12.3642
 20
-0.542150
 30
0.000000
  70
    32
  0
VERTEX
  8
0
  5
44D
 10
-12.3641
 20
-0.542311
 30
0.000000
  70
    32
  0
VERTEX
  8
0
  5
44E
 10
-12.3640
 20
-0.542470
 30
0.000000
  70
    32
  0
VERTEX
  8
0
  5
44F
 10
-12.3639
 20
-0.542629
 30
0.000000
  70
    32
  0
VERTEX
  8
0
  5
450
 10
-12.3638
 20
-0.542786
 30
0.000000
  70
    32
  0
VERTEX
  8
0
  5
451
 10
-12.3637
 20
-0.542942
 30
0.000000
  70
    32
  0
VERTEX
  8
0
  5
452
 10
-12.3635
 20
-0.543097
 30
0.000000
  70
    32
  0
VERTEX
  8
0
  5
453
 10
-12.3634
 20
-0.543251
 30
0.000000
  70
    32
  0
VERTEX
  8
0
  5
454
 10
-12.3633
 20
-0.543404
 30
0.000000
  70
    32
  0
VERTEX
  8
0
  5
455
 10
-12.3632
 20
-0.543556
 30
0.000000
  70
    32
  0
VERTEX
  8
0
  5
456
 10
-12.3631
 20
-0.543707
 30
0.000000
  70
    32
  0
VERTEX
  8
0
  5
457
 10
-12.3630
 20
-0.543856
 30
0.000000
  70
    32
  0
VERTEX
  8
0
  5
458
 10
-12.3628
 20
-0.544004
 30
0.000000
  70
    32
  0
VERTEX
  8
0
  5
459
 10
-12.3627
 20
-0.544152
 30
0.000000
  70
    32
  0
VERTEX
  8
0
  5
45A
 10
-12.3626
 20
-0.544298
 30
0.000000
  70
    32
  0
VERTEX
  8
0
  5
45B
 10
-12.3625
 20
-0.544442
 30
0.000000
  70
    32
  0
VERTEX
  8
0
  5
45C
 10
-12.3623
 20
-0.544586
 30
0.000000
  70
    32
  0
VERTEX
  8
0
  5
45D
 10
-12.3622
 20
-0.544728
 30
0.000000
  70
    32
  0
VERTEX
  8
0
  5
45E
 10
-12.3621
 20
-0.544869
 30
0.000000
  70
    32
  0
VERTEX
  8
0
  5
45F
 10
-12.3620
 20
-0.545009
 30
0.000000
  70
    32
  0
VERTEX
  8
0
  5
460
 10
-12.3618
 20
-0.545148
 30
0.000000
  70
    32
  0
VERTEX
  8
0
  5
461
 10
-12.3617
 20
-0.545285
 30
0.000000
  70
    32
  0
VERTEX
  8
0
  5
462
 10
-12.3615
 20
-0.545421
 30
0.000000
  70
    32
  0
VERTEX
  8
0
  5
463
 10
-12.3614
 20
-0.545556
 30
0.000000
  70
    32
  0
VERTEX
  8
0
  5
464
 10
-12.3613
 20
-0.545689
 30
0.000000
  70
    32
  0
VERTEX
  8
0
  5
465
 10
-12.3611
 20
-0.545821
 30
0.000000
  70
    32
  0
VERTEX
  8
0
  5
466
 10
-12.3610
 20
-0.545952
 30
0.000000
  70
    32
  0
VERTEX
  8
0
  5
467
 10
-12.3609
 20
-0.546082
 30
0.000000
  70
    32
  0
VERTEX
  8
0
  5
468
 10
-12.3607
 20
-0.546210
 30
0.000000
  70
    32
  0
VERTEX
  8
0
  5
469
 10
-12.3606
 20
-0.546337
 30
0.000000
  70
    32
  0
VERTEX
  8
0
  5
46A
 10
-12.3604
 20
-0.546462
 30
0.000000
  70
    32
  0
VERTEX
  8
0
  5
46B
 10
-12.3603
 20
-0.546586
 30
0.000000
  70
    32
  0
VERTEX
  8
0
  5
46C
 10
-12.3601
 20
-0.546709
 30
0.000000
  70
    32
  0
VERTEX
  8
0
  5
46D
 10
-12.3600
 20
-0.546830
 30
0.000000
  70
    32
  0
VERTEX
  8
0
  5
46E
 10
-12.3598
 20
-0.546950
 30
0.000000
  70
    32
  0
VERTEX
  8
0
  5
46F
 10
-12.3597
 20
-0.547069
 30
0.000000
  70
    32
  0
VERTEX
  8
0
  5
470
 10
-12.3595
 20
-0.547186
 30
0.000000
  70
    32
  0
VERTEX
  8
0
  5
471
 10
-12.3594
 20
-0.547301
 30
0.000000
  70
    32
  0
VERTEX
  8
0
  5
472
 10
-12.3592
 20
-0.547415
 30
0.000000
  70
    32
  0
VERTEX
  8
0
  5
473
 10
-12.3591
 20
-0.547528
 30
0.000000
  70
    32
  0
VERTEX
  8
0
  5
474
 10
-12.3589
 20
-0.547639
 30
0.000000
  70
    32
  0
VERTEX
  8
0
  5
475
 10
-12.3587
 20
-0.547749
 30
0.000000
  70
    32
  0
VERTEX
  8
0
  5
476
 10
-12.3586
 20
-0.547857
 30
0.000000
  70
    32
  0
VERTEX
  8
0
  5
477
 10
-12.3584
 20
-0.547964
 30
0.000000
  70
    32
  0
VERTEX
  8
0
  5
478
 10
-12.3583
 20
-0.548069
 30
0.000000
  70
    32
  0
VERTEX
  8
0
  5
479
 10
-12.3581
 20
-0.548173
 30
0.000000
  70
    32
  0
VERTEX
  8
0
  5
47A
 10
-12.3579
 20
-0.548275
 30
0.000000
  70
    32
  0
VERTEX
  8
0
  5
47B
 10
-12.3578
 20
-0.548376
 30
0.000000
  70
    32
  0
VERTEX
  8
0
  5
47C
 10
-12.3576
 20
-0.548475
 30
0.000000
  70
    32
  0
VERTEX
  8
0
  5
47D
 10
-12.3574
 20
-0.548572
 30
0.000000
  70
    32
  0
VERTEX
  8
0
  5
47E
 10
-12.3573
 20
-0.548668
 30
0.000000
  70
    32
  0
VERTEX
  8
0
  5
47F
 10
-12.3571
 20
-0.548762
 30
0.000000
  70
    32
  0
VERTEX
  8
0
  5
480
 10
-12.3569
 20
-0.548855
 30
0.000000
  70
    32
  0
VERTEX
  8
0
  5
481
 10
-12.3568
 20
-0.548946
 30
0.000000
  70
    32
  0
VERTEX
  8
0
  5
482
 10
-12.3566
 20
-0.549036
 30
0.000000
  70
    32
  0
VERTEX
  8
0
  5
483
 10
-12.3564
 20
-0.549123
 30
0.000000
  70
    32
  0
VERTEX
  8
0
  5
484
 10
-12.3562
 20
-0.549210
 30
0.000000
  70
    32
  0
VERTEX
  8
0
  5
485
 10
-12.3561
 20
-0.549294
 30
0.000000
  70
    32
  0
VERTEX
  8
0
  5
486
 10
-12.3559
 20
-0.549377
 30
0.000000
  70
    32
  0
VERTEX
  8
0
  5
487
 10
-12.3557
 20
-0.549458
 30
0.000000
  70
    32
  0
VERTEX
  8
0
  5
488
 10
-12.3555
 20
-0.549538
 30
0.000000
  70
    32
  0
VERTEX
  8
0
  5
489
 10
-12.3553
 20
-0.549615
 30
0.000000
  70
    32
  0
VERTEX
  8
0
  5
48A
 10
-12.3552
 20
-0.549691
 30
0.000000
  70
    32
  0
VERTEX
  8
0
  5
48B
 10
-12.3550
 20
-0.549766
 30
0.000000
  70
    32
  0
VERTEX
  8
0
  5
48C
 10
-12.3548
 20
-0.549838
 30
0.000000
  70
    32
  0
VERTEX
  8
0
  5
48D
 10
-12.3546
 20
-0.549909
 30
0.000000
  70
    32
  0
VERTEX
  8
0
  5
48E
 10
-12.3544
 20
-0.549978
 30
0.000000
  70
    32
  0
VERTEX
  8
0
  5
48F
 10
-12.3542
 20
-0.550046
 30
0.000000
  70
    32
  0
VERTEX
  8
0
  5
490
 10
-12.3541
 20
-0.550111
 30
0.000000
  70
    32
  0
VERTEX
  8
0
  5
491
 10
-12.3539
 20
-0.550175
 30
0.000000
  70
    32
  0
VERTEX
  8
0
  5
492
 10
-12.3537
 20
-0.550237
 30
0.000000
  70
    32
  0
VERTEX
  8
0
  5
493
 10
-12.3535
 20
-0.550297
 30
0.000000
  70
    32
  0
VERTEX
  8
0
  5
494
 10
-12.3533
 20
-0.550355
 30
0.000000
  70
    32
  0
VERTEX
  8
0
  5
495
 10
-12.3531
 20
-0.550412
 30
0.000000
  70
    32
  0
VERTEX
  8
0
  5
496
 10
-12.3529
 20
-0.550466
 30
0.000000
  70
    32
  0
VERTEX
  8
0
  5
497
 10
-12.3527
 20
-0.550519
 30
0.000000
  70
    32
  0
VERTEX
  8
0
  5
498
 10
-12.3525
 20
-0.550570
 30
0.000000
  70
    32
  0
SEQEND
  8
0
  5
499
  0
POLYLINE
  8
0
  5
49A
  66
     1
 10
0.000000
 20
0.000000
 30
0.000000
  70
     8
  0
VERTEX
  8
0
  5
49B
 10
12.3525
 20
-0.550570
 30
0.000000
  70
    32
  0
VERTEX
  8
0
  5
49C
 10
12.3527
 20
-0.550519
 30
0.000000
  70
    32
  0
VERTEX
  8
0
  5
49D
 10
12.3529
 20
-0.550466
 30
0.000000
  70
    32
  0
VERTEX
  8
0
  5
49E
 10
12.3531
 20
-0.550412
 30
0.000000
  70
    32
  0
VERTEX
  8
0
  5
49F
 10
12.3533
 20
-0.550355
 30
0.000000
  70
    32
  0
VERTEX
  8
0
  5
4A0
 10
12.3535
 20
-0.550297
 30
0.000000
  70
    32
  0
VERTEX
  8
0
  5
4A1
 10
12.3537
 20
-0.550237
 30
0.000000
  70
    32
  0
VERTEX
  8
0
  5
4A2
 10
12.3538
 20
-0.550175
 30
0.000000
  70
    32
  0
VERTEX
  8
0
  5
4A3
 10
12.3540
 20
-0.550111
 30
0.000000
  70
    32
  0
VERTEX
  8
0
  5
4A4
 10
12.3542
 20
-0.550046
 30
0.000000
  70
    32
  0
VERTEX
  8
0
  5
4A5
 10
12.3544
 20
-0.549978
 30
0.000000
  70
    32
  0
VERTEX
  8
0
  5
4A6
 10
12.3546
 20
-0.549909
 30
0.000000
  70
    32
  0
VERTEX
  8
0
  5
4A7
 10
12.3548
 20
-0.549838
 30
0.000000
  70
    32
  0
VERTEX
  8
0
  5
4A8
 10
12.3550
 20
-0.549766
 30
0.000000
  70
    32
  0
VERTEX
  8
0
  5
4A9
 10
12.3551
 20
-0.549691
 30
0.000000
  70
    32
  0
VERTEX
  8
0
  5
4AA
 10
12.3553
 20
-0.549615
 30
0.000000
  70
    32
  0
VERTEX
  8
0
  5
4AB
 10
12.3555
 20
-0.549538
 30
0.000000
  70
    32
  0
VERTEX
  8
0
  5
4AC
 10
12.3557
 20
-0.549458
 30
0.000000
  70
    32
  0
VERTEX
  8
0
  5
4AD
 10
12.3559
 20
-0.549377
 30
0.000000
  70
    32
  0
VERTEX
  8
0
  5
4AE
 10
12.3560
 20
-0.549294
 30
0.000000
  70
    32
  0
VERTEX
  8
0
  5
4AF
 10
12.3562
 20
-0.549210
 30
0.000000
  70
    32
  0
VERTEX
  8
0
  5
4B0
 10
12.3564
 20
-0.549123
 30
0.000000
  70
    32
  0
VERTEX
  8
0
  5
4B1
 10
12.3566
 20
-0.549036
 30
0.000000
  70
    32
  0
VERTEX
  8
0
  5
4B2
 10
12.3567
 20
-0.548946
 30
0.000000
  70
    32
  0
VERTEX
  8
0
  5
4B3
 10
12.3569
 20
-0.548855
 30
0.000000
  70
    32
  0
VERTEX
  8
0
  5
4B4
 10
12.3571
 20
-0.548762
 30
0.000000
  70
    32
  0
VERTEX
  8
0
  5
4B5
 10
12.3573
 20
-0.548668
 30
0.000000
  70
    32
  0
VERTEX
  8
0
  5
4B6
 10
12.3574
 20
-0.548572
 30
0.000000
  70
    32
  0
VERTEX
  8
0
  5
4B7
 10
12.3576
 20
-0.548475
 30
0.000000
  70
    32
  0
VERTEX
  8
0
  5
4B8
 10
12.3578
 20
-0.548376
 30
0.000000
  70
    32
  0
VERTEX
  8
0
  5
4B9
 10
12.3579
 20
-0.548275
 30
0.000000
  70
    32
  0
VERTEX
  8
0
  5
4BA
 10
12.3581
 20
-0.548173
 30
0.000000
  70
    32
  0
VERTEX
  8
0
  5
4BB
 10
12.3582
 20
-0.548069
 30
0.000000
  70
    32
  0
VERTEX
  8
0
  5
4BC
 10
12.3584
 20
-0.547964
 30
0.000000
  70
    32
  0
VERTEX
  8
0
  5
4BD
 10
12.3586
 20
-0.547857
 30
0.000000
  70
    32
  0
VERTEX
  8
0
  5
4BE
 10
12.3587
 20
-0.547749
 30
0.000000
  70
    32
  0
VERTEX
  8
0
  5
4BF
 10
12.3589
 20
-0.547639
 30
0.000000
  70
    32
  0
VERTEX
  8
0
  5
4C0
 10
12.3590
 20
-0.547528
 30
0.000000
  70
    32
  0
VERTEX
  8
0
  5
4C1
 10
12.3592
 20
-0.547415
 30
0.000000
  70
    32
  0
VERTEX
  8
0
  5
4C2
 10
12.3594
 20
-0.547301
 30
0.000000
  70
    32
  0
VERTEX
  8
0
  5
4C3
 10
12.3595
 20
-0.547186
 30
0.000000
  70
    32
  0
VERTEX
  8
0
  5
4C4
 10
12.3597
 20
-0.547069
 30
0.000000
  70
    32
  0
VERTEX
  8
0
  5
4C5
 10
12.3598
 20
-0.546950
 30
0.000000
  70
    32
  0
VERTEX
  8
0
  5
4C6
 10
12.3600
 20
-0.546830
 30
0.000000
  70
    32
  0
VERTEX
  8
0
  5
4C7
 10
12.3601
 20
-0.546709
 30
0.000000
  70
    32
  0
VERTEX
  8
0
  5
4C8
 10
12.3603
 20
-0.546586
 30
0.000000
  70
    32
  0
VERTEX
  8
0
  5
4C9
 10
12.3604
 20
-0.546462
 30
0.000000
  70
    32
  0
VERTEX
  8
0
  5
4CA
 10
12.3606
 20
-0.546337
 30
0.000000
  70
    32
  0
VERTEX
  8
0
  5
4CB
 10
12.3607
 20
-0.546210
 30
0.000000
  70
    32
  0
VERTEX
  8
0
  5
4CC
 10
12.3608
 20
-0.546082
 30
0.000000
  70
    32
  0
VERTEX
  8
0
  5
4CD
 10
12.3610
 20
-0.545952
 30
0.000000
  70
    32
  0
VERTEX
  8
0
  5
4CE
 10
12.3611
 20
-0.545821
 30
0.000000
  70
    32
  0
VERTEX
  8
0
  5
4CF
 10
12.3613
 20
-0.545689
 30
0.000000
  70
    32
  0
VERTEX
  8
0
  5
4D0
 10
12.3614
 20
-0.545556
 30
0.000000
  70
    32
  0
VERTEX
  8
0
  5
4D1
 10
12.3615
 20
-0.545421
 30
0.000000
  70
    32
  0
VERTEX
  8
0
  5
4D2
 10
12.3617
 20
-0.545285
 30
0.000000
  70
    32
  0
VERTEX
  8
0
  5
4D3
 10
12.3618
 20
-0.545148
 30
0.000000
  70
    32
  0
VERTEX
  8
0
  5
4D4
 10
12.3619
 20
-0.545009
 30
0.000000
  70
    32
  0
VERTEX
  8
0
  5
4D5
 10
12.3621
 20
-0.544869
 30
0.000000
  70
    32
  0
VERTEX
  8
0
  5
4D6
 10
12.3622
 20
-0.544728
 30
0.000000
  70
    32
  0
VERTEX
  8
0
  5
4D7
 10
12.3623
 20
-0.544586
 30
0.000000
  70
    32
  0
VERTEX
  8
0
  5
4D8
 10
12.3624
 20
-0.544442
 30
0.000000
  70
    32
  0
VERTEX
  8
0
  5
4D9
 10
12.3626
 20
-0.544298
 30
0.000000
  70
    32
  0
VERTEX
  8
0
  5
4DA
 10
12.3627
 20
-0.544152
 30
0.000000
  70
    32
  0
VERTEX
  8
0
  5
4DB
 10
12.3628
 20
-0.544004
 30
0.000000
  70
    32
  0
VERTEX
  8
0
  5
4DC
 10
12.3629
 20
-0.543856
 30
0.000000
  70
    32
  0
VERTEX
  8
0
  5
4DD
 10
12.3631
 20
-0.543707
 30
0.000000
  70
    32
  0
VERTEX
  8
0
  5
4DE
 10
12.3632
 20
-0.543556
 30
0.000000
  70
    32
  0
VERTEX
  8
0
  5
4DF
 10
12.3633
 20
-0.543404
 30
0.000000
  70
    32
  0
VERTEX
  8
0
  5
4E0
 10
12.3634
 20
-0.543251
 30
0.000000
  70
    32
  0
VERTEX
  8
0
  5
4E1
 10
12.3635
 20
-0.543097
 30
0.000000
  70
    32
  0
VERTEX
  8
0
  5
4E2
 10
12.3636
 20
-0.542942
 30
0.000000
  70
    32
  0
VERTEX
  8
0
  5
4E3
 10
12.3637
 20
-0.542786
 30
0.000000
  70
    32
  0
VERTEX
  8
0
  5
4E4
 10
12.3639
 20
-0.542629
 30
0.000000
  70
    32
  0
VERTEX
  8
0
  5
4E5
 10
12.3640
 20
-0.542470
 30
0.000000
  70
    32
  0
VERTEX
  8
0
  5
4E6
 10
12.3641
 20
-0.542311
 30
0.000000
  70
    32
  0
VERTEX
  8
0
  5
4E7
 10
12.3642
 20
-0.542150
 30
0.000000
  70
    32
  0
VERTEX
  8
0
  5
4E8
 10
12.3643
 20
-0.541988
 30
0.000000
  70
    32
  0
VERTEX
  8
0
  5
4E9
 10
12.3644
 20
-0.541826
 30
0.000000
  70
    32
  0
VERTEX
  8
0
  5
4EA
 10
12.3645
 20
-0.541662
 30
0.000000
  70
    32
  0
VERTEX
  8
0
  5
4EB
 10
12.3646
 20
-0.541497
 30
0.000000
  70
    32
  0
VERTEX
  8
0
  5
4EC
 10
12.3647
 20
-0.541332
 30
0.000000
  70
    32
  0
VERTEX
  8
0
  5
4ED
 10
12.3648
 20
-0.541165
 30
0.000000
  70
    32
  0
VERTEX
  8
0
  5
4EE
 10
12.3649
 20
-0.540997
 30
0.000000
  70
    32
  0
VERTEX
  8
0
  5
4EF
 10
12.3650
 20
-0.540829
 30
0.000000
  70
    32
  0
VERTEX
  8
0
  5
4F0
 10
12.3650
 20
-0.540659
 30
0.000000
  70
    32
  0
VERTEX
  8
0
  5
4F1
 10
12.3651
 20
-0.540489
 30
0.000000
  70
    32
  0
VERTEX
  8
0
  5
4F2
 10
12.3652
 20
-0.540317
 30
0.000000
  70
    32
  0
VERTEX
  8
0
  5
4F3
 10
12.3653
 20
-0.540145
 30
0.000000
  70
    32
  0
VERTEX
  8
0
  5
4F4
 10
12.3654
 20
-0.539972
 30
0.000000
  70
    32
  0
VERTEX
  8
0
  5
4F5
 10
12.3655
 20
-0.539797
 30
0.000000
  70
    32
  0
VERTEX
  8
0
  5
4F6
 10
12.3655
 20
-0.539622
 30
0.000000
  70
    32
  0
VERTEX
  8
0
  5
4F7
 10
12.3656
 20
-0.539446
 30
0.000000
  70
    32
  0
VERTEX
  8
0
  5
4F8
 10
12.3657
 20
-0.539269
 30
0.000000
  70
    32
  0
VERTEX
  8
0
  5
4F9
 10
12.3658
 20
-0.539092
 30
0.000000
  70
    32
  0
VERTEX
  8
0
  5
4FA
 10
12.3659
 20
-0.538913
 30
0.000000
  70
    32
  0
VERTEX
  8
0
  5
4FB
 10
12.3659
 20
-0.538734
 30
0.000000
  70
    32
  0
VERTEX
  8
0
  5
4FC
 10
12.3660
 20
-0.538553
 30
0.000000
  70
    32
  0
VERTEX
  8
0
  5
4FD
 10
12.3661
 20
-0.538372
 30
0.000000
  70
    32
  0
VERTEX
  8
0
  5
4FE
 10
12.3661
 20
-0.538191
 30
0.000000
  70
    32
  0
VERTEX
  8
0
  5
4FF
 10
12.3662
 20
-0.538008
 30
0.000000
  70
    32
  0
VERTEX
  8
0
  5
500
 10
12.3663
 20
-0.537824
 30
0.000000
  70
    32
  0
VERTEX
  8
0
  5
501
 10
12.3663
 20
-0.537640
 30
0.000000
  70
    32
  0
VERTEX
  8
0
  5
502
 10
12.3664
 20
-0.537455
 30
0.000000
  70
    32
  0
VERTEX
  8
0
  5
503
 10
12.3664
 20
-0.537270
 30
0.000000
  70
    32
  0
VERTEX
  8
0
  5
504
 10
12.3665
 20
-0.537083
 30
0.000000
  70
    32
  0
VERTEX
  8
0
  5
505
 10
12.3665
 20
-0.536896
 30
0.000000
  70
    32
  0
VERTEX
  8
0
  5
506
 10
12.3666
 20
-0.536708
 30
0.000000
  70
    32
  0
VERTEX
  8
0
  5
507
 10
12.3667
 20
-0.536519
 30
0.000000
  70
    32
  0
VERTEX
  8
0
  5
508
 10
12.3667
 20
-0.536330
 30
0.000000
  70
    32
  0
VERTEX
  8
0
  5
509
 10
12.3667
 20
-0.536140
 30
0.000000
  70
    32
  0
VERTEX
  8
0
  5
50A
 10
12.3668
 20
-0.535949
 30
0.000000
  70
    32
  0
VERTEX
  8
0
  5
50B
 10
12.3668
 20
-0.535758
 30
0.000000
  70
    32
  0
VERTEX
  8
0
  5
50C
 10
12.3669
 20
-0.535566
 30
0.000000
  70
    32
  0
VERTEX
  8
0
  5
50D
 10
12.3669
 20
-0.535373
 30
0.000000
  70
    32
  0
VERTEX
  8
0
  5
50E
 10
12.3670
 20
-0.535180
 30
0.000000
  70
    32
  0
VERTEX
  8
0
  5
50F
 10
12.3670
 20
-0.534986
 30
0.000000
  70
    32
  0
VERTEX
  8
0
  5
510
 10
12.3670
 20
-0.534792
 30
0.000000
  70
    32
  0
VERTEX
  8
0
  5
511
 10
12.3671
 20
-0.534596
 30
0.000000
  70
    32
  0
VERTEX
  8
0
  5
512
 10
12.3671
 20
-0.534401
 30
0.000000
  70
    32
  0
VERTEX
  8
0
  5
513
 10
12.3671
 20
-0.534205
 30
0.000000
  70
    32
  0
VERTEX
  8
0
  5
514
 10
12.3671
 20
-0.534008
 30
0.000000
  70
    32
  0
VERTEX
  8
0
  5
515
 10
12.3672
 20
-0.533810
 30
0.000000
  70
    32
  0
VERTEX
  8
0
  5
516
 10
12.3672
 20
-0.533612
 30
0.000000
  70
    32
  0
VERTEX
  8
0
  5
517
 10
12.3672
 20
-0.533414
 30
0.000000
  70
    32
  0
VERTEX
  8
0
  5
518
 10
12.3672
 20
-0.533215
 30
0.000000
  70
    32
  0
VERTEX
  8
0
  5
519
 10
12.3672
 20
-0.533015
 30
0.000000
  70
    32
  0
VERTEX
  8
0
  5
51A
 10
12.3673
 20
-0.532815
 30
0.000000
  70
    32
  0
SEQEND
  8
0
  5
51B
  0
POLYLINE
  8
0
  5
51C
  66
     1
 10
0.000000
 20
0.000000
 30
0.000000
  70
     8
  0
VERTEX
  8
0
  5
51D
 10
11.6327
 20
-0.532815
 30
0.000000
  70
    32
  0
VERTEX
  8
0
  5
51E
 10
11.6327
 20
-0.533015
 30
0.000000
  70
    32
  0
VERTEX
  8
0
  5
51F
 10
11.6327
 20
-0.533215
 30
0.000000
  70
    32
  0
VERTEX
  8
0
  5
520
 10
11.6328
 20
-0.533414
 30
0.000000
  70
    32
  0
VERTEX
  8
0
  5
521
 10
11.6328
 20
-0.533612
 30
0.000000
  70
    32
  0
VERTEX
  8
0
  5
522
 10
11.6328
 20
-0.533810
 30
0.000000
  70
    32
  0
VERTEX
  8
0
  5
523
 10
11.6328
 20
-0.534008
 30
0.000000
  70
    32
  0
VERTEX
  8
0
  5
524
 10
11.6329
 20
-0.534205
 30
0.000000
  70
    32
  0
VERTEX
  8
0
  5
525
 10
11.6329
 20
-0.534401
 30
0.000000
  70
    32
  0
VERTEX
  8
0
  5
526
 10
11.6329
 20
-0.534596
 30
0.000000
  70
    32
  0
VERTEX
  8
0
  5
527
 10
11.6329
 20
-0.534792
 30
0.000000
  70
    32
  0
VERTEX
  8
0
  5
528
 10
11.6330
 20
-0.534986
 30
0.000000
  70
    32
  0
VERTEX
  8
0
  5
529
 10
11.6330
 20
-0.535180
 30
0.000000
  70
    32
  0
VERTEX
  8
0
  5
52A
 10
11.6331
 20
-0.535373
 30
0.000000
  70
    32
  0
VERTEX
  8
0
  5
52B
 10
11.6331
 20
-0.535566
 30
0.000000
  70
    32
  0
VERTEX
  8
0
  5
52C
 10
11.6331
 20
-0.535758
 30
0.000000
  70
    32
  0
VERTEX
  8
0
  5
52D
 10
11.6332
 20
-0.535949
 30
0.000000
  70
    32
  0
VERTEX
  8
0
  5
52E
 10
11.6332
 20
-0.536140
 30
0.000000
  70
    32
  0
VERTEX
  8
0
  5
52F
 10
11.6333
 20
-0.536330
 30
0.000000
  70
    32
  0
VERTEX
  8
0
  5
530
 10
11.6333
 20
-0.536519
 30
0.000000
  70
    32
  0
VERTEX
  8
0
  5
531
 10
11.6334
 20
-0.536708
 30
0.000000
  70
    32
  0
VERTEX
  8
0
  5
532
 10
11.6334
 20
-0.536896
 30
0.000000
  70
    32
  0
VERTEX
  8
0
  5
533
 10
11.6335
 20
-0.537083
 30
0.000000
  70
    32
  0
VERTEX
  8
0
  5
534
 10
11.6335
 20
-0.537270
 30
0.000000
  70
    32
  0
VERTEX
  8
0
  5
535
 10
11.6336
 20
-0.537455
 30
0.000000
  70
    32
  0
VERTEX
  8
0
  5
536
 10
11.6337
 20
-0.537640
 30
0.000000
  70
    32
  0
VERTEX
  8
0
  5
537
 10
11.6337
 20
-0.537824
 30
0.000000
  70
    32
  0
VERTEX
  8
0
  5
538
 10
11.6338
 20
-0.538008
 30
0.000000
  70
    32
  0
VERTEX
  8
0
  5
539
 10
11.6338
 20
-0.538191
 30
0.000000
  70
    32
  0
VERTEX
  8
0
  5
53A
 10
11.6339
 20
-0.538372
 30
0.000000
  70
    32
  0
VERTEX
  8
0
  5
53B
 10
11.6340
 20
-0.538553
 30
0.000000
  70
    32
  0
VERTEX
  8
0
  5
53C
 10
11.6341
 20
-0.538734
 30
0.000000
  70
    32
  0
VERTEX
  8
0
  5
53D
 10
11.6341
 20
-0.538913
 30
0.000000
  70
    32
  0
VERTEX
  8
0
  5
53E
 10
11.6342
 20
-0.539092
 30
0.000000
  70
    32
  0
VERTEX
  8
0
  5
53F
 10
11.6343
 20
-0.539269
 30
0.000000
  70
    32
  0
VERTEX
  8
0
  5
540
 10
11.6343
 20
-0.539446
 30
0.000000
  70
    32
  0
VERTEX
  8
0
  5
541
 10
11.6344
 20
-0.539622
 30
0.000000
  70
    32
  0
VERTEX
  8
0
  5
542
 10
11.6345
 20
-0.539797
 30
0.000000
  70
    32
  0
VERTEX
  8
0
  5
543
 10
11.6346
 20
-0.539972
 30
0.000000
  70
    32
  0
VERTEX
  8
0
  5
544
 10
11.6347
 20
-0.540145
 30
0.000000
  70
    32
  0
VERTEX
  8
0
  5
545
 10
11.6348
 20
-0.540317
 30
0.000000
  70
    32
  0
VERTEX
  8
0
  5
546
 10
11.6348
 20
-0.540489
 30
0.000000
  70
    32
  0
VERTEX
  8
0
  5
547
 10
11.6349
 20
-0.540659
 30
0.000000
  70
    32
  0
VERTEX
  8
0
  5
548
 10
11.6350
 20
-0.540829
 30
0.000000
  70
    32
  0
VERTEX
  8
0
  5
549
 10
11.6351
 20
-0.540997
 30
0.000000
  70
    32
  0
VERTEX
  8
0
  5
54A
 10
11.6352
 20
-0.541165
 30
0.000000
  70
    32
  0
VERTEX
  8
0
  5
54B
 10
11.6353
 20
-0.541332
 30
0.000000
  70
    32
  0
VERTEX
  8
0
  5
54C
 10
11.6354
 20
-0.541497
 30
0.000000
  70
    32
  0
VERTEX
  8
0
  5
54D
 10
11.6355
 20
-0.541662
 30
0.000000
  70
    32
  0
VERTEX
  8
0
  5
54E
 10
11.6356
 20
-0.541826
 30
0.000000
  70
    32
  0
VERTEX
  8
0
  5
54F
 10
11.6357
 20
-0.541988
 30
0.000000
  70
    32
  0
VERTEX
  8
0
  5
550
 10
11.6358
 20
-0.542150
 30
0.000000
  70
    32
  0
VERTEX
  8
0
  5
551
 10
11.6359
 20
-0.542311
 30
0.000000
  70
    32
  0
VERTEX
  8
0
  5
552
 10
11.6360
 20
-0.542470
 30
0.000000
  70
    32
  0
VERTEX
  8
0
  5
553
 10
11.6361
 20
-0.542629
 30
0.000000
  70
    32
  0
VERTEX
  8
0
  5
554
 10
11.6362
 20
-0.542786
 30
0.000000
  70
    32
  0
VERTEX
  8
0
  5
555
 10
11.6363
 20
-0.542942
 30
0.000000
  70
    32
  0
VERTEX
  8
0
  5
556
 10
11.6365
 20
-0.543097
 30
0.000000
  70
    32
  0
VERTEX
  8
0
  5
557
 10
11.6366
 20
-0.543251
 30
0.000000
  70
    32
  0
VERTEX
  8
0
  5
558
 10
11.6367
 20
-0.543404
 30
0.000000
  70
    32
  0
VERTEX
  8
0
  5
559
 10
11.6368
 20
-0.543556
 30
0.000000
  70
    32
  0
VERTEX
  8
0
  5
55A
 10
11.6369
 20
-0.543707
 30
0.000000
  70
    32
  0
VERTEX
  8
0
  5
55B
 10
11.6370
 20
-0.543856
 30
0.000000
  70
    32
  0
VERTEX
  8
0
  5
55C
 10
11.6372
 20
-0.544004
 30
0.000000
  70
    32
  0
VERTEX
  8
0
  5
55D
 10
11.6373
 20
-0.544152
 30
0.000000
  70
    32
  0
VERTEX
  8
0
  5
55E
 10
11.6374
 20
-0.544298
 30
0.000000
  70
    32
  0
VERTEX
  8
0
  5
55F
 10
11.6375
 20
-0.544442
 30
0.000000
  70
    32
  0
VERTEX
  8
0
  5
560
 10
11.6377
 20
-0.544586
 30
0.000000
  70
    32
  0
VERTEX
  8
0
  5
561
 10
11.6378
 20
-0.544728
 30
0.000000
  70
    32
  0
VERTEX
  8
0
  5
562
 10
11.6379
 20
-0.544869
 30
0.000000
  70
    32
  0
VERTEX
  8
0
  5
563
 10
11.6380
 20
-0.545009
 30
0.000000
  70
    32
  0
VERTEX
  8
0
  5
564
 10
11.6382
 20
-0.545148
 30
0.000000
  70
    32
  0
VERTEX
  8
0
  5
565
 10
11.6383
 20
-0.545285
 30
0.000000
  70
    32
  0
VERTEX
  8
0
  5
566
 10
11.6384
 20
-0.545421
 30
0.000000
  70
    32
  0
VERTEX
  8
0
  5
567
 10
11.6386
 20
-0.545556
 30
0.000000
  70
    32
  0
VERTEX
  8
0
  5
568
 10
11.6387
 20
-0.545689
 30
0.000000
  70
    32
  0
VERTEX
  8
0
  5
569
 10
11.6389
 20
-0.545821
 30
0.000000
  70
    32
  0
VERTEX
  8
0
  5
56A
 10
11.6390
 20
-0.545952
 30
0.000000
  70
    32
  0
VERTEX
  8
0
  5
56B
 10
11.6391
 20
-0.546082
 30
0.000000
  70
    32
  0
VERTEX
  8
0
  5
56C
 10
11.6393
 20
-0.546210
 30
0.000000
  70
    32
  0
VERTEX
  8
0
  5
56D
 10
11.6394
 20
-0.546337
 30
0.000000
  70
    32
  0
VERTEX
  8
0
  5
56E
 10
11.6396
 20
-0.546462
 30
0.000000
  70
    32
  0
VERTEX
  8
0
  5
56F
 10
11.6397
 20
-0.546586
 30
0.000000
  70
    32
  0
VERTEX
  8
0
  5
570
 10
11.6399
 20
-0.546709
 30
0.000000
  70
    32
  0
VERTEX
  8
0
  5
571
 10
11.6400
 20
-0.546830
 30
0.000000
  70
    32
  0
VERTEX
  8
0
  5
572
 10
11.6402
 20
-0.546950
 30
0.000000
  70
    32
  0
VERTEX
  8
0
  5
573
 10
11.6403
 20
-0.547069
 30
0.000000
  70
    32
  0
VERTEX
  8
0
  5
574
 10
11.6405
 20
-0.547186
 30
0.000000
  70
    32
  0
VERTEX
  8
0
  5
575
 10
11.6406
 20
-0.547301
 30
0.000000
  70
    32
  0
VERTEX
  8
0
  5
576
 10
11.6408
 20
-0.547415
 30
0.000000
  70
    32
  0
VERTEX
  8
0
  5
577
 10
11.6409
 20
-0.547528
 30
0.000000
  70
    32
  0
VERTEX
  8
0
  5
578
 10
11.6411
 20
-0.547639
 30
0.000000
  70
    32
  0
VERTEX
  8
0
  5
579
 10
11.6413
 20
-0.547749
 30
0.000000
  70
    32
  0
VERTEX
  8
0
  5
57A
 10
11.6414
 20
-0.547857
 30
0.000000
  70
    32
  0
VERTEX
  8
0
  5
57B
 10
11.6416
 20
-0.547964
 30
0.000000
  70
    32
  0
VERTEX
  8
0
  5
57C
 10
11.6417
 20
-0.548069
 30
0.000000
  70
    32
  0
VERTEX
  8
0
  5
57D
 10
11.6419
 20
-0.548173
 30
0.000000
  70
    32
  0
VERTEX
  8
0
  5
57E
 10
11.6421
 20
-0.548275
 30
0.000000
  70
    32
  0
VERTEX
  8
0
  5
57F
 10
11.6422
 20
-0.548376
 30
0.000000
  70
    32
  0
VERTEX
  8
0
  5
580
 10
11.6424
 20
-0.548475
 30
0.000000
  70
    32
  0
VERTEX
  8
0
  5
581
 10
11.6426
 20
-0.548572
 30
0.000000
  70
    32
  0
VERTEX
  8
0
  5
582
 10
11.6427
 20
-0.548668
 30
0.000000
  70
    32
  0
VERTEX
  8
0
  5
583
 10
11.6429
 20
-0.548762
 30
0.000000
  70
    32
  0
VERTEX
  8
0
  5
584
 10
11.6431
 20
-0.548855
 30
0.000000
  70
    32
  0
VERTEX
  8
0
  5
585
 10
11.6432
 20
-0.548946
 30
0.000000
  70
    32
  0
VERTEX
  8
0
  5
586
 10
11.6434
 20
-0.549036
 30
0.000000
  70
    32
  0
VERTEX
  8
0
  5
587
 10
11.6436
 20
-0.549123
 30
0.000000
  70
    32
  0
VERTEX
  8
0
  5
588
 10
11.6438
 20
-0.549210
 30
0.000000
  70
    32
  0
VERTEX
  8
0
  5
589
 10
11.6439
 20
-0.549294
 30
0.000000
  70
    32
  0
VERTEX
  8
0
  5
58A
 10
11.6441
 20
-0.549377
 30
0.000000
  70
    32
  0
VERTEX
  8
0
  5
58B
 10
11.6443
 20
-0.549458
 30
0.000000
  70
    32
  0
VERTEX
  8
0
  5
58C
 10
11.6445
 20
-0.549538
 30
0.000000
  70
    32
  0
VERTEX
  8
0
  5
58D
 10
11.6447
 20
-0.549615
 30
0.000000
  70
    32
  0
VERTEX
  8
0
  5
58E
 10
11.6448
 20
-0.549691
 30
0.000000
  70
    32
  0
VERTEX
  8
0
  5
58F
 10
11.6450
 20
-0.549766
 30
0.000000
  70
    32
  0
VERTEX
  8
0
  5
590
 10
11.6452
 20
-0.549838
 30
0.000000
  70
    32
  0
VERTEX
  8
0
  5
591
 10
11.6454
 20
-0.549909
 30
0.000000
  70
    32
  0
VERTEX
  8
0
  5
592
 10
11.6456
 20
-0.549978
 30
0.000000
  70
    32
  0
VERTEX
  8
0
  5
593
 10
11.6458
 20
-0.550046
 30
0.000000
  70
    32
  0
VERTEX
  8
0
  5
594
 10
11.6459
 20
-0.550111
 30
0.000000
  70
    32
  0
VERTEX
  8
0
  5
595
 10
11.6461
 20
-0.550175
 30
0.000000
  70
    32
  0
VERTEX
  8
0
  5
596
 10
11.6463
 20
-0.550237
 30
0.000000
  70
    32
  0
VERTEX
  8
0
  5
597
 10
11.6465
 20
-0.550297
 30
0.000000
  70
    32
  0
VERTEX
  8
0
  5
598
 10
11.6467
 20
-0.550355
 30
0.000000
  70
    32
  0
VERTEX
  8
0
  5
599
 10
11.6469
 20
-0.550412
 30
0.000000
  70
    32
  0
VERTEX
  8
0
  5
59A
 10
11.6471
 20
-0.550466
 30
0.000000
  70
    32
  0
VERTEX
  8
0
  5
59B
 10
11.6473
 20
-0.550519
 30
0.000000
  70
    32
  0
VERTEX
  8
0
  5
59C
 10
11.6475
 20
-0.550570
 30
0.000000
  70
    32
  0
SEQEND
  8
0
  5
59D
  0
POLYLINE
  5
22C
  8
0
 66
     1
 10
0.0
 20
0.0
 30
0.0
  0
VERTEX
  5
22D
  8
0
 10
12.787402493447861
 20
-5.846524210561256
 30
0.0
  0
VERTEX
  5
22E
  8
0
 10
-12.787416056958371
 20
-5.846524210561256
 30
0.0
  0
SEQEND
  5
22F
  8
0
  0
POLYLINE
  5
230
  8
0
 66
     1
 10
0.0
 20
0.0
 30
0.0
  0
VERTEX
  5
231
  8
0
 10
12.787402493447861
 20
-5.0591081536026641
 30
0.0
  0
VERTEX
  5
232
  8
0
 10
12.35431959306765
 20
-5.0591081536026641
 30
0.0
  0
SEQEND
  5
233
  8
0
  0
POLYLINE
  5
234
  8
0
 66
     1
 10
0.0
 20
0.0
 30
0.0
  0
VERTEX
  5
235
  8
0
 10
11.64565327991135
 20
-5.0591081536026641
 30
0.0
  0
VERTEX
  5
236
  8
0
 10
-11.645666843421861
 20
-5.0591081536026641
 30
0.0
  0
SEQEND
  5
237
  8
0
  0
POLYLINE
  5
238
  8
0
 66
     1
 10
0.0
 20
0.0
 30
0.0
  0
VERTEX
  5
239
  8
0
 10
-12.354346720089101
 20
-5.0591081536026641
 30
0.0
  0
VERTEX
  5
23A
  8
0
 10
-12.78742962046932
 20
-5.0591081536026641
 30
0.0
  0
SEQEND
  5
23B
  8
0
  0
POLYLINE
  5
23C
  8
0
 66
     1
 10
0.0
 20
0.0
 30
0.0
  0
VERTEX
  5
23D
  8
0
 10
-12.94490198105246
 20
0.0
 30
0.0
  0
VERTEX
  5
23E
  8
0
 10
-12.94490198105246
 20
-0.2362221043854333
 30
0.0
  0
SEQEND
  5
23F
  8
0
  0
POLYLINE
  5
240
  8
0
 66
     1
 10
0.0
 20
0.0
 30
0.0
  0
VERTEX
  5
241
  8
0
 10
-11.055111582458039
 20
0.0
 30
0.0
  0
VERTEX
  5
242
  8
0
 10
-11.055111582458039
 20
-0.2362221043854333
 30
0.0
  0
SEQEND
  5
243
  8
0
  0
POLYLINE
  5
244
  8
0
 66
     1
 10
0.0
 20
0.0
 30
0.0
  0
VERTEX
  5
245
  8
0
 10
12.51520995837631
 20
-0.3066031620137437
 30
0.0
  0
VERTEX
  5
246
  8
0
 10
11.48476291460223
 20
-0.3066031620137437
 30
0.0
  0
SEQEND
  5
247
  8
0
  0
POLYLINE
  5
248
  8
0
 66
     1
 10
0.0
 20
0.0
 30
0.0
  0
VERTEX
  5
249
  8
0
 10
-11.484776478112741
 20
-0.3066031620137437
 30
0.0
  0
VERTEX
  5
24A
  8
0
 10
-12.515237085397761
 20
-0.3066031620137437
 30
0.0
  0
SEQEND
  5
24B
  8
0
  0
POLYLINE
  5
24C
  8
0
 66
     1
 10
0.0
 20
0.0
 30
0.0
  0
VERTEX
  5
24D
  8
0
 10
12.925207763346631
 20
-0.2559027585805325
 30
0.0
  0
VERTEX
  5
24E
  8
0
 10
11.07479223665336
 20
-0.2559027585805325
 30
0.0
  0
SEQEND
  5
24F
  8
0
  0
POLYLINE
  5
250
  8
0
 66
     1
 10
0.0
 20
0.0
 30
0.0
  0
VERTEX
  5
251
  8
0
 10
-11.07480580016432
 20
-0.2559027585805325
 30
0.0
  0
VERTEX
  5
252
  8
0
 10
-12.92520776334664
 20
-0.2559027585805325
 30
0.0
  0
SEQEND
  5
253
  8
0
  0
POLYLINE
  5
254
  8
0
 66
     1
 10
0.0
 20
0.0
 30
0.0
  0
VERTEX
  5
255
  8
0
 10
12.944874854030999
 20
-0.2362221043854333
 30
0.0
  0
VERTEX
  5
256
  8
0
 10
11.055125145968979
 20
-0.2362221043854333
 30
0.0
  0
SEQEND
  5
257
  8
0
  0
POLYLINE
  5
258
  8
0
 66
     1
 10
0.0
 20
0.0
 30
0.0
  0
VERTEX
  5
259
  8
0
 10
-11.055111582458039
 20
-0.2362221043854333
 30
0.0
  0
VERTEX
  5
25A
  8
0
 10
-12.94488841754197
 20
-0.2362221043854333
 30
0.0
  0
SEQEND
  5
25B
  8
0
  0
POLYLINE
  5
25C
  8
0
 66
     1
 10
0.0
 20
0.0
 30
0.0
  0
VERTEX
  5
25D
  8
0
 10
12.944874854030999
 20
0.0
 30
0.0
  0
VERTEX
  5
25E
  8
0
 10
11.055125145968979
 20
0.0
 30
0.0
  0
SEQEND
  5
25F
  8
0
  0
POLYLINE
  5
260
  8
0
 66
     1
 10
0.0
 20
0.0
 30
0.0
  0
VERTEX
  5
261
  8
0
 10
-11.055111582458039
 20
0.0
 30
0.0
  0
VERTEX
  5
262
  8
0
 10
-12.94488841754197
 20
0.0
 30
0.0
  0
SEQEND
  5
263
  8
0
  0
POLYLINE
  5
264
  8
0
 66
     1
 10
0.0
 20
0.0
 30
0.0
  0
VERTEX
  5
265
  8
0
 10
11.05509801894754
 20
0.0
 30
0.0
  0
VERTEX
  5
266
  8
0
 10
11.05509801894754
 20
-0.2362221043854333
 30
0.0
  0
SEQEND
  5
267
  8
0
  0
POLYLINE
  5
268
  8
0
 66
     1
 10
0.0
 20
0.0
 30
0.0
  0
VERTEX
  5
269
  8
0
 10
12.944874854030999
 20
0.0
 30
0.0
  0
VERTEX
  5
26A
  8
0
 10
12.944874854030999
 20
-0.2362221043854333
 30
0.0
  0
SEQEND
  5
26B
  8
0
  0
POLYLINE
  8
0
  5
59E
  66
     1
 10
0.000000
 20
0.000000
 30
0.000000
  70
     8
  0
VERTEX
  8
0
  5
59F
 10
-12.5152
 20
-0.306603
 30
0.000000
  70
    32
  0
VERTEX
  8
0
  5
5A0
 10
-12.5163
 20
-0.306071
 30
0.000000
  70
    32
  0
VERTEX
  8
0
  5
5A1
 10
-12.5173
 20
-0.305542
 30
0.000000
  70
    32
  0
VERTEX
  8
0
  5
5A2
 10
-12.5183
 20
-0.305014
 30
0.000000
  70
    32
  0
VERTEX
  8
0
  5
5A3
 10
-12.5193
 20
-0.304488
 30
0.000000
  70
    32
  0
VERTEX
  8
0
  5
5A4
 10
-12.5204
 20
-0.303965
 30
0.000000
  70
    32
  0
VERTEX
  8
0
  5
5A5
 10
-12.5214
 20
-0.303443
 30
0.000000
  70
    32
  0
VERTEX
  8
0
  5
5A6
 10
-12.5224
 20
-0.302923
 30
0.000000
  70
    32
  0
VERTEX
  8
0
  5
5A7
 10
-12.5235
 20
-0.302406
 30
0.000000
  70
    32
  0
VERTEX
  8
0
  5
5A8
 10
-12.5245
 20
-0.301890
 30
0.000000
  70
    32
  0
VERTEX
  8
0
  5
5A9
 10
-12.5255
 20
-0.301377
 30
0.000000
  70
    32
  0
VERTEX
  8
0
  5
5AA
 10
-12.5266
 20
-0.300866
 30
0.000000
  70
    32
  0
VERTEX
  8
0
  5
5AB
 10
-12.5276
 20
-0.300356
 30
0.000000
  70
    32
  0
VERTEX
  8
0
  5
5AC
 10
-12.5287
 20
-0.299849
 30
0.000000
  70
    32
  0
VERTEX
  8
0
  5
5AD
 10
-12.5297
 20
-0.299344
 30
0.000000
  70
    32
  0
VERTEX
  8
0
  5
5AE
 10
-12.5307
 20
-0.298841
 30
0.000000
  70
    32
  0
VERTEX
  8
0
  5
5AF
 10
-12.5318
 20
-0.298340
 30
0.000000
  70
    32
  0
VERTEX
  8
0
  5
5B0
 10
-12.5328
 20
-0.297841
 30
0.000000
  70
    32
  0
VERTEX
  8
0
  5
5B1
 10
-12.5339
 20
-0.297344
 30
0.000000
  70
    32
  0
VERTEX
  8
0
  5
5B2
 10
-12.5349
 20
-0.296849
 30
0.000000
  70
    32
  0
VERTEX
  8
0
  5
5B3
 10
-12.5360
 20
-0.296356
 30
0.000000
  70
    32
  0
VERTEX
  8
0
  5
5B4
 10
-12.5370
 20
-0.295865
 30
0.000000
  70
    32
  0
VERTEX
  8
0
  5
5B5
 10
-12.5380
 20
-0.295377
 30
0.000000
  70
    32
  0
VERTEX
  8
0
  5
5B6
 10
-12.5391
 20
-0.294890
 30
0.000000
  70
    32
  0
VERTEX
  8
0
  5
5B7
 10
-12.5401
 20
-0.294405
 30
0.000000
  70
    32
  0
VERTEX
  8
0
  5
5B8
 10
-12.5412
 20
-0.293923
 30
0.000000
  70
    32
  0
VERTEX
  8
0
  5
5B9
 10
-12.5422
 20
-0.293442
 30
0.000000
  70
    32
  0
VERTEX
  8
0
  5
5BA
 10
-12.5433
 20
-0.292964
 30
0.000000
  70
    32
  0
VERTEX
  8
0
  5
5BB
 10
-12.5443
 20
-0.292488
 30
0.000000
  70
    32
  0
VERTEX
  8
0
  5
5BC
 10
-12.5454
 20
-0.292013
 30
0.000000
  70
    32
  0
VERTEX
  8
0
  5
5BD
 10
-12.5465
 20
-0.291541
 30
0.000000
  70
    32
  0
VERTEX
  8
0
  5
5BE
 10
-12.5475
 20
-0.291071
 30
0.000000
  70
    32
  0
VERTEX
  8
0
  5
5BF
 10
-12.5486
 20
-0.290603
 30
0.000000
  70
    32
  0
VERTEX
  8
0
  5
5C0
 10
-12.5496
 20
-0.290137
 30
0.000000
  70
    32
  0
VERTEX
  8
0
  5
5C1
 10
-12.5507
 20
-0.289673
 30
0.000000
  70
    32
  0
VERTEX
  8
0
  5
5C2
 10
-12.5517
 20
-0.289211
 30
0.000000
  70
    32
  0
VERTEX
  8
0
  5
5C3
 10
-12.5528
 20
-0.288752
 30
0.000000
  70
    32
  0
VERTEX
  8
0
  5
5C4
 10
-12.5539
 20
-0.288294
 30
0.000000
  70
    32
  0
VERTEX
  8
0
  5
5C5
 10
-12.5549
 20
-0.287839
 30
0.000000
  70
    32
  0
VERTEX
  8
0
  5
5C6
 10
-12.5560
 20
-0.287385
 30
0.000000
  70
    32
  0
VERTEX
  8
0
  5
5C7
 10
-12.5570
 20
-0.286934
 30
0.000000
  70
    32
  0
VERTEX
  8
0
  5
5C8
 10
-12.5581
 20
-0.286484
 30
0.000000
  70
    32
  0
VERTEX
  8
0
  5
5C9
 10
-12.5592
 20
-0.286037
 30
0.000000
  70
    32
  0
VERTEX
  8
0
  5
5CA
 10
-12.5602
 20
-0.285592
 30
0.000000
  70
    32
  0
VERTEX
  8
0
  5
5CB
 10
-12.5613
 20
-0.285149
 30
0.000000
  70
    32
  0
VERTEX
  8
0
  5
5CC
 10
-12.5624
 20
-0.284708
 30
0.000000
  70
    32
  0
VERTEX
  8
0
  5
5CD
 10
-12.5634
 20
-0.284269
 30
0.000000
  70
    32
  0
VERTEX
  8
0
  5
5CE
 10
-12.5645
 20
-0.283833
 30
0.000000
  70
    32
  0
VERTEX
  8
0
  5
5CF
 10
-12.5656
 20
-0.283398
 30
0.000000
  70
    32
  0
VERTEX
  8
0
  5
5D0
 10
-12.5666
 20
-0.282965
 30
0.000000
  70
    32
  0
VERTEX
  8
0
  5
5D1
 10
-12.5677
 20
-0.282535
 30
0.000000
  70
    32
  0
VERTEX
  8
0
  5
5D2
 10
-12.5688
 20
-0.282107
 30
0.000000
  70
    32
  0
VERTEX
  8
0
  5
5D3
 10
-12.5699
 20
-0.281680
 30
0.000000
  70
    32
  0
VERTEX
  8
0
  5
5D4
 10
-12.5709
 20
-0.281256
 30
0.000000
  70
    32
  0
VERTEX
  8
0
  5
5D5
 10
-12.5720
 20
-0.280834
 30
0.000000
  70
    32
  0
VERTEX
  8
0
  5
5D6
 10
-12.5731
 20
-0.280414
 30
0.000000
  70
    32
  0
VERTEX
  8
0
  5
5D7
 10
-12.5742
 20
-0.279996
 30
0.000000
  70
    32
  0
VERTEX
  8
0
  5
5D8
 10
-12.5752
 20
-0.279581
 30
0.000000
  70
    32
  0
VERTEX
  8
0
  5
5D9
 10
-12.5763
 20
-0.279167
 30
0.000000
  70
    32
  0
VERTEX
  8
0
  5
5DA
 10
-12.5774
 20
-0.278755
 30
0.000000
  70
    32
  0
VERTEX
  8
0
  5
5DB
 10
-12.5785
 20
-0.278346
 30
0.000000
  70
    32
  0
VERTEX
  8
0
  5
5DC
 10
-12.5795
 20
-0.277939
 30
0.000000
  70
    32
  0
VERTEX
  8
0
  5
5DD
 10
-12.5806
 20
-0.277533
 30
0.000000
  70
    32
  0
VERTEX
  8
0
  5
5DE
 10
-12.5817
 20
-0.277130
 30
0.000000
  70
    32
  0
VERTEX
  8
0
  5
5DF
 10
-12.5828
 20
-0.276729
 30
0.000000
  70
    32
  0
VERTEX
  8
0
  5
5E0
 10
-12.5839
 20
-0.276331
 30
0.000000
  70
    32
  0
VERTEX
  8
0
  5
5E1
 10
-12.5850
 20
-0.275934
 30
0.000000
  70
    32
  0
VERTEX
  8
0
  5
5E2
 10
-12.5860
 20
-0.275539
 30
0.000000
  70
    32
  0
VERTEX
  8
0
  5
5E3
 10
-12.5871
 20
-0.275147
 30
0.000000
  70
    32
  0
VERTEX
  8
0
  5
5E4
 10
-12.5882
 20
-0.274756
 30
0.000000
  70
    32
  0
VERTEX
  8
0
  5
5E5
 10
-12.5893
 20
-0.274368
 30
0.000000
  70
    32
  0
VERTEX
  8
0
  5
5E6
 10
-12.5904
 20
-0.273982
 30
0.000000
  70
    32
  0
VERTEX
  8
0
  5
5E7
 10
-12.5915
 20
-0.273598
 30
0.000000
  70
    32
  0
VERTEX
  8
0
  5
5E8
 10
-12.5926
 20
-0.273216
 30
0.000000
  70
    32
  0
VERTEX
  8
0
  5
5E9
 10
-12.5937
 20
-0.272836
 30
0.000000
  70
    32
  0
VERTEX
  8
0
  5
5EA
 10
-12.5948
 20
-0.272458
 30
0.000000
  70
    32
  0
VERTEX
  8
0
  5
5EB
 10
-12.5958
 20
-0.272083
 30
0.000000
  70
    32
  0
VERTEX
  8
0
  5
5EC
 10
-12.5969
 20
-0.271710
 30
0.000000
  70
    32
  0
VERTEX
  8
0
  5
5ED
 10
-12.5980
 20
-0.271338
 30
0.000000
  70
    32
  0
VERTEX
  8
0
  5
5EE
 10
-12.5991
 20
-0.270969
 30
0.000000
  70
    32
  0
VERTEX
  8
0
  5
5EF
 10
-12.6002
 20
-0.270602
 30
0.000000
  70
    32
  0
VERTEX
  8
0
  5
5F0
 10
-12.6013
 20
-0.270237
 30
0.000000
  70
    32
  0
VERTEX
  8
0
  5
5F1
 10
-12.6024
 20
-0.269875
 30
0.000000
  70
    32
  0
VERTEX
  8
0
  5
5F2
 10
-12.6035
 20
-0.269514
 30
0.000000
  70
    32
  0
VERTEX
  8
0
  5
5F3
 10
-12.6046
 20
-0.269155
 30
0.000000
  70
    32
  0
VERTEX
  8
0
  5
5F4
 10
-12.6057
 20
-0.268799
 30
0.000000
  70
    32
  0
VERTEX
  8
0
  5
5F5
 10
-12.6068
 20
-0.268445
 30
0.000000
  70
    32
  0
VERTEX
  8
0
  5
5F6
 10
-12.6079
 20
-0.268093
 30
0.000000
  70
    32
  0
VERTEX
  8
0
  5
5F7
 10
-12.6090
 20
-0.267743
 30
0.000000
  70
    32
  0
VERTEX
  8
0
  5
5F8
 10
-12.6101
 20
-0.267395
 30
0.000000
  70
    32
  0
VERTEX
  8
0
  5
5F9
 10
-12.6112
 20
-0.267050
 30
0.000000
  70
    32
  0
VERTEX
  8
0
  5
5FA
 10
-12.6123
 20
-0.266706
 30
0.000000
  70
    32
  0
VERTEX
  8
0
  5
5FB
 10
-12.6134
 20
-0.266365
 30
0.000000
  70
    32
  0
VERTEX
  8
0
  5
5FC
 10
-12.6145
 20
-0.266026
 30
0.000000
  70
    32
  0
VERTEX
  8
0
  5
5FD
 10
-12.6156
 20
-0.265689
 30
0.000000
  70
    32
  0
VERTEX
  8
0
  5
5FE
 10
-12.6167
 20
-0.265354
 30
0.000000
  70
    32
  0
VERTEX
  8
0
  5
5FF
 10
-12.6178
 20
-0.265021
 30
0.000000
  70
    32
  0
VERTEX
  8
0
  5
600
 10
-12.6189
 20
-0.264691
 30
0.000000
  70
    32
  0
VERTEX
  8
0
  5
601
 10
-12.6200
 20
-0.264362
 30
0.000000
  70
    32
  0
VERTEX
  8
0
  5
602
 10
-12.6211
 20
-0.264036
 30
0.000000
  70
    32
  0
VERTEX
  8
0
  5
603
 10
-12.6223
 20
-0.263712
 30
0.000000
  70
    32
  0
VERTEX
  8
0
  5
604
 10
-12.6234
 20
-0.263390
 30
0.000000
  70
    32
  0
VERTEX
  8
0
  5
605
 10
-12.6245
 20
-0.263070
 30
0.000000
  70
    32
  0
VERTEX
  8
0
  5
606
 10
-12.6256
 20
-0.262752
 30
0.000000
  70
    32
  0
VERTEX
  8
0
  5
607
 10
-12.6267
 20
-0.262437
 30
0.000000
  70
    32
  0
VERTEX
  8
0
  5
608
 10
-12.6278
 20
-0.262124
 30
0.000000
  70
    32
  0
VERTEX
  8
0
  5
609
 10
-12.6289
 20
-0.261813
 30
0.000000
  70
    32
  0
VERTEX
  8
0
  5
60A
 10
-12.6300
 20
-0.261504
 30
0.000000
  70
    32
  0
VERTEX
  8
0
  5
60B
 10
-12.6311
 20
-0.261197
 30
0.000000
  70
    32
  0
VERTEX
  8
0
  5
60C
 10
-12.6323
 20
-0.260892
 30
0.000000
  70
    32
  0
VERTEX
  8
0
  5
60D
 10
-12.6334
 20
-0.260590
 30
0.000000
  70
    32
  0
VERTEX
  8
0
  5
60E
 10
-12.6345
 20
-0.260289
 30
0.000000
  70
    32
  0
VERTEX
  8
0
  5
60F
 10
-12.6356
 20
-0.259991
 30
0.000000
  70
    32
  0
VERTEX
  8
0
  5
610
 10
-12.6367
 20
-0.259695
 30
0.000000
  70
    32
  0
VERTEX
  8
0
  5
611
 10
-12.6378
 20
-0.259402
 30
0.000000
  70
    32
  0
VERTEX
  8
0
  5
612
 10
-12.6390
 20
-0.259110
 30
0.000000
  70
    32
  0
VERTEX
  8
0
  5
613
 10
-12.6401
 20
-0.258821
 30
0.000000
  70
    32
  0
VERTEX
  8
0
  5
614
 10
-12.6412
 20
-0.258533
 30
0.000000
  70
    32
  0
VERTEX
  8
0
  5
615
 10
-12.6423
 20
-0.258248
 30
0.000000
  70
    32
  0
VERTEX
  8
0
  5
616
 10
-12.6434
 20
-0.257965
 30
0.000000
  70
    32
  0
VERTEX
  8
0
  5
617
 10
-12.6446
 20
-0.257685
 30
0.000000
  70
    32
  0
VERTEX
  8
0
  5
618
 10
-12.6457
 20
-0.257406
 30
0.000000
  70
    32
  0
VERTEX
  8
0
  5
619
 10
-12.6468
 20
-0.257130
 30
0.000000
  70
    32
  0
VERTEX
  8
0
  5
61A
 10
-12.6479
 20
-0.256856
 30
0.000000
  70
    32
  0
VERTEX
  8
0
  5
61B
 10
-12.6491
 20
-0.256584
 30
0.000000
  70
    32
  0
VERTEX
  8
0
  5
61C
 10
-12.6502
 20
-0.256314
 30
0.000000
  70
    32
  0
VERTEX
  8
0
  5
61D
 10
-12.6513
 20
-0.256046
 30
0.000000
  70
    32
  0
VERTEX
  8
0
  5
61E
 10
-12.6524
 20
-0.255781
 30
0.000000
  70
    32
  0
SEQEND
  8
0
  5
61F
  0
POLYLINE
  8
0
  5
620
  66
     1
 10
0.000000
 20
0.000000
 30
0.000000
  70
     8
  0
VERTEX
  8
0
  5
621
 10
-11.3476
 20
-0.255781
 30
0.000000
  70
    32
  0
VERTEX
  8
0
  5
622
 10
-11.3487
 20
-0.256046
 30
0.000000
  70
    32
  0
VERTEX
  8
0
  5
623
 10
-11.3498
 20
-0.256314
 30
0.000000
  70
    32
  0
VERTEX
  8
0
  5
624
 10
-11.3510
 20
-0.256583
 30
0.000000
  70
    32
  0
VERTEX
  8
0
  5
625
 10
-11.3521
 20
-0.256855
 30
0.000000
  70
    32
  0
VERTEX
  8
0
  5
626
 10
-11.3532
 20
-0.257130
 30
0.000000
  70
    32
  0
VERTEX
  8
0
  5
627
 10
-11.3543
 20
-0.257406
 30
0.000000
  70
    32
  0
VERTEX
  8
0
  5
628
 10
-11.3555
 20
-0.257684
 30
0.000000
  70
    32
  0
VERTEX
  8
0
  5
629
 10
-11.3566
 20
-0.257965
 30
0.000000
  70
    32
  0
VERTEX
  8
0
  5
62A
 10
-11.3577
 20
-0.258248
 30
0.000000
  70
    32
  0
VERTEX
  8
0
  5
62B
 10
-11.3588
 20
-0.258533
 30
0.000000
  70
    32
  0
VERTEX
  8
0
  5
62C
 10
-11.3599
 20
-0.258820
 30
0.000000
  70
    32
  0
VERTEX
  8
0
  5
62D
 10
-11.3611
 20
-0.259110
 30
0.000000
  70
    32
  0
VERTEX
  8
0
  5
62E
 10
-11.3622
 20
-0.259401
 30
0.000000
  70
    32
  0
VERTEX
  8
0
  5
62F
 10
-11.3633
 20
-0.259695
 30
0.000000
  70
    32
  0
VERTEX
  8
0
  5
630
 10
-11.3644
 20
-0.259991
 30
0.000000
  70
    32
  0
VERTEX
  8
0
  5
631
 10
-11.3655
 20
-0.260289
 30
0.000000
  70
    32
  0
VERTEX
  8
0
  5
632
 10
-11.3666
 20
-0.260589
 30
0.000000
  70
    32
  0
VERTEX
  8
0
  5
633
 10
-11.3678
 20
-0.260892
 30
0.000000
  70
    32
  0
VERTEX
  8
0
  5
634
 10
-11.3689
 20
-0.261196
 30
0.000000
  70
    32
  0
VERTEX
  8
0
  5
635
 10
-11.3700
 20
-0.261503
 30
0.000000
  70
    32
  0
VERTEX
  8
0
  5
636
 10
-11.3711
 20
-0.261812
 30
0.000000
  70
    32
  0
VERTEX
  8
0
  5
637
 10
-11.3722
 20
-0.262123
 30
0.000000
  70
    32
  0
VERTEX
  8
0
  5
638
 10
-11.3733
 20
-0.262436
 30
0.000000
  70
    32
  0
VERTEX
  8
0
  5
639
 10
-11.3744
 20
-0.262751
 30
0.000000
  70
    32
  0
VERTEX
  8
0
  5
63A
 10
-11.3755
 20
-0.263069
 30
0.000000
  70
    32
  0
VERTEX
  8
0
  5
63B
 10
-11.3767
 20
-0.263389
 30
0.000000
  70
    32
  0
VERTEX
  8
0
  5
63C
 10
-11.3778
 20
-0.263711
 30
0.000000
  70
    32
  0
VERTEX
  8
0
  5
63D
 10
-11.3789
 20
-0.264035
 30
0.000000
  70
    32
  0
VERTEX
  8
0
  5
63E
 10
-11.3800
 20
-0.264361
 30
0.000000
  70
    32
  0
VERTEX
  8
0
  5
63F
 10
-11.3811
 20
-0.264689
 30
0.000000
  70
    32
  0
VERTEX
  8
0
  5
640
 10
-11.3822
 20
-0.265020
 30
0.000000
  70
    32
  0
VERTEX
  8
0
  5
641
 10
-11.3833
 20
-0.265352
 30
0.000000
  70
    32
  0
VERTEX
  8
0
  5
642
 10
-11.3844
 20
-0.265687
 30
0.000000
  70
    32
  0
VERTEX
  8
0
  5
643
 10
-11.3855
 20
-0.266024
 30
0.000000
  70
    32
  0
VERTEX
  8
0
  5
644
 10
-11.3866
 20
-0.266363
 30
0.000000
  70
    32
  0
VERTEX
  8
0
  5
645
 10
-11.3877
 20
-0.266704
 30
0.000000
  70
    32
  0
VERTEX
  8
0
  5
646
 10
-11.3888
 20
-0.267048
 30
0.000000
  70
    32
  0
VERTEX
  8
0
  5
647
 10
-11.3899
 20
-0.267393
 30
0.000000
  70
    32
  0
VERTEX
  8
0
  5
648
 10
-11.3910
 20
-0.267741
 30
0.000000
  70
    32
  0
VERTEX
  8
0
  5
649
 10
-11.3921
 20
-0.268091
 30
0.000000
  70
    32
  0
VERTEX
  8
0
  5
64A
 10
-11.3932
 20
-0.268443
 30
0.000000
  70
    32
  0
VERTEX
  8
0
  5
64B
 10
-11.3943
 20
-0.268797
 30
0.000000
  70
    32
  0
VERTEX
  8
0
  5
64C
 10
-11.3954
 20
-0.269153
 30
0.000000
  70
    32
  0
VERTEX
  8
0
  5
64D
 10
-11.3965
 20
-0.269511
 30
0.000000
  70
    32
  0
VERTEX
  8
0
  5
64E
 10
-11.3976
 20
-0.269872
 30
0.000000
  70
    32
  0
VERTEX
  8
0
  5
64F
 10
-11.3987
 20
-0.270235
 30
0.000000
  70
    32
  0
VERTEX
  8
0
  5
650
 10
-11.3998
 20
-0.270599
 30
0.000000
  70
    32
  0
VERTEX
  8
0
  5
651
 10
-11.4009
 20
-0.270966
 30
0.000000
  70
    32
  0
VERTEX
  8
0
  5
652
 10
-11.4020
 20
-0.271335
 30
0.000000
  70
    32
  0
VERTEX
  8
0
  5
653
 10
-11.4031
 20
-0.271707
 30
0.000000
  70
    32
  0
VERTEX
  8
0
  5
654
 10
-11.4042
 20
-0.272080
 30
0.000000
  70
    32
  0
VERTEX
  8
0
  5
655
 10
-11.4053
 20
-0.272455
 30
0.000000
  70
    32
  0
VERTEX
  8
0
  5
656
 10
-11.4064
 20
-0.272833
 30
0.000000
  70
    32
  0
VERTEX
  8
0
  5
657
 10
-11.4074
 20
-0.273213
 30
0.000000
  70
    32
  0
VERTEX
  8
0
  5
658
 10
-11.4085
 20
-0.273595
 30
0.000000
  70
    32
  0
VERTEX
  8
0
  5
659
 10
-11.4096
 20
-0.273979
 30
0.000000
  70
    32
  0
VERTEX
  8
0
  5
65A
 10
-11.4107
 20
-0.274365
 30
0.000000
  70
    32
  0
VERTEX
  8
0
  5
65B
 10
-11.4118
 20
-0.274753
 30
0.000000
  70
    32
  0
VERTEX
  8
0
  5
65C
 10
-11.4129
 20
-0.275143
 30
0.000000
  70
    32
  0
VERTEX
  8
0
  5
65D
 10
-11.4140
 20
-0.275536
 30
0.000000
  70
    32
  0
VERTEX
  8
0
  5
65E
 10
-11.4151
 20
-0.275930
 30
0.000000
  70
    32
  0
VERTEX
  8
0
  5
65F
 10
-11.4161
 20
-0.276327
 30
0.000000
  70
    32
  0
VERTEX
  8
0
  5
660
 10
-11.4172
 20
-0.276726
 30
0.000000
  70
    32
  0
VERTEX
  8
0
  5
661
 10
-11.4183
 20
-0.277127
 30
0.000000
  70
    32
  0
VERTEX
  8
0
  5
662
 10
-11.4194
 20
-0.277530
 30
0.000000
  70
    32
  0
VERTEX
  8
0
  5
663
 10
-11.4205
 20
-0.277935
 30
0.000000
  70
    32
  0
VERTEX
  8
0
  5
664
 10
-11.4215
 20
-0.278343
 30
0.000000
  70
    32
  0
VERTEX
  8
0
  5
665
 10
-11.4226
 20
-0.278752
 30
0.000000
  70
    32
  0
VERTEX
  8
0
  5
666
 10
-11.4237
 20
-0.279164
 30
0.000000
  70
    32
  0
VERTEX
  8
0
  5
667
 10
-11.4248
 20
-0.279577
 30
0.000000
  70
    32
  0
VERTEX
  8
0
  5
668
 10
-11.4259
 20
-0.279993
 30
0.000000
  70
    32
  0
VERTEX
  8
0
  5
669
 10
-11.4269
 20
-0.280411
 30
0.000000
  70
    32
  0
VERTEX
  8
0
  5
66A
 10
-11.4280
 20
-0.280831
 30
0.000000
  70
    32
  0
VERTEX
  8
0
  5
66B
 10
-11.4291
 20
-0.281253
 30
0.000000
  70
    32
  0
VERTEX
  8
0
  5
66C
 10
-11.4302
 20
-0.281677
 30
0.000000
  70
    32
  0
VERTEX
  8
0
  5
66D
 10
-11.4312
 20
-0.282104
 30
0.000000
  70
    32
  0
VERTEX
  8
0
  5
66E
 10
-11.4323
 20
-0.282532
 30
0.000000
  70
    32
  0
VERTEX
  8
0
  5
66F
 10
-11.4334
 20
-0.282963
 30
0.000000
  70
    32
  0
VERTEX
  8
0
  5
670
 10
-11.4344
 20
-0.283395
 30
0.000000
  70
    32
  0
VERTEX
  8
0
  5
671
 10
-11.4355
 20
-0.283830
 30
0.000000
  70
    32
  0
VERTEX
  8
0
  5
672
 10
-11.4366
 20
-0.284267
 30
0.000000
  70
    32
  0
VERTEX
  8
0
  5
673
 10
-11.4377
 20
-0.284706
 30
0.000000
  70
    32
  0
VERTEX
  8
0
  5
674
 10
-11.4387
 20
-0.285147
 30
0.000000
  70
    32
  0
VERTEX
  8
0
  5
675
 10
-11.4398
 20
-0.285590
 30
0.000000
  70
    32
  0
VERTEX
  8
0
  5
676
 10
-11.4408
 20
-0.286035
 30
0.000000
  70
    32
  0
VERTEX
  8
0
  5
677
 10
-11.4419
 20
-0.286483
 30
0.000000
  70
    32
  0
VERTEX
  8
0
  5
678
 10
-11.4430
 20
-0.286932
 30
0.000000
  70
    32
  0
VERTEX
  8
0
  5
679
 10
-11.4440
 20
-0.287384
 30
0.000000
  70
    32
  0
VERTEX
  8
0
  5
67A
 10
-11.4451
 20
-0.287837
 30
0.000000
  70
    32
  0
VERTEX
  8
0
  5
67B
 10
-11.4462
 20
-0.288293
 30
0.000000
  70
    32
  0
VERTEX
  8
0
  5
67C
 10
-11.4472
 20
-0.288751
 30
0.000000
  70
    32
  0
VERTEX
  8
0
  5
67D
 10
-11.4483
 20
-0.289211
 30
0.000000
  70
    32
  0
VERTEX
  8
0
  5
67E
 10
-11.4493
 20
-0.289673
 30
0.000000
  70
    32
  0
VERTEX
  8
0
  5
67F
 10
-11.4504
 20
-0.290137
 30
0.000000
  70
    32
  0
VERTEX
  8
0
  5
680
 10
-11.4515
 20
-0.290603
 30
0.000000
  70
    32
  0
VERTEX
  8
0
  5
681
 10
-11.4525
 20
-0.291071
 30
0.000000
  70
    32
  0
VERTEX
  8
0
  5
682
 10
-11.4536
 20
-0.291542
 30
0.000000
  70
    32
  0
VERTEX
  8
0
  5
683
 10
-11.4546
 20
-0.292014
 30
0.000000
  70
    32
  0
VERTEX
  8
0
  5
684
 10
-11.4557
 20
-0.292489
 30
0.000000
  70
    32
  0
VERTEX
  8
0
  5
685
 10
-11.4567
 20
-0.292965
 30
0.000000
  70
    32
  0
VERTEX
  8
0
  5
686
 10
-11.4578
 20
-0.293444
 30
0.000000
  70
    32
  0
VERTEX
  8
0
  5
687
 10
-11.4588
 20
-0.293925
 30
0.000000
  70
    32
  0
VERTEX
  8
0
  5
688
 10
-11.4599
 20
-0.294407
 30
0.000000
  70
    32
  0
VERTEX
  8
0
  5
689
 10
-11.4609
 20
-0.294892
 30
0.000000
  70
    32
  0
VERTEX
  8
0
  5
68A
 10
-11.4620
 20
-0.295379
 30
0.000000
  70
    32
  0
VERTEX
  8
0
  5
68B
 10
-11.4630
 20
-0.295868
 30
0.000000
  70
    32
  0
VERTEX
  8
0
  5
68C
 10
-11.4641
 20
-0.296360
 30
0.000000
  70
    32
  0
VERTEX
  8
0
  5
68D
 10
-11.4651
 20
-0.296853
 30
0.000000
  70
    32
  0
VERTEX
  8
0
  5
68E
 10
-11.4661
 20
-0.297348
 30
0.000000
  70
    32
  0
VERTEX
  8
0
  5
68F
 10
-11.4672
 20
-0.297845
 30
0.000000
  70
    32
  0
VERTEX
  8
0
  5
690
 10
-11.4682
 20
-0.298345
 30
0.000000
  70
    32
  0
VERTEX
  8
0
  5
691
 10
-11.4693
 20
-0.298846
 30
0.000000
  70
    32
  0
VERTEX
  8
0
  5
692
 10
-11.4703
 20
-0.299350
 30
0.000000
  70
    32
  0
VERTEX
  8
0
  5
693
 10
-11.4714
 20
-0.299856
 30
0.000000
  70
    32
  0
VERTEX
  8
0
  5
694
 10
-11.4724
 20
-0.300363
 30
0.000000
  70
    32
  0
VERTEX
  8
0
  5
695
 10
-11.4734
 20
-0.300873
 30
0.000000
  70
    32
  0
VERTEX
  8
0
  5
696
 10
-11.4745
 20
-0.301385
 30
0.000000
  70
    32
  0
VERTEX
  8
0
  5
697
 10
-11.4755
 20
-0.301899
 30
0.000000
  70
    32
  0
VERTEX
  8
0
  5
698
 10
-11.4765
 20
-0.302415
 30
0.000000
  70
    32
  0
VERTEX
  8
0
  5
699
 10
-11.4776
 20
-0.302933
 30
0.000000
  70
    32
  0
VERTEX
  8
0
  5
69A
 10
-11.4786
 20
-0.303453
 30
0.000000
  70
    32
  0
VERTEX
  8
0
  5
69B
 10
-11.4796
 20
-0.303975
 30
0.000000
  70
    32
  0
VERTEX
  8
0
  5
69C
 10
-11.4807
 20
-0.304499
 30
0.000000
  70
    32
  0
VERTEX
  8
0
  5
69D
 10
-11.4817
 20
-0.305026
 30
0.000000
  70
    32
  0
VERTEX
  8
0
  5
69E
 10
-11.4827
 20
-0.305554
 30
0.000000
  70
    32
  0
VERTEX
  8
0
  5
69F
 10
-11.4837
 20
-0.306084
 30
0.000000
  70
    32
  0
VERTEX
  8
0
  5
6A0
 10
-11.4848
 20
-0.306617
 30
0.000000
  70
    32
  0
SEQEND
  8
0
  5
6A1
  0
POLYLINE
  8
0
  5
6A2
  66
     1
 10
0.000000
 20
0.000000
 30
0.000000
  70
     8
  0
VERTEX
  8
0
  5
6A3
 10
-12.3673
 20
-0.532815
 30
0.000000
  70
    32
  0
VERTEX
  8
0
  5
6A4
 10
-12.3674
 20
-0.530548
 30
0.000000
  70
    32
  0
VERTEX
  8
0
  5
6A5
 10
-12.3676
 20
-0.528284
 30
0.000000
  70
    32
  0
VERTEX
  8
0
  5
6A6
 10
-12.3678
 20
-0.526024
 30
0.000000
  70
    32
  0
VERTEX
  8
0
  5
6A7
 10
-12.3680
 20
-0.523768
 30
0.000000
  70
    32
  0
VERTEX
  8
0
  5
6A8
 10
-12.3683
 20
-0.521517
 30
0.000000
  70
    32
  0
VERTEX
  8
0
  5
6A9
 10
-12.3685
 20
-0.519270
 30
0.000000
  70
    32
  0
VERTEX
  8
0
  5
6AA
 10
-12.3688
 20
-0.517027
 30
0.000000
  70
    32
  0
VERTEX
  8
0
  5
6AB
 10
-12.3691
 20
-0.514789
 30
0.000000
  70
    32
  0
VERTEX
  8
0
  5
6AC
 10
-12.3694
 20
-0.512555
 30
0.000000
  70
    32
  0
VERTEX
  8
0
  5
6AD
 10
-12.3697
 20
-0.510326
 30
0.000000
  70
    32
  0
VERTEX
  8
0
  5
6AE
 10
-12.3700
 20
-0.508101
 30
0.000000
  70
    32
  0
VERTEX
  8
0
  5
6AF
 10
-12.3704
 20
-0.505882
 30
0.000000
  70
    32
  0
VERTEX
  8
0
  5
6B0
 10
-12.3708
 20
-0.503667
 30
0.000000
  70
    32
  0
VERTEX
  8
0
  5
6B1
 10
-12.3712
 20
-0.501458
 30
0.000000
  70
    32
  0
VERTEX
  8
0
  5
6B2
 10
-12.3716
 20
-0.499254
 30
0.000000
  70
    32
  0
VERTEX
  8
0
  5
6B3
 10
-12.3720
 20
-0.497054
 30
0.000000
  70
    32
  0
VERTEX
  8
0
  5
6B4
 10
-12.3725
 20
-0.494861
 30
0.000000
  70
    32
  0
VERTEX
  8
0
  5
6B5
 10
-12.3729
 20
-0.492672
 30
0.000000
  70
    32
  0
VERTEX
  8
0
  5
6B6
 10
-12.3734
 20
-0.490489
 30
0.000000
  70
    32
  0
VERTEX
  8
0
  5
6B7
 10
-12.3739
 20
-0.488312
 30
0.000000
  70
    32
  0
VERTEX
  8
0
  5
6B8
 10
-12.3744
 20
-0.486140
 30
0.000000
  70
    32
  0
VERTEX
  8
0
  5
6B9
 10
-12.3750
 20
-0.483974
 30
0.000000
  70
    32
  0
VERTEX
  8
0
  5
6BA
 10
-12.3755
 20
-0.481814
 30
0.000000
  70
    32
  0
VERTEX
  8
0
  5
6BB
 10
-12.3761
 20
-0.479659
 30
0.000000
  70
    32
  0
VERTEX
  8
0
  5
6BC
 10
-12.3767
 20
-0.477511
 30
0.000000
  70
    32
  0
VERTEX
  8
0
  5
6BD
 10
-12.3773
 20
-0.475369
 30
0.000000
  70
    32
  0
VERTEX
  8
0
  5
6BE
 10
-12.3779
 20
-0.473233
 30
0.000000
  70
    32
  0
VERTEX
  8
0
  5
6BF
 10
-12.3785
 20
-0.471104
 30
0.000000
  70
    32
  0
VERTEX
  8
0
  5
6C0
 10
-12.3792
 20
-0.468981
 30
0.000000
  70
    32
  0
VERTEX
  8
0
  5
6C1
 10
-12.3799
 20
-0.466864
 30
0.000000
  70
    32
  0
VERTEX
  8
0
  5
6C2
 10
-12.3806
 20
-0.464754
 30
0.000000
  70
    32
  0
VERTEX
  8
0
  5
6C3
 10
-12.3813
 20
-0.462650
 30
0.000000
  70
    32
  0
VERTEX
  8
0
  5
6C4
 10
-12.3820
 20
-0.460554
 30
0.000000
  70
    32
  0
VERTEX
  8
0
  5
6C5
 10
-12.3827
 20
-0.458464
 30
0.000000
  70
    32
  0
VERTEX
  8
0
  5
6C6
 10
-12.3835
 20
-0.456381
 30
0.000000
  70
    32
  0
VERTEX
  8
0
  5
6C7
 10
-12.3842
 20
-0.454305
 30
0.000000
  70
    32
  0
VERTEX
  8
0
  5
6C8
 10
-12.3850
 20
-0.452236
 30
0.000000
  70
    32
  0
VERTEX
  8
0
  5
6C9
 10
-12.3858
 20
-0.450174
 30
0.000000
  70
    32
  0
VERTEX
  8
0
  5
6CA
 10
-12.3866
 20
-0.448120
 30
0.000000
  70
    32
  0
VERTEX
  8
0
  5
6CB
 10
-12.3875
 20
-0.446073
 30
0.000000
  70
    32
  0
VERTEX
  8
0
  5
6CC
 10
-12.3883
 20
-0.444034
 30
0.000000
  70
    32
  0
VERTEX
  8
0
  5
6CD
 10
-12.3892
 20
-0.442002
 30
0.000000
  70
    32
  0
VERTEX
  8
0
  5
6CE
 10
-12.3901
 20
-0.439978
 30
0.000000
  70
    32
  0
VERTEX
  8
0
  5
6CF
 10
-12.3910
 20
-0.437962
 30
0.000000
  70
    32
  0
VERTEX
  8
0
  5
6D0
 10
-12.3919
 20
-0.435953
 30
0.000000
  70
    32
  0
VERTEX
  8
0
  5
6D1
 10
-12.3928
 20
-0.433952
 30
0.000000
  70
    32
  0
VERTEX
  8
0
  5
6D2
 10
-12.3938
 20
-0.431960
 30
0.000000
  70
    32
  0
VERTEX
  8
0
  5
6D3
 10
-12.3947
 20
-0.429975
 30
0.000000
  70
    32
  0
VERTEX
  8
0
  5
6D4
 10
-12.3957
 20
-0.427999
 30
0.000000
  70
    32
  0
VERTEX
  8
0
  5
6D5
 10
-12.3967
 20
-0.426031
 30
0.000000
  70
    32
  0
VERTEX
  8
0
  5
6D6
 10
-12.3977
 20
-0.424071
 30
0.000000
  70
    32
  0
VERTEX
  8
0
  5
6D7
 10
-12.3987
 20
-0.422120
 30
0.000000
  70
    32
  0
VERTEX
  8
0
  5
6D8
 10
-12.3998
 20
-0.420178
 30
0.000000
  70
    32
  0
VERTEX
  8
0
  5
6D9
 10
-12.4008
 20
-0.418244
 30
0.000000
  70
    32
  0
VERTEX
  8
0
  5
6DA
 10
-12.4019
 20
-0.416319
 30
0.000000
  70
    32
  0
VERTEX
  8
0
  5
6DB
 10
-12.4030
 20
-0.414403
 30
0.000000
  70
    32
  0
VERTEX
  8
0
  5
6DC
 10
-12.4041
 20
-0.412495
 30
0.000000
  70
    32
  0
VERTEX
  8
0
  5
6DD
 10
-12.4052
 20
-0.410597
 30
0.000000
  70
    32
  0
VERTEX
  8
0
  5
6DE
 10
-12.4063
 20
-0.408708
 30
0.000000
  70
    32
  0
VERTEX
  8
0
  5
6DF
 10
-12.4075
 20
-0.406828
 30
0.000000
  70
    32
  0
VERTEX
  8
0
  5
6E0
 10
-12.4086
 20
-0.404957
 30
0.000000
  70
    32
  0
VERTEX
  8
0
  5
6E1
 10
-12.4098
 20
-0.403096
 30
0.000000
  70
    32
  0
VERTEX
  8
0
  5
6E2
 10
-12.4110
 20
-0.401244
 30
0.000000
  70
    32
  0
VERTEX
  8
0
  5
6E3
 10
-12.4122
 20
-0.399402
 30
0.000000
  70
    32
  0
VERTEX
  8
0
  5
6E4
 10
-12.4134
 20
-0.397569
 30
0.000000
  70
    32
  0
VERTEX
  8
0
  5
6E5
 10
-12.4147
 20
-0.395747
 30
0.000000
  70
    32
  0
VERTEX
  8
0
  5
6E6
 10
-12.4159
 20
-0.393934
 30
0.000000
  70
    32
  0
VERTEX
  8
0
  5
6E7
 10
-12.4172
 20
-0.392131
 30
0.000000
  70
    32
  0
VERTEX
  8
0
  5
6E8
 10
-12.4185
 20
-0.390338
 30
0.000000
  70
    32
  0
VERTEX
  8
0
  5
6E9
 10
-12.4198
 20
-0.388555
 30
0.000000
  70
    32
  0
VERTEX
  8
0
  5
6EA
 10
-12.4211
 20
-0.386782
 30
0.000000
  70
    32
  0
VERTEX
  8
0
  5
6EB
 10
-12.4224
 20
-0.385020
 30
0.000000
  70
    32
  0
VERTEX
  8
0
  5
6EC
 10
-12.4237
 20
-0.383268
 30
0.000000
  70
    32
  0
VERTEX
  8
0
  5
6ED
 10
-12.4251
 20
-0.381527
 30
0.000000
  70
    32
  0
VERTEX
  8
0
  5
6EE
 10
-12.4264
 20
-0.379796
 30
0.000000
  70
    32
  0
VERTEX
  8
0
  5
6EF
 10
-12.4278
 20
-0.378075
 30
0.000000
  70
    32
  0
VERTEX
  8
0
  5
6F0
 10
-12.4292
 20
-0.376366
 30
0.000000
  70
    32
  0
VERTEX
  8
0
  5
6F1
 10
-12.4306
 20
-0.374667
 30
0.000000
  70
    32
  0
VERTEX
  8
0
  5
6F2
 10
-12.4320
 20
-0.372980
 30
0.000000
  70
    32
  0
VERTEX
  8
0
  5
6F3
 10
-12.4335
 20
-0.371303
 30
0.000000
  70
    32
  0
VERTEX
  8
0
  5
6F4
 10
-12.4349
 20
-0.369638
 30
0.000000
  70
    32
  0
VERTEX
  8
0
  5
6F5
 10
-12.4364
 20
-0.367983
 30
0.000000
  70
    32
  0
VERTEX
  8
0
  5
6F6
 10
-12.4378
 20
-0.366340
 30
0.000000
  70
    32
  0
VERTEX
  8
0
  5
6F7
 10
-12.4393
 20
-0.364709
 30
0.000000
  70
    32
  0
VERTEX
  8
0
  5
6F8
 10
-12.4408
 20
-0.363088
 30
0.000000
  70
    32
  0
VERTEX
  8
0
  5
6F9
 10
-12.4423
 20
-0.361480
 30
0.000000
  70
    32
  0
VERTEX
  8
0
  5
6FA
 10
-12.4439
 20
-0.359883
 30
0.000000
  70
    32
  0
VERTEX
  8
0
  5
6FB
 10
-12.4454
 20
-0.358298
 30
0.000000
  70
    32
  0
VERTEX
  8
0
  5
6FC
 10
-12.4470
 20
-0.356724
 30
0.000000
  70
    32
  0
VERTEX
  8
0
  5
6FD
 10
-12.4485
 20
-0.355163
 30
0.000000
  70
    32
  0
VERTEX
  8
0
  5
6FE
 10
-12.4501
 20
-0.353614
 30
0.000000
  70
    32
  0
VERTEX
  8
0
  5
6FF
 10
-12.4517
 20
-0.352077
 30
0.000000
  70
    32
  0
VERTEX
  8
0
  5
700
 10
-12.4533
 20
-0.350552
 30
0.000000
  70
    32
  0
VERTEX
  8
0
  5
701
 10
-12.4549
 20
-0.349039
 30
0.000000
  70
    32
  0
VERTEX
  8
0
  5
702
 10
-12.4566
 20
-0.347539
 30
0.000000
  70
    32
  0
VERTEX
  8
0
  5
703
 10
-12.4582
 20
-0.346051
 30
0.000000
  70
    32
  0
VERTEX
  8
0
  5
704
 10
-12.4599
 20
-0.344576
 30
0.000000
  70
    32
  0
VERTEX
  8
0
  5
705
 10
-12.4615
 20
-0.343113
 30
0.000000
  70
    32
  0
VERTEX
  8
0
  5
706
 10
-12.4632
 20
-0.341663
 30
0.000000
  70
    32
  0
VERTEX
  8
0
  5
707
 10
-12.4649
 20
-0.340226
 30
0.000000
  70
    32
  0
VERTEX
  8
0
  5
708
 10
-12.4666
 20
-0.338802
 30
0.000000
  70
    32
  0
VERTEX
  8
0
  5
709
 10
-12.4683
 20
-0.337391
 30
0.000000
  70
    32
  0
VERTEX
  8
0
  5
70A
 10
-12.4701
 20
-0.335993
 30
0.000000
  70
    32
  0
VERTEX
  8
0
  5
70B
 10
-12.4718
 20
-0.334609
 30
0.000000
  70
    32
  0
VERTEX
  8
0
  5
70C
 10
-12.4736
 20
-0.333237
 30
0.000000
  70
    32
  0
VERTEX
  8
0
  5
70D
 10
-12.4754
 20
-0.331879
 30
0.000000
  70
    32
  0
VERTEX
  8
0
  5
70E
 10
-12.4771
 20
-0.330535
 30
0.000000
  70
    32
  0
VERTEX
  8
0
  5
70F
 10
-12.4789
 20
-0.329204
 30
0.000000
  70
    32
  0
VERTEX
  8
0
  5
710
 10
-12.4807
 20
-0.327887
 30
0.000000
  70
    32
  0
VERTEX
  8
0
  5
711
 10
-12.4826
 20
-0.326583
 30
0.000000
  70
    32
  0
VERTEX
  8
0
  5
712
 10
-12.4844
 20
-0.325293
 30
0.000000
  70
    32
  0
VERTEX
  8
0
  5
713
 10
-12.4862
 20
-0.324018
 30
0.000000
  70
    32
  0
VERTEX
  8
0
  5
714
 10
-12.4881
 20
-0.322756
 30
0.000000
  70
    32
  0
VERTEX
  8
0
  5
715
 10
-12.4899
 20
-0.321509
 30
0.000000
  70
    32
  0
VERTEX
  8
0
  5
716
 10
-12.4918
 20
-0.320275
 30
0.000000
  70
    32
  0
VERTEX
  8
0
  5
717
 10
-12.4937
 20
-0.319056
 30
0.000000
  70
    32
  0
VERTEX
  8
0
  5
718
 10
-12.4956
 20
-0.317851
 30
0.000000
  70
    32
  0
VERTEX
  8
0
  5
719
 10
-12.4975
 20
-0.316661
 30
0.000000
  70
    32
  0
VERTEX
  8
0
  5
71A
 10
-12.4995
 20
-0.315486
 30
0.000000
  70
    32
  0
VERTEX
  8
0
  5
71B
 10
-12.5014
 20
-0.314325
 30
0.000000
  70
    32
  0
VERTEX
  8
0
  5
71C
 10
-12.5033
 20
-0.313179
 30
0.000000
  70
    32
  0
VERTEX
  8
0
  5
71D
 10
-12.5053
 20
-0.312047
 30
0.000000
  70
    32
  0
VERTEX
  8
0
  5
71E
 10
-12.5073
 20
-0.310931
 30
0.000000
  70
    32
  0
VERTEX
  8
0
  5
71F
 10
-12.5092
 20
-0.309830
 30
0.000000
  70
    32
  0
VERTEX
  8
0
  5
720
 10
-12.5112
 20
-0.308743
 30
0.000000
  70
    32
  0
VERTEX
  8
0
  5
721
 10
-12.5132
 20
-0.307672
 30
0.000000
  70
    32
  0
VERTEX
  8
0
  5
722
 10
-12.5153
 20
-0.306617
 30
0.000000
  70
    32
  0
SEQEND
  8
0
  5
723
  0
POLYLINE
  8
0
  5
724
  66
     1
 10
0.000000
 20
0.000000
 30
0.000000
  70
     8
  0
VERTEX
  8
0
  5
725
 10
-11.4848
 20
-0.306603
 30
0.000000
  70
    32
  0
VERTEX
  8
0
  5
726
 10
-11.4868
 20
-0.307660
 30
0.000000
  70
    32
  0
VERTEX
  8
0
  5
727
 10
-11.4888
 20
-0.308731
 30
0.000000
  70
    32
  0
VERTEX
  8
0
  5
728
 10
-11.4908
 20
-0.309818
 30
0.000000
  70
    32
  0
VERTEX
  8
0
  5
729
 10
-11.4928
 20
-0.310920
 30
0.000000
  70
    32
  0
VERTEX
  8
0
  5
72A
 10
-11.4947
 20
-0.312037
 30
0.000000
  70
    32
  0
VERTEX
  8
0
  5
72B
 10
-11.4967
 20
-0.313169
 30
0.000000
  70
    32
  0
VERTEX
  8
0
  5
72C
 10
-11.4986
 20
-0.314316
 30
0.000000
  70
    32
  0
VERTEX
  8
0
  5
72D
 10
-11.5006
 20
-0.315477
 30
0.000000
  70
    32
  0
VERTEX
  8
0
  5
72E
 10
-11.5025
 20
-0.316653
 30
0.000000
  70
    32
  0
VERTEX
  8
0
  5
72F
 10
-11.5044
 20
-0.317844
 30
0.000000
  70
    32
  0
VERTEX
  8
0
  5
730
 10
-11.5063
 20
-0.319049
 30
0.000000
  70
    32
  0
VERTEX
  8
0
  5
731
 10
-11.5082
 20
-0.320269
 30
0.000000
  70
    32
  0
VERTEX
  8
0
  5
732
 10
-11.5101
 20
-0.321502
 30
0.000000
  70
    32
  0
VERTEX
  8
0
  5
733
 10
-11.5119
 20
-0.322750
 30
0.000000
  70
    32
  0
VERTEX
  8
0
  5
734
 10
-11.5138
 20
-0.324013
 30
0.000000
  70
    32
  0
VERTEX
  8
0
  5
735
 10
-11.5156
 20
-0.325289
 30
0.000000
  70
    32
  0
VERTEX
  8
0
  5
736
 10
-11.5175
 20
-0.326579
 30
0.000000
  70
    32
  0
VERTEX
  8
0
  5
737
 10
-11.5193
 20
-0.327883
 30
0.000000
  70
    32
  0
VERTEX
  8
0
  5
738
 10
-11.5211
 20
-0.329201
 30
0.000000
  70
    32
  0
VERTEX
  8
0
  5
739
 10
-11.5229
 20
-0.330532
 30
0.000000
  70
    32
  0
VERTEX
  8
0
  5
73A
 10
-11.5247
 20
-0.331877
 30
0.000000
  70
    32
  0
VERTEX
  8
0
  5
73B
 10
-11.5264
 20
-0.333235
 30
0.000000
  70
    32
  0
VERTEX
  8
0
  5
73C
 10
-11.5282
 20
-0.334607
 30
0.000000
  70
    32
  0
VERTEX
  8
0
  5
73D
 10
-11.5299
 20
-0.335992
 30
0.000000
  70
    32
  0
VERTEX
  8
0
  5
73E
 10
-11.5317
 20
-0.337390
 30
0.000000
  70
    32
  0
VERTEX
  8
0
  5
73F
 10
-11.5334
 20
-0.338802
 30
0.000000
  70
    32
  0
VERTEX
  8
0
  5
740
 10
-11.5351
 20
-0.340226
 30
0.000000
  70
    32
  0
VERTEX
  8
0
  5
741
 10
-11.5368
 20
-0.341664
 30
0.000000
  70
    32
  0
VERTEX
  8
0
  5
742
 10
-11.5385
 20
-0.343114
 30
0.000000
  70
    32
  0
VERTEX
  8
0
  5
743
 10
-11.5402
 20
-0.344577
 30
0.000000
  70
    32
  0
VERTEX
  8
0
  5
744
 10
-11.5418
 20
-0.346052
 30
0.000000
  70
    32
  0
VERTEX
  8
0
  5
745
 10
-11.5435
 20
-0.347540
 30
0.000000
  70
    32
  0
VERTEX
  8
0
  5
746
 10
-11.5451
 20
-0.349041
 30
0.000000
  70
    32
  0
VERTEX
  8
0
  5
747
 10
-11.5467
 20
-0.350554
 30
0.000000
  70
    32
  0
VERTEX
  8
0
  5
748
 10
-11.5483
 20
-0.352079
 30
0.000000
  70
    32
  0
VERTEX
  8
0
  5
749
 10
-11.5499
 20
-0.353617
 30
0.000000
  70
    32
  0
VERTEX
  8
0
  5
74A
 10
-11.5515
 20
-0.355166
 30
0.000000
  70
    32
  0
VERTEX
  8
0
  5
74B
 10
-11.5531
 20
-0.356728
 30
0.000000
  70
    32
  0
VERTEX
  8
0
  5
74C
 10
-11.5546
 20
-0.358302
 30
0.000000
  70
    32
  0
VERTEX
  8
0
  5
74D
 10
-11.5561
 20
-0.359887
 30
0.000000
  70
    32
  0
VERTEX
  8
0
  5
74E
 10
-11.5577
 20
-0.361484
 30
0.000000
  70
    32
  0
VERTEX
  8
0
  5
74F
 10
-11.5592
 20
-0.363093
 30
0.000000
  70
    32
  0
VERTEX
  8
0
  5
750
 10
-11.5607
 20
-0.364713
 30
0.000000
  70
    32
  0
VERTEX
  8
0
  5
751
 10
-11.5622
 20
-0.366345
 30
0.000000
  70
    32
  0
VERTEX
  8
0
  5
752
 10
-11.5637
 20
-0.367988
 30
0.000000
  70
    32
  0
VERTEX
  8
0
  5
753
 10
-11.5651
 20
-0.369643
 30
0.000000
  70
    32
  0
VERTEX
  8
0
  5
754
 10
-11.5666
 20
-0.371308
 30
0.000000
  70
    32
  0
VERTEX
  8
0
  5
755
 10
-11.5680
 20
-0.372985
 30
0.000000
  70
    32
  0
VERTEX
  8
0
  5
756
 10
-11.5694
 20
-0.374673
 30
0.000000
  70
    32
  0
VERTEX
  8
0
  5
757
 10
-11.5708
 20
-0.376372
 30
0.000000
  70
    32
  0
VERTEX
  8
0
  5
758
 10
-11.5722
 20
-0.378081
 30
0.000000
  70
    32
  0
VERTEX
  8
0
  5
759
 10
-11.5736
 20
-0.379802
 30
0.000000
  70
    32
  0
VERTEX
  8
0
  5
75A
 10
-11.5749
 20
-0.381533
 30
0.000000
  70
    32
  0
VERTEX
  8
0
  5
75B
 10
-11.5763
 20
-0.383274
 30
0.000000
  70
    32
  0
VERTEX
  8
0
  5
75C
 10
-11.5776
 20
-0.385026
 30
0.000000
  70
    32
  0
VERTEX
  8
0
  5
75D
 10
-11.5790
 20
-0.386789
 30
0.000000
  70
    32
  0
VERTEX
  8
0
  5
75E
 10
-11.5803
 20
-0.388562
 30
0.000000
  70
    32
  0
VERTEX
  8
0
  5
75F
 10
-11.5816
 20
-0.390344
 30
0.000000
  70
    32
  0
VERTEX
  8
0
  5
760
 10
-11.5828
 20
-0.392137
 30
0.000000
  70
    32
  0
VERTEX
  8
0
  5
761
 10
-11.5841
 20
-0.393940
 30
0.000000
  70
    32
  0
VERTEX
  8
0
  5
762
 10
-11.5853
 20
-0.395753
 30
0.000000
  70
    32
  0
VERTEX
  8
0
  5
763
 10
-11.5866
 20
-0.397576
 30
0.000000
  70
    32
  0
VERTEX
  8
0
  5
764
 10
-11.5878
 20
-0.399409
 30
0.000000
  70
    32
  0
VERTEX
  8
0
  5
765
 10
-11.5890
 20
-0.401251
 30
0.000000
  70
    32
  0
VERTEX
  8
0
  5
766
 10
-11.5902
 20
-0.403103
 30
0.000000
  70
    32
  0
VERTEX
  8
0
  5
767
 10
-11.5914
 20
-0.404964
 30
0.000000
  70
    32
  0
VERTEX
  8
0
  5
768
 10
-11.5925
 20
-0.406835
 30
0.000000
  70
    32
  0
VERTEX
  8
0
  5
769
 10
-11.5937
 20
-0.408715
 30
0.000000
  70
    32
  0
VERTEX
  8
0
  5
76A
 10
-11.5948
 20
-0.410604
 30
0.000000
  70
    32
  0
VERTEX
  8
0
  5
76B
 10
-11.5959
 20
-0.412502
 30
0.000000
  70
    32
  0
VERTEX
  8
0
  5
76C
 10
-11.5970
 20
-0.414409
 30
0.000000
  70
    32
  0
VERTEX
  8
0
  5
76D
 10
-11.5981
 20
-0.416325
 30
0.000000
  70
    32
  0
VERTEX
  8
0
  5
76E
 10
-11.5992
 20
-0.418250
 30
0.000000
  70
    32
  0
VERTEX
  8
0
  5
76F
 10
-11.6002
 20
-0.420184
 30
0.000000
  70
    32
  0
VERTEX
  8
0
  5
770
 10
-11.6013
 20
-0.422126
 30
0.000000
  70
    32
  0
VERTEX
  8
0
  5
771
 10
-11.6023
 20
-0.424077
 30
0.000000
  70
    32
  0
VERTEX
  8
0
  5
772
 10
-11.6033
 20
-0.426037
 30
0.000000
  70
    32
  0
VERTEX
  8
0
  5
773
 10
-11.6043
 20
-0.428005
 30
0.000000
  70
    32
  0
VERTEX
  8
0
  5
774
 10
-11.6053
 20
-0.429981
 30
0.000000
  70
    32
  0
VERTEX
  8
0
  5
775
 10
-11.6062
 20
-0.431965
 30
0.000000
  70
    32
  0
VERTEX
  8
0
  5
776
 10
-11.6072
 20
-0.433958
 30
0.000000
  70
    32
  0
VERTEX
  8
0
  5
777
 10
-11.6081
 20
-0.435958
 30
0.000000
  70
    32
  0
VERTEX
  8
0
  5
778
 10
-11.6090
 20
-0.437966
 30
0.000000
  70
    32
  0
VERTEX
  8
0
  5
779
 10
-11.6099
 20
-0.439983
 30
0.000000
  70
    32
  0
VERTEX
  8
0
  5
77A
 10
-11.6108
 20
-0.442007
 30
0.000000
  70
    32
  0
VERTEX
  8
0
  5
77B
 10
-11.6117
 20
-0.444038
 30
0.000000
  70
    32
  0
VERTEX
  8
0
  5
77C
 10
-11.6125
 20
-0.446077
 30
0.000000
  70
    32
  0
VERTEX
  8
0
  5
77D
 10
-11.6134
 20
-0.448124
 30
0.000000
  70
    32
  0
VERTEX
  8
0
  5
77E
 10
-11.6142
 20
-0.450178
 30
0.000000
  70
    32
  0
VERTEX
  8
0
  5
77F
 10
-11.6150
 20
-0.452239
 30
0.000000
  70
    32
  0
VERTEX
  8
0
  5
780
 10
-11.6158
 20
-0.454308
 30
0.000000
  70
    32
  0
VERTEX
  8
0
  5
781
 10
-11.6166
 20
-0.456383
 30
0.000000
  70
    32
  0
VERTEX
  8
0
  5
782
 10
-11.6173
 20
-0.458466
 30
0.000000
  70
    32
  0
VERTEX
  8
0
  5
783
 10
-11.6180
 20
-0.460556
 30
0.000000
  70
    32
  0
VERTEX
  8
0
  5
784
 10
-11.6188
 20
-0.462652
 30
0.000000
  70
    32
  0
VERTEX
  8
0
  5
785
 10
-11.6195
 20
-0.464755
 30
0.000000
  70
    32
  0
VERTEX
  8
0
  5
786
 10
-11.6202
 20
-0.466865
 30
0.000000
  70
    32
  0
VERTEX
  8
0
  5
787
 10
-11.6208
 20
-0.468981
 30
0.000000
  70
    32
  0
VERTEX
  8
0
  5
788
 10
-11.6215
 20
-0.471104
 30
0.000000
  70
    32
  0
VERTEX
  8
0
  5
789
 10
-11.6221
 20
-0.473233
 30
0.000000
  70
    32
  0
VERTEX
  8
0
  5
78A
 10
-11.6227
 20
-0.475369
 30
0.000000
  70
    32
  0
VERTEX
  8
0
  5
78B
 10
-11.6233
 20
-0.477511
 30
0.000000
  70
    32
  0
VERTEX
  8
0
  5
78C
 10
-11.6239
 20
-0.479658
 30
0.000000
  70
    32
  0
VERTEX
  8
0
  5
78D
 10
-11.6245
 20
-0.481812
 30
0.000000
  70
    32
  0
VERTEX
  8
0
  5
78E
 10
-11.6251
 20
-0.483972
 30
0.000000
  70
    32
  0
VERTEX
  8
0
  5
78F
 10
-11.6256
 20
-0.486138
 30
0.000000
  70
    32
  0
VERTEX
  8
0
  5
790
 10
-11.6261
 20
-0.488309
 30
0.000000
  70
    32
  0
VERTEX
  8
0
  5
791
 10
-11.6266
 20
-0.490486
 30
0.000000
  70
    32
  0
VERTEX
  8
0
  5
792
 10
-11.6271
 20
-0.492668
 30
0.000000
  70
    32
  0
VERTEX
  8
0
  5
793
 10
-11.6276
 20
-0.494856
 30
0.000000
  70
    32
  0
VERTEX
  8
0
  5
794
 10
-11.6280
 20
-0.497050
 30
0.000000
  70
    32
  0
VERTEX
  8
0
  5
795
 10
-11.6284
 20
-0.499249
 30
0.000000
  70
    32
  0
VERTEX
  8
0
  5
796
 10
-11.6288
 20
-0.501452
 30
0.000000
  70
    32
  0
VERTEX
  8
0
  5
797
 10
-11.6292
 20
-0.503661
 30
0.000000
  70
    32
  0
VERTEX
  8
0
  5
798
 10
-11.6296
 20
-0.505875
 30
0.000000
  70
    32
  0
VERTEX
  8
0
  5
799
 10
-11.6300
 20
-0.508094
 30
0.000000
  70
    32
  0
VERTEX
  8
0
  5
79A
 10
-11.6303
 20
-0.510318
 30
0.000000
  70
    32
  0
VERTEX
  8
0
  5
79B
 10
-11.6306
 20
-0.512547
 30
0.000000
  70
    32
  0
VERTEX
  8
0
  5
79C
 10
-11.6310
 20
-0.514780
 30
0.000000
  70
    32
  0
VERTEX
  8
0
  5
79D
 10
-11.6312
 20
-0.517018
 30
0.000000
  70
    32
  0
VERTEX
  8
0
  5
79E
 10
-11.6315
 20
-0.519260
 30
0.000000
  70
    32
  0
VERTEX
  8
0
  5
79F
 10
-11.6318
 20
-0.521506
 30
0.000000
  70
    32
  0
VERTEX
  8
0
  5
7A0
 10
-11.6320
 20
-0.523757
 30
0.000000
  70
    32
  0
VERTEX
  8
0
  5
7A1
 10
-11.6322
 20
-0.526012
 30
0.000000
  70
    32
  0
VERTEX
  8
0
  5
7A2
 10
-11.6324
 20
-0.528272
 30
0.000000
  70
    32
  0
VERTEX
  8
0
  5
7A3
 10
-11.6326
 20
-0.530535
 30
0.000000
  70
    32
  0
VERTEX
  8
0
  5
7A4
 10
-11.6328
 20
-0.532802
 30
0.000000
  70
    32
  0
SEQEND
  8
0
  5
7A5
  0
POLYLINE
  8
0
  5
7A6
  66
     1
 10
0.000000
 20
0.000000
 30
0.000000
  70
     8
  0
VERTEX
  8
0
  5
7A7
 10
-11.0748
 20
-0.255903
 30
0.000000
  70
    32
  0
VERTEX
  8
0
  5
7A8
 10
-11.0745
 20
-0.255901
 30
0.000000
  70
    32
  0
VERTEX
  8
0
  5
7A9
 10
-11.0743
 20
-0.255896
 30
0.000000
  70
    32
  0
VERTEX
  8
0
  5
7AA
 10
-11.0740
 20
-0.255888
 30
0.000000
  70
    32
  0
VERTEX
  8
0
  5
7AB
 10
-11.0738
 20
-0.255877
 30
0.000000
  70
    32
  0
VERTEX
  8
0
  5
7AC
 10
-11.0735
 20
-0.255862
 30
0.000000
  70
    32
  0
VERTEX
  8
0
  5
7AD
 10
-11.0733
 20
-0.255845
 30
0.000000
  70
    32
  0
VERTEX
  8
0
  5
7AE
 10
-11.0730
 20
-0.255824
 30
0.000000
  70
    32
  0
VERTEX
  8
0
  5
7AF
 10
-11.0728
 20
-0.255800
 30
0.000000
  70
    32
  0
VERTEX
  8
0
  5
7B0
 10
-11.0725
 20
-0.255773
 30
0.000000
  70
    32
  0
VERTEX
  8
0
  5
7B1
 10
-11.0723
 20
-0.255742
 30
0.000000
  70
    32
  0
VERTEX
  8
0
  5
7B2
 10
-11.0720
 20
-0.255709
 30
0.000000
  70
    32
  0
VERTEX
  8
0
  5
7B3
 10
-11.0718
 20
-0.255673
 30
0.000000
  70
    32
  0
VERTEX
  8
0
  5
7B4
 10
-11.0715
 20
-0.255633
 30
0.000000
  70
    32
  0
VERTEX
  8
0
  5
7B5
 10
-11.0713
 20
-0.255591
 30
0.000000
  70
    32
  0
VERTEX
  8
0
  5
7B6
 10
-11.0711
 20
-0.255545
 30
0.000000
  70
    32
  0
VERTEX
  8
0
  5
7B7
 10
-11.0708
 20
-0.255497
 30
0.000000
  70
    32
  0
VERTEX
  8
0
  5
7B8
 10
-11.0706
 20
-0.255446
 30
0.000000
  70
    32
  0
VERTEX
  8
0
  5
7B9
 10
-11.0703
 20
-0.255391
 30
0.000000
  70
    32
  0
VERTEX
  8
0
  5
7BA
 10
-11.0701
 20
-0.255334
 30
0.000000
  70
    32
  0
VERTEX
  8
0
  5
7BB
 10
-11.0699
 20
-0.255274
 30
0.000000
  70
    32
  0
VERTEX
  8
0
  5
7BC
 10
-11.0696
 20
-0.255211
 30
0.000000
  70
    32
  0
VERTEX
  8
0
  5
7BD
 10
-11.0694
 20
-0.255145
 30
0.000000
  70
    32
  0
VERTEX
  8
0
  5
7BE
 10
-11.0691
 20
-0.255077
 30
0.000000
  70
    32
  0
VERTEX
  8
0
  5
7BF
 10
-11.0689
 20
-0.255005
 30
0.000000
  70
    32
  0
VERTEX
  8
0
  5
7C0
 10
-11.0687
 20
-0.254931
 30
0.000000
  70
    32
  0
VERTEX
  8
0
  5
7C1
 10
-11.0684
 20
-0.254854
 30
0.000000
  70
    32
  0
VERTEX
  8
0
  5
7C2
 10
-11.0682
 20
-0.254774
 30
0.000000
  70
    32
  0
VERTEX
  8
0
  5
7C3
 10
-11.0680
 20
-0.254691
 30
0.000000
  70
    32
  0
VERTEX
  8
0
  5
7C4
 10
-11.0678
 20
-0.254606
 30
0.000000
  70
    32
  0
VERTEX
  8
0
  5
7C5
 10
-11.0675
 20
-0.254518
 30
0.000000
  70
    32
  0
VERTEX
  8
0
  5
7C6
 10
-11.0673
 20
-0.254427
 30
0.000000
  70
    32
  0
VERTEX
  8
0
  5
7C7
 10
-11.0671
 20
-0.254334
 30
0.000000
  70
    32
  0
VERTEX
  8
0
  5
7C8
 10
-11.0669
 20
-0.254238
 30
0.000000
  70
    32
  0
VERTEX
  8
0
  5
7C9
 10
-11.0666
 20
-0.254139
 30
0.000000
  70
    32
  0
VERTEX
  8
0
  5
7CA
 10
-11.0664
 20
-0.254038
 30
0.000000
  70
    32
  0
VERTEX
  8
0
  5
7CB
 10
-11.0662
 20
-0.253934
 30
0.000000
  70
    32
  0
VERTEX
  8
0
  5
7CC
 10
-11.0660
 20
-0.253827
 30
0.000000
  70
    32
  0
VERTEX
  8
0
  5
7CD
 10
-11.0658
 20
-0.253718
 30
0.000000
  70
    32
  0
VERTEX
  8
0
  5
7CE
 10
-11.0656
 20
-0.253607
 30
0.000000
  70
    32
  0
VERTEX
  8
0
  5
7CF
 10
-11.0654
 20
-0.253493
 30
0.000000
  70
    32
  0
VERTEX
  8
0
  5
7D0
 10
-11.0651
 20
-0.253376
 30
0.000000
  70
    32
  0
VERTEX
  8
0
  5
7D1
 10
-11.0649
 20
-0.253257
 30
0.000000
  70
    32
  0
VERTEX
  8
0
  5
7D2
 10
-11.0647
 20
-0.253136
 30
0.000000
  70
    32
  0
VERTEX
  8
0
  5
7D3
 10
-11.0645
 20
-0.253012
 30
0.000000
  70
    32
  0
VERTEX
  8
0
  5
7D4
 10
-11.0643
 20
-0.252886
 30
0.000000
  70
    32
  0
VERTEX
  8
0
  5
7D5
 10
-11.0641
 20
-0.252757
 30
0.000000
  70
    32
  0
VERTEX
  8
0
  5
7D6
 10
-11.0639
 20
-0.252626
 30
0.000000
  70
    32
  0
VERTEX
  8
0
  5
7D7
 10
-11.0637
 20
-0.252493
 30
0.000000
  70
    32
  0
VERTEX
  8
0
  5
7D8
 10
-11.0635
 20
-0.252357
 30
0.000000
  70
    32
  0
VERTEX
  8
0
  5
7D9
 10
-11.0633
 20
-0.252219
 30
0.000000
  70
    32
  0
VERTEX
  8
0
  5
7DA
 10
-11.0631
 20
-0.252079
 30
0.000000
  70
    32
  0
VERTEX
  8
0
  5
7DB
 10
-11.0630
 20
-0.251936
 30
0.000000
  70
    32
  0
VERTEX
  8
0
  5
7DC
 10
-11.0628
 20
-0.251792
 30
0.000000
  70
    32
  0
VERTEX
  8
0
  5
7DD
 10
-11.0626
 20
-0.251644
 30
0.000000
  70
    32
  0
VERTEX
  8
0
  5
7DE
 10
-11.0624
 20
-0.251495
 30
0.000000
  70
    32
  0
VERTEX
  8
0
  5
7DF
 10
-11.0622
 20
-0.251344
 30
0.000000
  70
    32
  0
VERTEX
  8
0
  5
7E0
 10
-11.0620
 20
-0.251190
 30
0.000000
  70
    32
  0
VERTEX
  8
0
  5
7E1
 10
-11.0618
 20
-0.251034
 30
0.000000
  70
    32
  0
VERTEX
  8
0
  5
7E2
 10
-11.0617
 20
-0.250876
 30
0.000000
  70
    32
  0
VERTEX
  8
0
  5
7E3
 10
-11.0615
 20
-0.250716
 30
0.000000
  70
    32
  0
VERTEX
  8
0
  5
7E4
 10
-11.0613
 20
-0.250554
 30
0.000000
  70
    32
  0
VERTEX
  8
0
  5
7E5
 10
-11.0611
 20
-0.250390
 30
0.000000
  70
    32
  0
VERTEX
  8
0
  5
7E6
 10
-11.0610
 20
-0.250224
 30
0.000000
  70
    32
  0
VERTEX
  8
0
  5
7E7
 10
-11.0608
 20
-0.250056
 30
0.000000
  70
    32
  0
VERTEX
  8
0
  5
7E8
 10
-11.0606
 20
-0.249885
 30
0.000000
  70
    32
  0
VERTEX
  8
0
  5
7E9
 10
-11.0605
 20
-0.249713
 30
0.000000
  70
    32
  0
VERTEX
  8
0
  5
7EA
 10
-11.0603
 20
-0.249539
 30
0.000000
  70
    32
  0
VERTEX
  8
0
  5
7EB
 10
-11.0601
 20
-0.249362
 30
0.000000
  70
    32
  0
VERTEX
  8
0
  5
7EC
 10
-11.0600
 20
-0.249184
 30
0.000000
  70
    32
  0
VERTEX
  8
0
  5
7ED
 10
-11.0598
 20
-0.249004
 30
0.000000
  70
    32
  0
VERTEX
  8
0
  5
7EE
 10
-11.0597
 20
-0.248822
 30
0.000000
  70
    32
  0
VERTEX
  8
0
  5
7EF
 10
-11.0595
 20
-0.248638
 30
0.000000
  70
    32
  0
VERTEX
  8
0
  5
7F0
 10
-11.0594
 20
-0.248453
 30
0.000000
  70
    32
  0
VERTEX
  8
0
  5
7F1
 10
-11.0592
 20
-0.248265
 30
0.000000
  70
    32
  0
VERTEX
  8
0
  5
7F2
 10
-11.0591
 20
-0.248076
 30
0.000000
  70
    32
  0
VERTEX
  8
0
  5
7F3
 10
-11.0589
 20
-0.247884
 30
0.000000
  70
    32
  0
VERTEX
  8
0
  5
7F4
 10
-11.0588
 20
-0.247692
 30
0.000000
  70
    32
  0
VERTEX
  8
0
  5
7F5
 10
-11.0587
 20
-0.247497
 30
0.000000
  70
    32
  0
VERTEX
  8
0
  5
7F6
 10
-11.0585
 20
-0.247300
 30
0.000000
  70
    32
  0
VERTEX
  8
0
  5
7F7
 10
-11.0584
 20
-0.247102
 30
0.000000
  70
    32
  0
VERTEX
  8
0
  5
7F8
 10
-11.0583
 20
-0.246902
 30
0.000000
  70
    32
  0
VERTEX
  8
0
  5
7F9
 10
-11.0581
 20
-0.246701
 30
0.000000
  70
    32
  0
VERTEX
  8
0
  5
7FA
 10
-11.0580
 20
-0.246497
 30
0.000000
  70
    32
  0
VERTEX
  8
0
  5
7FB
 10
-11.0579
 20
-0.246293
 30
0.000000
  70
    32
  0
VERTEX
  8
0
  5
7FC
 10
-11.0578
 20
-0.246086
 30
0.000000
  70
    32
  0
VERTEX
  8
0
  5
7FD
 10
-11.0576
 20
-0.245878
 30
0.000000
  70
    32
  0
VERTEX
  8
0
  5
7FE
 10
-11.0575
 20
-0.245668
 30
0.000000
  70
    32
  0
VERTEX
  8
0
  5
7FF
 10
-11.0574
 20
-0.245457
 30
0.000000
  70
    32
  0
VERTEX
  8
0
  5
800
 10
-11.0573
 20
-0.245244
 30
0.000000
  70
    32
  0
VERTEX
  8
0
  5
801
 10
-11.0572
 20
-0.245030
 30
0.000000
  70
    32
  0
VERTEX
  8
0
  5
802
 10
-11.0571
 20
-0.244814
 30
0.000000
  70
    32
  0
VERTEX
  8
0
  5
803
 10
-11.0570
 20
-0.244597
 30
0.000000
  70
    32
  0
VERTEX
  8
0
  5
804
 10
-11.0569
 20
-0.244378
 30
0.000000
  70
    32
  0
VERTEX
  8
0
  5
805
 10
-11.0568
 20
-0.244158
 30
0.000000
  70
    32
  0
VERTEX
  8
0
  5
806
 10
-11.0567
 20
-0.243936
 30
0.000000
  70
    32
  0
VERTEX
  8
0
  5
807
 10
-11.0566
 20
-0.243713
 30
0.000000
  70
    32
  0
VERTEX
  8
0
  5
808
 10
-11.0565
 20
-0.243489
 30
0.000000
  70
    32
  0
VERTEX
  8
0
  5
809
 10
-11.0564
 20
-0.243263
 30
0.000000
  70
    32
  0
VERTEX
  8
0
  5
80A
 10
-11.0563
 20
-0.243036
 30
0.000000
  70
    32
  0
VERTEX
  8
0
  5
80B
 10
-11.0562
 20
-0.242807
 30
0.000000
  70
    32
  0
VERTEX
  8
0
  5
80C
 10
-11.0562
 20
-0.242578
 30
0.000000
  70
    32
  0
VERTEX
  8
0
  5
80D
 10
-11.0561
 20
-0.242346
 30
0.000000
  70
    32
  0
VERTEX
  8
0
  5
80E
 10
-11.0560
 20
-0.242114
 30
0.000000
  70
    32
  0
VERTEX
  8
0
  5
80F
 10
-11.0559
 20
-0.241881
 30
0.000000
  70
    32
  0
VERTEX
  8
0
  5
810
 10
-11.0559
 20
-0.241646
 30
0.000000
  70
    32
  0
VERTEX
  8
0
  5
811
 10
-11.0558
 20
-0.241410
 30
0.000000
  70
    32
  0
VERTEX
  8
0
  5
812
 10
-11.0557
 20
-0.241173
 30
0.000000
  70
    32
  0
VERTEX
  8
0
  5
813
 10
-11.0557
 20
-0.240934
 30
0.000000
  70
    32
  0
VERTEX
  8
0
  5
814
 10
-11.0556
 20
-0.240695
 30
0.000000
  70
    32
  0
VERTEX
  8
0
  5
815
 10
-11.0556
 20
-0.240454
 30
0.000000
  70
    32
  0
VERTEX
  8
0
  5
816
 10
-11.0555
 20
-0.240212
 30
0.000000
  70
    32
  0
VERTEX
  8
0
  5
817
 10
-11.0555
 20
-0.239969
 30
0.000000
  70
    32
  0
VERTEX
  8
0
  5
818
 10
-11.0554
 20
-0.239725
 30
0.000000
  70
    32
  0
VERTEX
  8
0
  5
819
 10
-11.0554
 20
-0.239480
 30
0.000000
  70
    32
  0
VERTEX
  8
0
  5
81A
 10
-11.0553
 20
-0.239234
 30
0.000000
  70
    32
  0
VERTEX
  8
0
  5
81B
 10
-11.0553
 20
-0.238987
 30
0.000000
  70
    32
  0
VERTEX
  8
0
  5
81C
 10
-11.0553
 20
-0.238739
 30
0.000000
  70
    32
  0
VERTEX
  8
0
  5
81D
 10
-11.0552
 20
-0.238490
 30
0.000000
  70
    32
  0
VERTEX
  8
0
  5
81E
 10
-11.0552
 20
-0.238240
 30
0.000000
  70
    32
  0
VERTEX
  8
0
  5
81F
 10
-11.0552
 20
-0.237989
 30
0.000000
  70
    32
  0
VERTEX
  8
0
  5
820
 10
-11.0552
 20
-0.237738
 30
0.000000
  70
    32
  0
VERTEX
  8
0
  5
821
 10
-11.0552
 20
-0.237485
 30
0.000000
  70
    32
  0
VERTEX
  8
0
  5
822
 10
-11.0551
 20
-0.237231
 30
0.000000
  70
    32
  0
VERTEX
  8
0
  5
823
 10
-11.0551
 20
-0.236977
 30
0.000000
  70
    32
  0
VERTEX
  8
0
  5
824
 10
-11.0551
 20
-0.236722
 30
0.000000
  70
    32
  0
VERTEX
  8
0
  5
825
 10
-11.0551
 20
-0.236465
 30
0.000000
  70
    32
  0
VERTEX
  8
0
  5
826
 10
-11.0551
 20
-0.236209
 30
0.000000
  70
    32
  0
SEQEND
  8
0
  5
827
  0
POLYLINE
  8
0
  5
828
  66
     1
 10
0.000000
 20
0.000000
 30
0.000000
  70
     8
  0
VERTEX
  8
0
  5
829
 10
-12.9449
 20
-0.236222
 30
0.000000
  70
    32
  0
VERTEX
  8
0
  5
82A
 10
-12.9449
 20
-0.236478
 30
0.000000
  70
    32
  0
VERTEX
  8
0
  5
82B
 10
-12.9449
 20
-0.236734
 30
0.000000
  70
    32
  0
VERTEX
  8
0
  5
82C
 10
-12.9449
 20
-0.236989
 30
0.000000
  70
    32
  0
VERTEX
  8
0
  5
82D
 10
-12.9449
 20
-0.237242
 30
0.000000
  70
    32
  0
VERTEX
  8
0
  5
82E
 10
-12.9449
 20
-0.237495
 30
0.000000
  70
    32
  0
VERTEX
  8
0
  5
82F
 10
-12.9448
 20
-0.237748
 30
0.000000
  70
    32
  0
VERTEX
  8
0
  5
830
 10
-12.9448
 20
-0.237999
 30
0.000000
  70
    32
  0
VERTEX
  8
0
  5
831
 10
-12.9448
 20
-0.238249
 30
0.000000
  70
    32
  0
VERTEX
  8
0
  5
832
 10
-12.9448
 20
-0.238499
 30
0.000000
  70
    32
  0
VERTEX
  8
0
  5
833
 10
-12.9447
 20
-0.238747
 30
0.000000
  70
    32
  0
VERTEX
  8
0
  5
834
 10
-12.9447
 20
-0.238995
 30
0.000000
  70
    32
  0
VERTEX
  8
0
  5
835
 10
-12.9447
 20
-0.239242
 30
0.000000
  70
    32
  0
VERTEX
  8
0
  5
836
 10
-12.9446
 20
-0.239487
 30
0.000000
  70
    32
  0
VERTEX
  8
0
  5
837
 10
-12.9446
 20
-0.239732
 30
0.000000
  70
    32
  0
VERTEX
  8
0
  5
838
 10
-12.9445
 20
-0.239975
 30
0.000000
  70
    32
  0
VERTEX
  8
0
  5
839
 10
-12.9445
 20
-0.240218
 30
0.000000
  70
    32
  0
VERTEX
  8
0
  5
83A
 10
-12.9444
 20
-0.240459
 30
0.000000
  70
    32
  0
VERTEX
  8
0
  5
83B
 10
-12.9444
 20
-0.240700
 30
0.000000
  70
    32
  0
VERTEX
  8
0
  5
83C
 10
-12.9443
 20
-0.240939
 30
0.000000
  70
    32
  0
VERTEX
  8
0
  5
83D
 10
-12.9443
 20
-0.241177
 30
0.000000
  70
    32
  0
VERTEX
  8
0
  5
83E
 10
-12.9442
 20
-0.241414
 30
0.000000
  70
    32
  0
VERTEX
  8
0
  5
83F
 10
-12.9441
 20
-0.241650
 30
0.000000
  70
    32
  0
VERTEX
  8
0
  5
840
 10
-12.9441
 20
-0.241884
 30
0.000000
  70
    32
  0
VERTEX
  8
0
  5
841
 10
-12.9440
 20
-0.242118
 30
0.000000
  70
    32
  0
VERTEX
  8
0
  5
842
 10
-12.9439
 20
-0.242350
 30
0.000000
  70
    32
  0
VERTEX
  8
0
  5
843
 10
-12.9439
 20
-0.242581
 30
0.000000
  70
    32
  0
VERTEX
  8
0
  5
844
 10
-12.9438
 20
-0.242810
 30
0.000000
  70
    32
  0
VERTEX
  8
0
  5
845
 10
-12.9437
 20
-0.243038
 30
0.000000
  70
    32
  0
VERTEX
  8
0
  5
846
 10
-12.9436
 20
-0.243265
 30
0.000000
  70
    32
  0
VERTEX
  8
0
  5
847
 10
-12.9435
 20
-0.243491
 30
0.000000
  70
    32
  0
VERTEX
  8
0
  5
848
 10
-12.9434
 20
-0.243715
 30
0.000000
  70
    32
  0
VERTEX
  8
0
  5
849
 10
-12.9433
 20
-0.243938
 30
0.000000
  70
    32
  0
VERTEX
  8
0
  5
84A
 10
-12.9432
 20
-0.244160
 30
0.000000
  70
    32
  0
VERTEX
  8
0
  5
84B
 10
-12.9431
 20
-0.244380
 30
0.000000
  70
    32
  0
VERTEX
  8
0
  5
84C
 10
-12.9430
 20
-0.244599
 30
0.000000
  70
    32
  0
VERTEX
  8
0
  5
84D
 10
-12.9429
 20
-0.244816
 30
0.000000
  70
    32
  0
VERTEX
  8
0
  5
84E
 10
-12.9428
 20
-0.245032
 30
0.000000
  70
    32
  0
VERTEX
  8
0
  5
84F
 10
-12.9427
 20
-0.245246
 30
0.000000
  70
    32
  0
VERTEX
  8
0
  5
850
 10
-12.9426
 20
-0.245459
 30
0.000000
  70
    32
  0
VERTEX
  8
0
  5
851
 10
-12.9425
 20
-0.245670
 30
0.000000
  70
    32
  0
VERTEX
  8
0
  5
852
 10
-12.9424
 20
-0.245880
 30
0.000000
  70
    32
  0
VERTEX
  8
0
  5
853
 10
-12.9423
 20
-0.246088
 30
0.000000
  70
    32
  0
VERTEX
  8
0
  5
854
 10
-12.9421
 20
-0.246294
 30
0.000000
  70
    32
  0
VERTEX
  8
0
  5
855
 10
-12.9420
 20
-0.246499
 30
0.000000
  70
    32
  0
VERTEX
  8
0
  5
856
 10
-12.9419
 20
-0.246702
 30
0.000000
  70
    32
  0
VERTEX
  8
0
  5
857
 10
-12.9418
 20
-0.246904
 30
0.000000
  70
    32
  0
VERTEX
  8
0
  5
858
 10
-12.9416
 20
-0.247104
 30
0.000000
  70
    32
  0
VERTEX
  8
0
  5
859
 10
-12.9415
 20
-0.247302
 30
0.000000
  70
    32
  0
VERTEX
  8
0
  5
85A
 10
-12.9414
 20
-0.247499
 30
0.000000
  70
    32
  0
VERTEX
  8
0
  5
85B
 10
-12.9412
 20
-0.247693
 30
0.000000
  70
    32
  0
VERTEX
  8
0
  5
85C
 10
-12.9411
 20
-0.247886
 30
0.000000
  70
    32
  0
VERTEX
  8
0
  5
85D
 10
-12.9409
 20
-0.248078
 30
0.000000
  70
    32
  0
VERTEX
  8
0
  5
85E
 10
-12.9408
 20
-0.248267
 30
0.000000
  70
    32
  0
VERTEX
  8
0
  5
85F
 10
-12.9406
 20
-0.248455
 30
0.000000
  70
    32
  0
VERTEX
  8
0
  5
860
 10
-12.9405
 20
-0.248641
 30
0.000000
  70
    32
  0
VERTEX
  8
0
  5
861
 10
-12.9403
 20
-0.248825
 30
0.000000
  70
    32
  0
VERTEX
  8
0
  5
862
 10
-12.9402
 20
-0.249007
 30
0.000000
  70
    32
  0
VERTEX
  8
0
  5
863
 10
-12.9400
 20
-0.249187
 30
0.000000
  70
    32
  0
VERTEX
  8
0
  5
864
 10
-12.9399
 20
-0.249365
 30
0.000000
  70
    32
  0
VERTEX
  8
0
  5
865
 10
-12.9397
 20
-0.249542
 30
0.000000
  70
    32
  0
VERTEX
  8
0
  5
866
 10
-12.9396
 20
-0.249716
 30
0.000000
  70
    32
  0
VERTEX
  8
0
  5
867
 10
-12.9394
 20
-0.249888
 30
0.000000
  70
    32
  0
VERTEX
  8
0
  5
868
 10
-12.9392
 20
-0.250059
 30
0.000000
  70
    32
  0
VERTEX
  8
0
  5
869
 10
-12.9391
 20
-0.250227
 30
0.000000
  70
    32
  0
VERTEX
  8
0
  5
86A
 10
-12.9389
 20
-0.250394
 30
0.000000
  70
    32
  0
VERTEX
  8
0
  5
86B
 10
-12.9387
 20
-0.250558
 30
0.000000
  70
    32
  0
VERTEX
  8
0
  5
86C
 10
-12.9385
 20
-0.250720
 30
0.000000
  70
    32
  0
VERTEX
  8
0
  5
86D
 10
-12.9384
 20
-0.250881
 30
0.000000
  70
    32
  0
VERTEX
  8
0
  5
86E
 10
-12.9382
 20
-0.251039
 30
0.000000
  70
    32
  0
VERTEX
  8
0
  5
86F
 10
-12.9380
 20
-0.251195
 30
0.000000
  70
    32
  0
VERTEX
  8
0
  5
870
 10
-12.9378
 20
-0.251348
 30
0.000000
  70
    32
  0
VERTEX
  8
0
  5
871
 10
-12.9376
 20
-0.251500
 30
0.000000
  70
    32
  0
VERTEX
  8
0
  5
872
 10
-12.9375
 20
-0.251650
 30
0.000000
  70
    32
  0
VERTEX
  8
0
  5
873
 10
-12.9373
 20
-0.251797
 30
0.000000
  70
    32
  0
VERTEX
  8
0
  5
874
 10
-12.9371
 20
-0.251942
 30
0.000000
  70
    32
  0
VERTEX
  8
0
  5
875
 10
-12.9369
 20
-0.252085
 30
0.000000
  70
    32
  0
VERTEX
  8
0
  5
876
 10
-12.9367
 20
-0.252225
 30
0.000000
  70
    32
  0
VERTEX
  8
0
  5
877
 10
-12.9365
 20
-0.252363
 30
0.000000
  70
    32
  0
VERTEX
  8
0
  5
878
 10
-12.9363
 20
-0.252499
 30
0.000000
  70
    32
  0
VERTEX
  8
0
  5
879
 10
-12.9361
 20
-0.252633
 30
0.000000
  70
    32
  0
VERTEX
  8
0
  5
87A
 10
-12.9359
 20
-0.252764
 30
0.000000
  70
    32
  0
VERTEX
  8
0
  5
87B
 10
-12.9357
 20
-0.252893
 30
0.000000
  70
    32
  0
VERTEX
  8
0
  5
87C
 10
-12.9355
 20
-0.253019
 30
0.000000
  70
    32
  0
VERTEX
  8
0
  5
87D
 10
-12.9353
 20
-0.253143
 30
0.000000
  70
    32
  0
VERTEX
  8
0
  5
87E
 10
-12.9351
 20
-0.253265
 30
0.000000
  70
    32
  0
VERTEX
  8
0
  5
87F
 10
-12.9349
 20
-0.253384
 30
0.000000
  70
    32
  0
VERTEX
  8
0
  5
880
 10
-12.9347
 20
-0.253501
 30
0.000000
  70
    32
  0
VERTEX
  8
0
  5
881
 10
-12.9345
 20
-0.253615
 30
0.000000
  70
    32
  0
VERTEX
  8
0
  5
882
 10
-12.9342
 20
-0.253727
 30
0.000000
  70
    32
  0
VERTEX
  8
0
  5
883
 10
-12.9340
 20
-0.253836
 30
0.000000
  70
    32
  0
VERTEX
  8
0
  5
884
 10
-12.9338
 20
-0.253943
 30
0.000000
  70
    32
  0
VERTEX
  8
0
  5
885
 10
-12.9336
 20
-0.254047
 30
0.000000
  70
    32
  0
VERTEX
  8
0
  5
886
 10
-12.9334
 20
-0.254148
 30
0.000000
  70
    32
  0
VERTEX
  8
0
  5
887
 10
-12.9332
 20
-0.254247
 30
0.000000
  70
    32
  0
VERTEX
  8
0
  5
888
 10
-12.9329
 20
-0.254343
 30
0.000000
  70
    32
  0
VERTEX
  8
0
  5
889
 10
-12.9327
 20
-0.254437
 30
0.000000
  70
    32
  0
VERTEX
  8
0
  5
88A
 10
-12.9325
 20
-0.254528
 30
0.000000
  70
    32
  0
VERTEX
  8
0
  5
88B
 10
-12.9323
 20
-0.254616
 30
0.000000
  70
    32
  0
VERTEX
  8
0
  5
88C
 10
-12.9320
 20
-0.254702
 30
0.000000
  70
    32
  0
VERTEX
  8
0
  5
88D
 10
-12.9318
 20
-0.254784
 30
0.000000
  70
    32
  0
VERTEX
  8
0
  5
88E
 10
-12.9316
 20
-0.254864
 30
0.000000
  70
    32
  0
VERTEX
  8
0
  5
88F
 10
-12.9313
 20
-0.254942
 30
0.000000
  70
    32
  0
VERTEX
  8
0
  5
890
 10
-12.9311
 20
-0.255016
 30
0.000000
  70
    32
  0
VERTEX
  8
0
  5
891
 10
-12.9309
 20
-0.255088
 30
0.000000
  70
    32
  0
VERTEX
  8
0
  5
892
 10
-12.9306
 20
-0.255157
 30
0.000000
  70
    32
  0
VERTEX
  8
0
  5
893
 10
-12.9304
 20
-0.255223
 30
0.000000
  70
    32
  0
VERTEX
  8
0
  5
894
 10
-12.9302
 20
-0.255286
 30
0.000000
  70
    32
  0
VERTEX
  8
0
  5
895
 10
-12.9299
 20
-0.255346
 30
0.000000
  70
    32
  0
VERTEX
  8
0
  5
896
 10
-12.9297
 20
-0.255404
 30
0.000000
  70
    32
  0
VERTEX
  8
0
  5
897
 10
-12.9295
 20
-0.255458
 30
0.000000
  70
    32
  0
VERTEX
  8
0
  5
898
 10
-12.9292
 20
-0.255509
 30
0.000000
  70
    32
  0
VERTEX
  8
0
  5
899
 10
-12.9290
 20
-0.255558
 30
0.000000
  70
    32
  0
VERTEX
  8
0
  5
89A
 10
-12.9287
 20
-0.255604
 30
0.000000
  70
    32
  0
VERTEX
  8
0
  5
89B
 10
-12.9285
 20
-0.255646
 30
0.000000
  70
    32
  0
VERTEX
  8
0
  5
89C
 10
-12.9282
 20
-0.255686
 30
0.000000
  70
    32
  0
VERTEX
  8
0
  5
89D
 10
-12.9280
 20
-0.255722
 30
0.000000
  70
    32
  0
VERTEX
  8
0
  5
89E
 10
-12.9277
 20
-0.255755
 30
0.000000
  70
    32
  0
VERTEX
  8
0
  5
89F
 10
-12.9275
 20
-0.255786
 30
0.000000
  70
    32
  0
VERTEX
  8
0
  5
8A0
 10
-12.9272
 20
-0.255813
 30
0.000000
  70
    32
  0
VERTEX
  8
0
  5
8A1
 10
-12.9270
 20
-0.255837
 30
0.000000
  70
    32
  0
VERTEX
  8
0
  5
8A2
 10
-12.9267
 20
-0.255858
 30
0.000000
  70
    32
  0
VERTEX
  8
0
  5
8A3
 10
-12.9265
 20
-0.255876
 30
0.000000
  70
    32
  0
VERTEX
  8
0
  5
8A4
 10
-12.9262
 20
-0.255890
 30
0.000000
  70
    32
  0
VERTEX
  8
0
  5
8A5
 10
-12.9260
 20
-0.255902
 30
0.000000
  70
    32
  0
VERTEX
  8
0
  5
8A6
 10
-12.9257
 20
-0.255910
 30
0.000000
  70
    32
  0
VERTEX
  8
0
  5
8A7
 10
-12.9255
 20
-0.255915
 30
0.000000
  70
    32
  0
VERTEX
  8
0
  5
8A8
 10
-12.9252
 20
-0.255916
 30
0.000000
  70
    32
  0
SEQEND
  8
0
  5
8A9
  0
POLYLINE
  8
0
  5
8AA
  66
     1
 10
0.000000
 20
0.000000
 30
0.000000
  70
     8
  0
VERTEX
  8
0
  5
8AB
 10
11.4848
 20
-0.306603
 30
0.000000
  70
    32
  0
VERTEX
  8
0
  5
8AC
 10
11.4837
 20
-0.306071
 30
0.000000
  70
    32
  0
VERTEX
  8
0
  5
8AD
 10
11.4827
 20
-0.305542
 30
0.000000
  70
    32
  0
VERTEX
  8
0
  5
8AE
 10
11.4817
 20
-0.305014
 30
0.000000
  70
    32
  0
VERTEX
  8
0
  5
8AF
 10
11.4806
 20
-0.304488
 30
0.000000
  70
    32
  0
VERTEX
  8
0
  5
8B0
 10
11.4796
 20
-0.303965
 30
0.000000
  70
    32
  0
VERTEX
  8
0
  5
8B1
 10
11.4786
 20
-0.303443
 30
0.000000
  70
    32
  0
VERTEX
  8
0
  5
8B2
 10
11.4776
 20
-0.302923
 30
0.000000
  70
    32
  0
VERTEX
  8
0
  5
8B3
 10
11.4765
 20
-0.302406
 30
0.000000
  70
    32
  0
VERTEX
  8
0
  5
8B4
 10
11.4755
 20
-0.301890
 30
0.000000
  70
    32
  0
VERTEX
  8
0
  5
8B5
 10
11.4744
 20
-0.301377
 30
0.000000
  70
    32
  0
VERTEX
  8
0
  5
8B6
 10
11.4734
 20
-0.300866
 30
0.000000
  70
    32
  0
VERTEX
  8
0
  5
8B7
 10
11.4724
 20
-0.300356
 30
0.000000
  70
    32
  0
VERTEX
  8
0
  5
8B8
 10
11.4713
 20
-0.299849
 30
0.000000
  70
    32
  0
VERTEX
  8
0
  5
8B9
 10
11.4703
 20
-0.299344
 30
0.000000
  70
    32
  0
VERTEX
  8
0
  5
8BA
 10
11.4693
 20
-0.298841
 30
0.000000
  70
    32
  0
VERTEX
  8
0
  5
8BB
 10
11.4682
 20
-0.298340
 30
0.000000
  70
    32
  0
VERTEX
  8
0
  5
8BC
 10
11.4672
 20
-0.297841
 30
0.000000
  70
    32
  0
VERTEX
  8
0
  5
8BD
 10
11.4661
 20
-0.297344
 30
0.000000
  70
    32
  0
VERTEX
  8
0
  5
8BE
 10
11.4651
 20
-0.296849
 30
0.000000
  70
    32
  0
VERTEX
  8
0
  5
8BF
 10
11.4640
 20
-0.296356
 30
0.000000
  70
    32
  0
VERTEX
  8
0
  5
8C0
 10
11.4630
 20
-0.295865
 30
0.000000
  70
    32
  0
VERTEX
  8
0
  5
8C1
 10
11.4619
 20
-0.295377
 30
0.000000
  70
    32
  0
VERTEX
  8
0
  5
8C2
 10
11.4609
 20
-0.294890
 30
0.000000
  70
    32
  0
VERTEX
  8
0
  5
8C3
 10
11.4599
 20
-0.294405
 30
0.000000
  70
    32
  0
VERTEX
  8
0
  5
8C4
 10
11.4588
 20
-0.293923
 30
0.000000
  70
    32
  0
VERTEX
  8
0
  5
8C5
 10
11.4578
 20
-0.293442
 30
0.000000
  70
    32
  0
VERTEX
  8
0
  5
8C6
 10
11.4567
 20
-0.292964
 30
0.000000
  70
    32
  0
VERTEX
  8
0
  5
8C7
 10
11.4557
 20
-0.292488
 30
0.000000
  70
    32
  0
VERTEX
  8
0
  5
8C8
 10
11.4546
 20
-0.292013
 30
0.000000
  70
    32
  0
VERTEX
  8
0
  5
8C9
 10
11.4535
 20
-0.291541
 30
0.000000
  70
    32
  0
VERTEX
  8
0
  5
8CA
 10
11.4525
 20
-0.291071
 30
0.000000
  70
    32
  0
VERTEX
  8
0
  5
8CB
 10
11.4514
 20
-0.290603
 30
0.000000
  70
    32
  0
VERTEX
  8
0
  5
8CC
 10
11.4504
 20
-0.290137
 30
0.000000
  70
    32
  0
VERTEX
  8
0
  5
8CD
 10
11.4493
 20
-0.289673
 30
0.000000
  70
    32
  0
VERTEX
  8
0
  5
8CE
 10
11.4483
 20
-0.289211
 30
0.000000
  70
    32
  0
VERTEX
  8
0
  5
8CF
 10
11.4472
 20
-0.288752
 30
0.000000
  70
    32
  0
VERTEX
  8
0
  5
8D0
 10
11.4461
 20
-0.288294
 30
0.000000
  70
    32
  0
VERTEX
  8
0
  5
8D1
 10
11.4451
 20
-0.287839
 30
0.000000
  70
    32
  0
VERTEX
  8
0
  5
8D2
 10
11.4440
 20
-0.287385
 30
0.000000
  70
    32
  0
VERTEX
  8
0
  5
8D3
 10
11.4430
 20
-0.286934
 30
0.000000
  70
    32
  0
VERTEX
  8
0
  5
8D4
 10
11.4419
 20
-0.286484
 30
0.000000
  70
    32
  0
VERTEX
  8
0
  5
8D5
 10
11.4408
 20
-0.286037
 30
0.000000
  70
    32
  0
VERTEX
  8
0
  5
8D6
 10
11.4398
 20
-0.285592
 30
0.000000
  70
    32
  0
VERTEX
  8
0
  5
8D7
 10
11.4387
 20
-0.285149
 30
0.000000
  70
    32
  0
VERTEX
  8
0
  5
8D8
 10
11.4376
 20
-0.284708
 30
0.000000
  70
    32
  0
VERTEX
  8
0
  5
8D9
 10
11.4366
 20
-0.284269
 30
0.000000
  70
    32
  0
VERTEX
  8
0
  5
8DA
 10
11.4355
 20
-0.283833
 30
0.000000
  70
    32
  0
VERTEX
  8
0
  5
8DB
 10
11.4344
 20
-0.283398
 30
0.000000
  70
    32
  0
VERTEX
  8
0
  5
8DC
 10
11.4334
 20
-0.282965
 30
0.000000
  70
    32
  0
VERTEX
  8
0
  5
8DD
 10
11.4323
 20
-0.282535
 30
0.000000
  70
    32
  0
VERTEX
  8
0
  5
8DE
 10
11.4312
 20
-0.282107
 30
0.000000
  70
    32
  0
VERTEX
  8
0
  5
8DF
 10
11.4301
 20
-0.281680
 30
0.000000
  70
    32
  0
VERTEX
  8
0
  5
8E0
 10
11.4291
 20
-0.281256
 30
0.000000
  70
    32
  0
VERTEX
  8
0
  5
8E1
 10
11.4280
 20
-0.280834
 30
0.000000
  70
    32
  0
VERTEX
  8
0
  5
8E2
 10
11.4269
 20
-0.280414
 30
0.000000
  70
    32
  0
VERTEX
  8
0
  5
8E3
 10
11.4258
 20
-0.279996
 30
0.000000
  70
    32
  0
VERTEX
  8
0
  5
8E4
 10
11.4248
 20
-0.279581
 30
0.000000
  70
    32
  0
VERTEX
  8
0
  5
8E5
 10
11.4237
 20
-0.279167
 30
0.000000
  70
    32
  0
VERTEX
  8
0
  5
8E6
 10
11.4226
 20
-0.278755
 30
0.000000
  70
    32
  0
VERTEX
  8
0
  5
8E7
 10
11.4215
 20
-0.278346
 30
0.000000
  70
    32
  0
VERTEX
  8
0
  5
8E8
 10
11.4204
 20
-0.277939
 30
0.000000
  70
    32
  0
VERTEX
  8
0
  5
8E9
 10
11.4194
 20
-0.277533
 30
0.000000
  70
    32
  0
VERTEX
  8
0
  5
8EA
 10
11.4183
 20
-0.277130
 30
0.000000
  70
    32
  0
VERTEX
  8
0
  5
8EB
 10
11.4172
 20
-0.276729
 30
0.000000
  70
    32
  0
VERTEX
  8
0
  5
8EC
 10
11.4161
 20
-0.276331
 30
0.000000
  70
    32
  0
VERTEX
  8
0
  5
8ED
 10
11.4150
 20
-0.275934
 30
0.000000
  70
    32
  0
VERTEX
  8
0
  5
8EE
 10
11.4140
 20
-0.275539
 30
0.000000
  70
    32
  0
VERTEX
  8
0
  5
8EF
 10
11.4129
 20
-0.275147
 30
0.000000
  70
    32
  0
VERTEX
  8
0
  5
8F0
 10
11.4118
 20
-0.274756
 30
0.000000
  70
    32
  0
VERTEX
  8
0
  5
8F1
 10
11.4107
 20
-0.274368
 30
0.000000
  70
    32
  0
VERTEX
  8
0
  5
8F2
 10
11.4096
 20
-0.273982
 30
0.000000
  70
    32
  0
VERTEX
  8
0
  5
8F3
 10
11.4085
 20
-0.273598
 30
0.000000
  70
    32
  0
VERTEX
  8
0
  5
8F4
 10
11.4074
 20
-0.273216
 30
0.000000
  70
    32
  0
VERTEX
  8
0
  5
8F5
 10
11.4063
 20
-0.272836
 30
0.000000
  70
    32
  0
VERTEX
  8
0
  5
8F6
 10
11.4052
 20
-0.272458
 30
0.000000
  70
    32
  0
VERTEX
  8
0
  5
8F7
 10
11.4042
 20
-0.272083
 30
0.000000
  70
    32
  0
VERTEX
  8
0
  5
8F8
 10
11.4031
 20
-0.271710
 30
0.000000
  70
    32
  0
VERTEX
  8
0
  5
8F9
 10
11.4020
 20
-0.271338
 30
0.000000
  70
    32
  0
VERTEX
  8
0
  5
8FA
 10
11.4009
 20
-0.270969
 30
0.000000
  70
    32
  0
VERTEX
  8
0
  5
8FB
 10
11.3998
 20
-0.270602
 30
0.000000
  70
    32
  0
VERTEX
  8
0
  5
8FC
 10
11.3987
 20
-0.270237
 30
0.000000
  70
    32
  0
VERTEX
  8
0
  5
8FD
 10
11.3976
 20
-0.269875
 30
0.000000
  70
    32
  0
VERTEX
  8
0
  5
8FE
 10
11.3965
 20
-0.269514
 30
0.000000
  70
    32
  0
VERTEX
  8
0
  5
8FF
 10
11.3954
 20
-0.269155
 30
0.000000
  70
    32
  0
VERTEX
  8
0
  5
900
 10
11.3943
 20
-0.268799
 30
0.000000
  70
    32
  0
VERTEX
  8
0
  5
901
 10
11.3932
 20
-0.268445
 30
0.000000
  70
    32
  0
VERTEX
  8
0
  5
902
 10
11.3921
 20
-0.268093
 30
0.000000
  70
    32
  0
VERTEX
  8
0
  5
903
 10
11.3910
 20
-0.267743
 30
0.000000
  70
    32
  0
VERTEX
  8
0
  5
904
 10
11.3899
 20
-0.267395
 30
0.000000
  70
    32
  0
VERTEX
  8
0
  5
905
 10
11.3888
 20
-0.267050
 30
0.000000
  70
    32
  0
VERTEX
  8
0
  5
906
 10
11.3877
 20
-0.266706
 30
0.000000
  70
    32
  0
VERTEX
  8
0
  5
907
 10
11.3866
 20
-0.266365
 30
0.000000
  70
    32
  0
VERTEX
  8
0
  5
908
 10
11.3855
 20
-0.266026
 30
0.000000
  70
    32
  0
VERTEX
  8
0
  5
909
 10
11.3844
 20
-0.265689
 30
0.000000
  70
    32
  0
VERTEX
  8
0
  5
90A
 10
11.3833
 20
-0.265354
 30
0.000000
  70
    32
  0
VERTEX
  8
0
  5
90B
 10
11.3822
 20
-0.265021
 30
0.000000
  70
    32
  0
VERTEX
  8
0
  5
90C
 10
11.3811
 20
-0.264691
 30
0.000000
  70
    32
  0
VERTEX
  8
0
  5
90D
 10
11.3800
 20
-0.264362
 30
0.000000
  70
    32
  0
VERTEX
  8
0
  5
90E
 10
11.3788
 20
-0.264036
 30
0.000000
  70
    32
  0
VERTEX
  8
0
  5
90F
 10
11.3777
 20
-0.263712
 30
0.000000
  70
    32
  0
VERTEX
  8
0
  5
910
 10
11.3766
 20
-0.263390
 30
0.000000
  70
    32
  0
VERTEX
  8
0
  5
911
 10
11.3755
 20
-0.263070
 30
0.000000
  70
    32
  0
VERTEX
  8
0
  5
912
 10
11.3744
 20
-0.262752
 30
0.000000
  70
    32
  0
VERTEX
  8
0
  5
913
 10
11.3733
 20
-0.262437
 30
0.000000
  70
    32
  0
VERTEX
  8
0
  5
914
 10
11.3722
 20
-0.262124
 30
0.000000
  70
    32
  0
VERTEX
  8
0
  5
915
 10
11.3711
 20
-0.261813
 30
0.000000
  70
    32
  0
VERTEX
  8
0
  5
916
 10
11.3700
 20
-0.261504
 30
0.000000
  70
    32
  0
VERTEX
  8
0
  5
917
 10
11.3688
 20
-0.261197
 30
0.000000
  70
    32
  0
VERTEX
  8
0
  5
918
 10
11.3677
 20
-0.260892
 30
0.000000
  70
    32
  0
VERTEX
  8
0
  5
919
 10
11.3666
 20
-0.260590
 30
0.000000
  70
    32
  0
VERTEX
  8
0
  5
91A
 10
11.3655
 20
-0.260289
 30
0.000000
  70
    32
  0
VERTEX
  8
0
  5
91B
 10
11.3644
 20
-0.259991
 30
0.000000
  70
    32
  0
VERTEX
  8
0
  5
91C
 10
11.3633
 20
-0.259695
 30
0.000000
  70
    32
  0
VERTEX
  8
0
  5
91D
 10
11.3621
 20
-0.259402
 30
0.000000
  70
    32
  0
VERTEX
  8
0
  5
91E
 10
11.3610
 20
-0.259110
 30
0.000000
  70
    32
  0
VERTEX
  8
0
  5
91F
 10
11.3599
 20
-0.258821
 30
0.000000
  70
    32
  0
VERTEX
  8
0
  5
920
 10
11.3588
 20
-0.258533
 30
0.000000
  70
    32
  0
VERTEX
  8
0
  5
921
 10
11.3577
 20
-0.258248
 30
0.000000
  70
    32
  0
VERTEX
  8
0
  5
922
 10
11.3565
 20
-0.257965
 30
0.000000
  70
    32
  0
VERTEX
  8
0
  5
923
 10
11.3554
 20
-0.257685
 30
0.000000
  70
    32
  0
VERTEX
  8
0
  5
924
 10
11.3543
 20
-0.257406
 30
0.000000
  70
    32
  0
VERTEX
  8
0
  5
925
 10
11.3532
 20
-0.257130
 30
0.000000
  70
    32
  0
VERTEX
  8
0
  5
926
 10
11.3521
 20
-0.256856
 30
0.000000
  70
    32
  0
VERTEX
  8
0
  5
927
 10
11.3509
 20
-0.256584
 30
0.000000
  70
    32
  0
VERTEX
  8
0
  5
928
 10
11.3498
 20
-0.256314
 30
0.000000
  70
    32
  0
VERTEX
  8
0
  5
929
 10
11.3487
 20
-0.256046
 30
0.000000
  70
    32
  0
VERTEX
  8
0
  5
92A
 10
11.3476
 20
-0.255781
 30
0.000000
  70
    32
  0
SEQEND
  8
0
  5
92B
  0
POLYLINE
  8
0
  5
92C
  66
     1
 10
0.000000
 20
0.000000
 30
0.000000
  70
     8
  0
VERTEX
  8
0
  5
92D
 10
12.6524
 20
-0.255781
 30
0.000000
  70
    32
  0
VERTEX
  8
0
  5
92E
 10
12.6513
 20
-0.256046
 30
0.000000
  70
    32
  0
VERTEX
  8
0
  5
92F
 10
12.6502
 20
-0.256314
 30
0.000000
  70
    32
  0
VERTEX
  8
0
  5
930
 10
12.6490
 20
-0.256583
 30
0.000000
  70
    32
  0
VERTEX
  8
0
  5
931
 10
12.6479
 20
-0.256855
 30
0.000000
  70
    32
  0
VERTEX
  8
0
  5
932
 10
12.6468
 20
-0.257130
 30
0.000000
  70
    32
  0
VERTEX
  8
0
  5
933
 10
12.6457
 20
-0.257406
 30
0.000000
  70
    32
  0
VERTEX
  8
0
  5
934
 10
12.6446
 20
-0.257684
 30
0.000000
  70
    32
  0
VERTEX
  8
0
  5
935
 10
12.6434
 20
-0.257965
 30
0.000000
  70
    32
  0
VERTEX
  8
0
  5
936
 10
12.6423
 20
-0.258248
 30
0.000000
  70
    32
  0
VERTEX
  8
0
  5
937
 10
12.6412
 20
-0.258533
 30
0.000000
  70
    32
  0
VERTEX
  8
0
  5
938
 10
12.6401
 20
-0.258820
 30
0.000000
  70
    32
  0
VERTEX
  8
0
  5
939
 10
12.6390
 20
-0.259110
 30
0.000000
  70
    32
  0
VERTEX
  8
0
  5
93A
 10
12.6378
 20
-0.259401
 30
0.000000
  70
    32
  0
VERTEX
  8
0
  5
93B
 10
12.6367
 20
-0.259695
 30
0.000000
  70
    32
  0
VERTEX
  8
0
  5
93C
 10
12.6356
 20
-0.259991
 30
0.000000
  70
    32
  0
VERTEX
  8
0
  5
93D
 10
12.6345
 20
-0.260289
 30
0.000000
  70
    32
  0
VERTEX
  8
0
  5
93E
 10
12.6334
 20
-0.260589
 30
0.000000
  70
    32
  0
VERTEX
  8
0
  5
93F
 10
12.6323
 20
-0.260892
 30
0.000000
  70
    32
  0
VERTEX
  8
0
  5
940
 10
12.6311
 20
-0.261196
 30
0.000000
  70
    32
  0
VERTEX
  8
0
  5
941
 10
12.6300
 20
-0.261503
 30
0.000000
  70
    32
  0
VERTEX
  8
0
  5
942
 10
12.6289
 20
-0.261812
 30
0.000000
  70
    32
  0
VERTEX
  8
0
  5
943
 10
12.6278
 20
-0.262123
 30
0.000000
  70
    32
  0
VERTEX
  8
0
  5
944
 10
12.6267
 20
-0.262436
 30
0.000000
  70
    32
  0
VERTEX
  8
0
  5
945
 10
12.6256
 20
-0.262751
 30
0.000000
  70
    32
  0
VERTEX
  8
0
  5
946
 10
12.6245
 20
-0.263069
 30
0.000000
  70
    32
  0
VERTEX
  8
0
  5
947
 10
12.6234
 20
-0.263389
 30
0.000000
  70
    32
  0
VERTEX
  8
0
  5
948
 10
12.6222
 20
-0.263711
 30
0.000000
  70
    32
  0
VERTEX
  8
0
  5
949
 10
12.6211
 20
-0.264035
 30
0.000000
  70
    32
  0
VERTEX
  8
0
  5
94A
 10
12.6200
 20
-0.264361
 30
0.000000
  70
    32
  0
VERTEX
  8
0
  5
94B
 10
12.6189
 20
-0.264689
 30
0.000000
  70
    32
  0
VERTEX
  8
0
  5
94C
 10
12.6178
 20
-0.265020
 30
0.000000
  70
    32
  0
VERTEX
  8
0
  5
94D
 10
12.6167
 20
-0.265352
 30
0.000000
  70
    32
  0
VERTEX
  8
0
  5
94E
 10
12.6156
 20
-0.265687
 30
0.000000
  70
    32
  0
VERTEX
  8
0
  5
94F
 10
12.6145
 20
-0.266024
 30
0.000000
  70
    32
  0
VERTEX
  8
0
  5
950
 10
12.6134
 20
-0.266363
 30
0.000000
  70
    32
  0
VERTEX
  8
0
  5
951
 10
12.6123
 20
-0.266704
 30
0.000000
  70
    32
  0
VERTEX
  8
0
  5
952
 10
12.6112
 20
-0.267048
 30
0.000000
  70
    32
  0
VERTEX
  8
0
  5
953
 10
12.6101
 20
-0.267393
 30
0.000000
  70
    32
  0
VERTEX
  8
0
  5
954
 10
12.6090
 20
-0.267741
 30
0.000000
  70
    32
  0
VERTEX
  8
0
  5
955
 10
12.6079
 20
-0.268091
 30
0.000000
  70
    32
  0
VERTEX
  8
0
  5
956
 10
12.6068
 20
-0.268443
 30
0.000000
  70
    32
  0
VERTEX
  8
0
  5
957
 10
12.6057
 20
-0.268797
 30
0.000000
  70
    32
  0
VERTEX
  8
0
  5
958
 10
12.6046
 20
-0.269153
 30
0.000000
  70
    32
  0
VERTEX
  8
0
  5
959
 10
12.6035
 20
-0.269511
 30
0.000000
  70
    32
  0
VERTEX
  8
0
  5
95A
 10
12.6024
 20
-0.269872
 30
0.000000
  70
    32
  0
VERTEX
  8
0
  5
95B
 10
12.6013
 20
-0.270235
 30
0.000000
  70
    32
  0
VERTEX
  8
0
  5
95C
 10
12.6002
 20
-0.270599
 30
0.000000
  70
    32
  0
VERTEX
  8
0
  5
95D
 10
12.5991
 20
-0.270966
 30
0.000000
  70
    32
  0
VERTEX
  8
0
  5
95E
 10
12.5980
 20
-0.271335
 30
0.000000
  70
    32
  0
VERTEX
  8
0
  5
95F
 10
12.5969
 20
-0.271707
 30
0.000000
  70
    32
  0
VERTEX
  8
0
  5
960
 10
12.5958
 20
-0.272080
 30
0.000000
  70
    32
  0
VERTEX
  8
0
  5
961
 10
12.5947
 20
-0.272455
 30
0.000000
  70
    32
  0
VERTEX
  8
0
  5
962
 10
12.5936
 20
-0.272833
 30
0.000000
  70
    32
  0
VERTEX
  8
0
  5
963
 10
12.5926
 20
-0.273213
 30
0.000000
  70
    32
  0
VERTEX
  8
0
  5
964
 10
12.5915
 20
-0.273595
 30
0.000000
  70
    32
  0
VERTEX
  8
0
  5
965
 10
12.5904
 20
-0.273979
 30
0.000000
  70
    32
  0
VERTEX
  8
0
  5
966
 10
12.5893
 20
-0.274365
 30
0.000000
  70
    32
  0
VERTEX
  8
0
  5
967
 10
12.5882
 20
-0.274753
 30
0.000000
  70
    32
  0
VERTEX
  8
0
  5
968
 10
12.5871
 20
-0.275143
 30
0.000000
  70
    32
  0
VERTEX
  8
0
  5
969
 10
12.5860
 20
-0.275536
 30
0.000000
  70
    32
  0
VERTEX
  8
0
  5
96A
 10
12.5849
 20
-0.275930
 30
0.000000
  70
    32
  0
VERTEX
  8
0
  5
96B
 10
12.5839
 20
-0.276327
 30
0.000000
  70
    32
  0
VERTEX
  8
0
  5
96C
 10
12.5828
 20
-0.276726
 30
0.000000
  70
    32
  0
VERTEX
  8
0
  5
96D
 10
12.5817
 20
-0.277127
 30
0.000000
  70
    32
  0
VERTEX
  8
0
  5
96E
 10
12.5806
 20
-0.277530
 30
0.000000
  70
    32
  0
VERTEX
  8
0
  5
96F
 10
12.5795
 20
-0.277935
 30
0.000000
  70
    32
  0
VERTEX
  8
0
  5
970
 10
12.5785
 20
-0.278343
 30
0.000000
  70
    32
  0
VERTEX
  8
0
  5
971
 10
12.5774
 20
-0.278752
 30
0.000000
  70
    32
  0
VERTEX
  8
0
  5
972
 10
12.5763
 20
-0.279164
 30
0.000000
  70
    32
  0
VERTEX
  8
0
  5
973
 10
12.5752
 20
-0.279577
 30
0.000000
  70
    32
  0
VERTEX
  8
0
  5
974
 10
12.5741
 20
-0.279993
 30
0.000000
  70
    32
  0
VERTEX
  8
0
  5
975
 10
12.5731
 20
-0.280411
 30
0.000000
  70
    32
  0
VERTEX
  8
0
  5
976
 10
12.5720
 20
-0.280831
 30
0.000000
  70
    32
  0
VERTEX
  8
0
  5
977
 10
12.5709
 20
-0.281253
 30
0.000000
  70
    32
  0
VERTEX
  8
0
  5
978
 10
12.5698
 20
-0.281677
 30
0.000000
  70
    32
  0
VERTEX
  8
0
  5
979
 10
12.5688
 20
-0.282104
 30
0.000000
  70
    32
  0
VERTEX
  8
0
  5
97A
 10
12.5677
 20
-0.282532
 30
0.000000
  70
    32
  0
VERTEX
  8
0
  5
97B
 10
12.5666
 20
-0.282963
 30
0.000000
  70
    32
  0
VERTEX
  8
0
  5
97C
 10
12.5656
 20
-0.283395
 30
0.000000
  70
    32
  0
VERTEX
  8
0
  5
97D
 10
12.5645
 20
-0.283830
 30
0.000000
  70
    32
  0
VERTEX
  8
0
  5
97E
 10
12.5634
 20
-0.284267
 30
0.000000
  70
    32
  0
VERTEX
  8
0
  5
97F
 10
12.5623
 20
-0.284706
 30
0.000000
  70
    32
  0
VERTEX
  8
0
  5
980
 10
12.5613
 20
-0.285147
 30
0.000000
  70
    32
  0
VERTEX
  8
0
  5
981
 10
12.5602
 20
-0.285590
 30
0.000000
  70
    32
  0
VERTEX
  8
0
  5
982
 10
12.5592
 20
-0.286035
 30
0.000000
  70
    32
  0
VERTEX
  8
0
  5
983
 10
12.5581
 20
-0.286483
 30
0.000000
  70
    32
  0
VERTEX
  8
0
  5
984
 10
12.5570
 20
-0.286932
 30
0.000000
  70
    32
  0
VERTEX
  8
0
  5
985
 10
12.5560
 20
-0.287384
 30
0.000000
  70
    32
  0
VERTEX
  8
0
  5
986
 10
12.5549
 20
-0.287837
 30
0.000000
  70
    32
  0
VERTEX
  8
0
  5
987
 10
12.5538
 20
-0.288293
 30
0.000000
  70
    32
  0
VERTEX
  8
0
  5
988
 10
12.5528
 20
-0.288751
 30
0.000000
  70
    32
  0
VERTEX
  8
0
  5
989
 10
12.5517
 20
-0.289211
 30
0.000000
  70
    32
  0
VERTEX
  8
0
  5
98A
 10
12.5507
 20
-0.289673
 30
0.000000
  70
    32
  0
VERTEX
  8
0
  5
98B
 10
12.5496
 20
-0.290137
 30
0.000000
  70
    32
  0
VERTEX
  8
0
  5
98C
 10
12.5485
 20
-0.290603
 30
0.000000
  70
    32
  0
VERTEX
  8
0
  5
98D
 10
12.5475
 20
-0.291071
 30
0.000000
  70
    32
  0
VERTEX
  8
0
  5
98E
 10
12.5464
 20
-0.291542
 30
0.000000
  70
    32
  0
VERTEX
  8
0
  5
98F
 10
12.5454
 20
-0.292014
 30
0.000000
  70
    32
  0
VERTEX
  8
0
  5
990
 10
12.5443
 20
-0.292489
 30
0.000000
  70
    32
  0
VERTEX
  8
0
  5
991
 10
12.5433
 20
-0.292965
 30
0.000000
  70
    32
  0
VERTEX
  8
0
  5
992
 10
12.5422
 20
-0.293444
 30
0.000000
  70
    32
  0
VERTEX
  8
0
  5
993
 10
12.5412
 20
-0.293925
 30
0.000000
  70
    32
  0
VERTEX
  8
0
  5
994
 10
12.5401
 20
-0.294407
 30
0.000000
  70
    32
  0
VERTEX
  8
0
  5
995
 10
12.5391
 20
-0.294892
 30
0.000000
  70
    32
  0
VERTEX
  8
0
  5
996
 10
12.5380
 20
-0.295379
 30
0.000000
  70
    32
  0
VERTEX
  8
0
  5
997
 10
12.5370
 20
-0.295868
 30
0.000000
  70
    32
  0
VERTEX
  8
0
  5
998
 10
12.5359
 20
-0.296360
 30
0.000000
  70
    32
  0
VERTEX
  8
0
  5
999
 10
12.5349
 20
-0.296853
 30
0.000000
  70
    32
  0
VERTEX
  8
0
  5
99A
 10
12.5338
 20
-0.297348
 30
0.000000
  70
    32
  0
VERTEX
  8
0
  5
99B
 10
12.5328
 20
-0.297845
 30
0.000000
  70
    32
  0
VERTEX
  8
0
  5
99C
 10
12.5318
 20
-0.298345
 30
0.000000
  70
    32
  0
VERTEX
  8
0
  5
99D
 10
12.5307
 20
-0.298846
 30
0.000000
  70
    32
  0
VERTEX
  8
0
  5
99E
 10
12.5297
 20
-0.299350
 30
0.000000
  70
    32
  0
VERTEX
  8
0
  5
99F
 10
12.5286
 20
-0.299856
 30
0.000000
  70
    32
  0
VERTEX
  8
0
  5
9A0
 10
12.5276
 20
-0.300363
 30
0.000000
  70
    32
  0
VERTEX
  8
0
  5
9A1
 10
12.5266
 20
-0.300873
 30
0.000000
  70
    32
  0
VERTEX
  8
0
  5
9A2
 10
12.5255
 20
-0.301385
 30
0.000000
  70
    32
  0
VERTEX
  8
0
  5
9A3
 10
12.5245
 20
-0.301899
 30
0.000000
  70
    32
  0
VERTEX
  8
0
  5
9A4
 10
12.5235
 20
-0.302415
 30
0.000000
  70
    32
  0
VERTEX
  8
0
  5
9A5
 10
12.5224
 20
-0.302933
 30
0.000000
  70
    32
  0
VERTEX
  8
0
  5
9A6
 10
12.5214
 20
-0.303453
 30
0.000000
  70
    32
  0
VERTEX
  8
0
  5
9A7
 10
12.5204
 20
-0.303975
 30
0.000000
  70
    32
  0
VERTEX
  8
0
  5
9A8
 10
12.5193
 20
-0.304499
 30
0.000000
  70
    32
  0
VERTEX
  8
0
  5
9A9
 10
12.5183
 20
-0.305026
 30
0.000000
  70
    32
  0
VERTEX
  8
0
  5
9AA
 10
12.5173
 20
-0.305554
 30
0.000000
  70
    32
  0
VERTEX
  8
0
  5
9AB
 10
12.5162
 20
-0.306084
 30
0.000000
  70
    32
  0
VERTEX
  8
0
  5
9AC
 10
12.5152
 20
-0.306617
 30
0.000000
  70
    32
  0
SEQEND
  8
0
  5
9AD
  0
POLYLINE
  8
0
  5
9AE
  66
     1
 10
0.000000
 20
0.000000
 30
0.000000
  70
     8
  0
VERTEX
  8
0
  5
9AF
 10
11.6327
 20
-0.532815
 30
0.000000
  70
    32
  0
VERTEX
  8
0
  5
9B0
 10
11.6326
 20
-0.530548
 30
0.000000
  70
    32
  0
VERTEX
  8
0
  5
9B1
 10
11.6324
 20
-0.528284
 30
0.000000
  70
    32
  0
VERTEX
  8
0
  5
9B2
 10
11.6322
 20
-0.526024
 30
0.000000
  70
    32
  0
VERTEX
  8
0
  5
9B3
 10
11.6320
 20
-0.523768
 30
0.000000
  70
    32
  0
VERTEX
  8
0
  5
9B4
 10
11.6317
 20
-0.521517
 30
0.000000
  70
    32
  0
VERTEX
  8
0
  5
9B5
 10
11.6315
 20
-0.519270
 30
0.000000
  70
    32
  0
VERTEX
  8
0
  5
9B6
 10
11.6312
 20
-0.517027
 30
0.000000
  70
    32
  0
VERTEX
  8
0
  5
9B7
 10
11.6309
 20
-0.514789
 30
0.000000
  70
    32
  0
VERTEX
  8
0
  5
9B8
 10
11.6306
 20
-0.512555
 30
0.000000
  70
    32
  0
VERTEX
  8
0
  5
9B9
 10
11.6303
 20
-0.510326
 30
0.000000
  70
    32
  0
VERTEX
  8
0
  5
9BA
 10
11.6299
 20
-0.508101
 30
0.000000
  70
    32
  0
VERTEX
  8
0
  5
9BB
 10
11.6296
 20
-0.505882
 30
0.000000
  70
    32
  0
VERTEX
  8
0
  5
9BC
 10
11.6292
 20
-0.503667
 30
0.000000
  70
    32
  0
VERTEX
  8
0
  5
9BD
 10
11.6288
 20
-0.501458
 30
0.000000
  70
    32
  0
VERTEX
  8
0
  5
9BE
 10
11.6284
 20
-0.499254
 30
0.000000
  70
    32
  0
VERTEX
  8
0
  5
9BF
 10
11.6280
 20
-0.497054
 30
0.000000
  70
    32
  0
VERTEX
  8
0
  5
9C0
 10
11.6275
 20
-0.494861
 30
0.000000
  70
    32
  0
VERTEX
  8
0
  5
9C1
 10
11.6271
 20
-0.492672
 30
0.000000
  70
    32
  0
VERTEX
  8
0
  5
9C2
 10
11.6266
 20
-0.490489
 30
0.000000
  70
    32
  0
VERTEX
  8
0
  5
9C3
 10
11.6261
 20
-0.488312
 30
0.000000
  70
    32
  0
VERTEX
  8
0
  5
9C4
 10
11.6256
 20
-0.486140
 30
0.000000
  70
    32
  0
VERTEX
  8
0
  5
9C5
 10
11.6250
 20
-0.483974
 30
0.000000
  70
    32
  0
VERTEX
  8
0
  5
9C6
 10
11.6245
 20
-0.481814
 30
0.000000
  70
    32
  0
VERTEX
  8
0
  5
9C7
 10
11.6239
 20
-0.479659
 30
0.000000
  70
    32
  0
VERTEX
  8
0
  5
9C8
 10
11.6233
 20
-0.477511
 30
0.000000
  70
    32
  0
VERTEX
  8
0
  5
9C9
 10
11.6227
 20
-0.475369
 30
0.000000
  70
    32
  0
VERTEX
  8
0
  5
9CA
 10
11.6221
 20
-0.473233
 30
0.000000
  70
    32
  0
VERTEX
  8
0
  5
9CB
 10
11.6215
 20
-0.471104
 30
0.000000
  70
    32
  0
VERTEX
  8
0
  5
9CC
 10
11.6208
 20
-0.468981
 30
0.000000
  70
    32
  0
VERTEX
  8
0
  5
9CD
 10
11.6201
 20
-0.466864
 30
0.000000
  70
    32
  0
VERTEX
  8
0
  5
9CE
 10
11.6194
 20
-0.464754
 30
0.000000
  70
    32
  0
VERTEX
  8
0
  5
9CF
 10
11.6187
 20
-0.462650
 30
0.000000
  70
    32
  0
VERTEX
  8
0
  5
9D0
 10
11.6180
 20
-0.460554
 30
0.000000
  70
    32
  0
VERTEX
  8
0
  5
9D1
 10
11.6173
 20
-0.458464
 30
0.000000
  70
    32
  0
VERTEX
  8
0
  5
9D2
 10
11.6165
 20
-0.456381
 30
0.000000
  70
    32
  0
VERTEX
  8
0
  5
9D3
 10
11.6158
 20
-0.454305
 30
0.000000
  70
    32
  0
VERTEX
  8
0
  5
9D4
 10
11.6150
 20
-0.452236
 30
0.000000
  70
    32
  0
VERTEX
  8
0
  5
9D5
 10
11.6142
 20
-0.450174
 30
0.000000
  70
    32
  0
VERTEX
  8
0
  5
9D6
 10
11.6133
 20
-0.448120
 30
0.000000
  70
    32
  0
VERTEX
  8
0
  5
9D7
 10
11.6125
 20
-0.446073
 30
0.000000
  70
    32
  0
VERTEX
  8
0
  5
9D8
 10
11.6117
 20
-0.444034
 30
0.000000
  70
    32
  0
VERTEX
  8
0
  5
9D9
 10
11.6108
 20
-0.442002
 30
0.000000
  70
    32
  0
VERTEX
  8
0
  5
9DA
 10
11.6099
 20
-0.439978
 30
0.000000
  70
    32
  0
VERTEX
  8
0
  5
9DB
 10
11.6090
 20
-0.437962
 30
0.000000
  70
    32
  0
VERTEX
  8
0
  5
9DC
 10
11.6081
 20
-0.435953
 30
0.000000
  70
    32
  0
VERTEX
  8
0
  5
9DD
 10
11.6072
 20
-0.433952
 30
0.000000
  70
    32
  0
VERTEX
  8
0
  5
9DE
 10
11.6062
 20
-0.431960
 30
0.000000
  70
    32
  0
VERTEX
  8
0
  5
9DF
 10
11.6053
 20
-0.429975
 30
0.000000
  70
    32
  0
VERTEX
  8
0
  5
9E0
 10
11.6043
 20
-0.427999
 30
0.000000
  70
    32
  0
VERTEX
  8
0
  5
9E1
 10
11.6033
 20
-0.426031
 30
0.000000
  70
    32
  0
VERTEX
  8
0
  5
9E2
 10
11.6023
 20
-0.424071
 30
0.000000
  70
    32
  0
VERTEX
  8
0
  5
9E3
 10
11.6013
 20
-0.422120
 30
0.000000
  70
    32
  0
VERTEX
  8
0
  5
9E4
 10
11.6002
 20
-0.420178
 30
0.000000
  70
    32
  0
VERTEX
  8
0
  5
9E5
 10
11.5992
 20
-0.418244
 30
0.000000
  70
    32
  0
VERTEX
  8
0
  5
9E6
 10
11.5981
 20
-0.416319
 30
0.000000
  70
    32
  0
VERTEX
  8
0
  5
9E7
 10
11.5970
 20
-0.414403
 30
0.000000
  70
    32
  0
VERTEX
  8
0
  5
9E8
 10
11.5959
 20
-0.412495
 30
0.000000
  70
    32
  0
VERTEX
  8
0
  5
9E9
 10
11.5948
 20
-0.410597
 30
0.000000
  70
    32
  0
VERTEX
  8
0
  5
9EA
 10
11.5937
 20
-0.408708
 30
0.000000
  70
    32
  0
VERTEX
  8
0
  5
9EB
 10
11.5925
 20
-0.406828
 30
0.000000
  70
    32
  0
VERTEX
  8
0
  5
9EC
 10
11.5913
 20
-0.404957
 30
0.000000
  70
    32
  0
VERTEX
  8
0
  5
9ED
 10
11.5902
 20
-0.403096
 30
0.000000
  70
    32
  0
VERTEX
  8
0
  5
9EE
 10
11.5890
 20
-0.401244
 30
0.000000
  70
    32
  0
VERTEX
  8
0
  5
9EF
 10
11.5878
 20
-0.399402
 30
0.000000
  70
    32
  0
VERTEX
  8
0
  5
9F0
 10
11.5866
 20
-0.397569
 30
0.000000
  70
    32
  0
VERTEX
  8
0
  5
9F1
 10
11.5853
 20
-0.395747
 30
0.000000
  70
    32
  0
VERTEX
  8
0
  5
9F2
 10
11.5841
 20
-0.393934
 30
0.000000
  70
    32
  0
VERTEX
  8
0
  5
9F3
 10
11.5828
 20
-0.392131
 30
0.000000
  70
    32
  0
VERTEX
  8
0
  5
9F4
 10
11.5815
 20
-0.390338
 30
0.000000
  70
    32
  0
VERTEX
  8
0
  5
9F5
 10
11.5802
 20
-0.388555
 30
0.000000
  70
    32
  0
VERTEX
  8
0
  5
9F6
 10
11.5789
 20
-0.386782
 30
0.000000
  70
    32
  0
VERTEX
  8
0
  5
9F7
 10
11.5776
 20
-0.385020
 30
0.000000
  70
    32
  0
VERTEX
  8
0
  5
9F8
 10
11.5763
 20
-0.383268
 30
0.000000
  70
    32
  0
VERTEX
  8
0
  5
9F9
 10
11.5749
 20
-0.381527
 30
0.000000
  70
    32
  0
VERTEX
  8
0
  5
9FA
 10
11.5736
 20
-0.379796
 30
0.000000
  70
    32
  0
VERTEX
  8
0
  5
9FB
 10
11.5722
 20
-0.378075
 30
0.000000
  70
    32
  0
VERTEX
  8
0
  5
9FC
 10
11.5708
 20
-0.376366
 30
0.000000
  70
    32
  0
VERTEX
  8
0
  5
9FD
 10
11.5694
 20
-0.374667
 30
0.000000
  70
    32
  0
VERTEX
  8
0
  5
9FE
 10
11.5680
 20
-0.372980
 30
0.000000
  70
    32
  0
VERTEX
  8
0
  5
9FF
 10
11.5665
 20
-0.371303
 30
0.000000
  70
    32
  0
VERTEX
  8
0
  5
A00
 10
11.5651
 20
-0.369638
 30
0.000000
  70
    32
  0
VERTEX
  8
0
  5
A01
 10
11.5636
 20
-0.367983
 30
0.000000
  70
    32
  0
VERTEX
  8
0
  5
A02
 10
11.5622
 20
-0.366340
 30
0.000000
  70
    32
  0
VERTEX
  8
0
  5
A03
 10
11.5607
 20
-0.364709
 30
0.000000
  70
    32
  0
VERTEX
  8
0
  5
A04
 10
11.5592
 20
-0.363088
 30
0.000000
  70
    32
  0
VERTEX
  8
0
  5
A05
 10
11.5577
 20
-0.361480
 30
0.000000
  70
    32
  0
VERTEX
  8
0
  5
A06
 10
11.5561
 20
-0.359883
 30
0.000000
  70
    32
  0
VERTEX
  8
0
  5
A07
 10
11.5546
 20
-0.358298
 30
0.000000
  70
    32
  0
VERTEX
  8
0
  5
A08
 10
11.5530
 20
-0.356724
 30
0.000000
  70
    32
  0
VERTEX
  8
0
  5
A09
 10
11.5515
 20
-0.355163
 30
0.000000
  70
    32
  0
VERTEX
  8
0
  5
A0A
 10
11.5499
 20
-0.353614
 30
0.000000
  70
    32
  0
VERTEX
  8
0
  5
A0B
 10
11.5483
 20
-0.352077
 30
0.000000
  70
    32
  0
VERTEX
  8
0
  5
A0C
 10
11.5467
 20
-0.350552
 30
0.000000
  70
    32
  0
VERTEX
  8
0
  5
A0D
 10
11.5451
 20
-0.349039
 30
0.000000
  70
    32
  0
VERTEX
  8
0
  5
A0E
 10
11.5434
 20
-0.347539
 30
0.000000
  70
    32
  0
VERTEX
  8
0
  5
A0F
 10
11.5418
 20
-0.346051
 30
0.000000
  70
    32
  0
VERTEX
  8
0
  5
A10
 10
11.5401
 20
-0.344576
 30
0.000000
  70
    32
  0
VERTEX
  8
0
  5
A11
 10
11.5385
 20
-0.343113
 30
0.000000
  70
    32
  0
VERTEX
  8
0
  5
A12
 10
11.5368
 20
-0.341663
 30
0.000000
  70
    32
  0
VERTEX
  8
0
  5
A13
 10
11.5351
 20
-0.340226
 30
0.000000
  70
    32
  0
VERTEX
  8
0
  5
A14
 10
11.5334
 20
-0.338802
 30
0.000000
  70
    32
  0
VERTEX
  8
0
  5
A15
 10
11.5317
 20
-0.337391
 30
0.000000
  70
    32
  0
VERTEX
  8
0
  5
A16
 10
11.5299
 20
-0.335993
 30
0.000000
  70
    32
  0
VERTEX
  8
0
  5
A17
 10
11.5282
 20
-0.334609
 30
0.000000
  70
    32
  0
VERTEX
  8
0
  5
A18
 10
11.5264
 20
-0.333237
 30
0.000000
  70
    32
  0
VERTEX
  8
0
  5
A19
 10
11.5247
 20
-0.331879
 30
0.000000
  70
    32
  0
VERTEX
  8
0
  5
A1A
 10
11.5229
 20
-0.330535
 30
0.000000
  70
    32
  0
VERTEX
  8
0
  5
A1B
 10
11.5211
 20
-0.329204
 30
0.000000
  70
    32
  0
VERTEX
  8
0
  5
A1C
 10
11.5193
 20
-0.327887
 30
0.000000
  70
    32
  0
VERTEX
  8
0
  5
A1D
 10
11.5175
 20
-0.326583
 30
0.000000
  70
    32
  0
VERTEX
  8
0
  5
A1E
 10
11.5156
 20
-0.325293
 30
0.000000
  70
    32
  0
VERTEX
  8
0
  5
A1F
 10
11.5138
 20
-0.324018
 30
0.000000
  70
    32
  0
VERTEX
  8
0
  5
A20
 10
11.5119
 20
-0.322756
 30
0.000000
  70
    32
  0
VERTEX
  8
0
  5
A21
 10
11.5101
 20
-0.321509
 30
0.000000
  70
    32
  0
VERTEX
  8
0
  5
A22
 10
11.5082
 20
-0.320275
 30
0.000000
  70
    32
  0
VERTEX
  8
0
  5
A23
 10
11.5063
 20
-0.319056
 30
0.000000
  70
    32
  0
VERTEX
  8
0
  5
A24
 10
11.5044
 20
-0.317851
 30
0.000000
  70
    32
  0
VERTEX
  8
0
  5
A25
 10
11.5025
 20
-0.316661
 30
0.000000
  70
    32
  0
VERTEX
  8
0
  5
A26
 10
11.5006
 20
-0.315486
 30
0.000000
  70
    32
  0
VERTEX
  8
0
  5
A27
 10
11.4986
 20
-0.314325
 30
0.000000
  70
    32
  0
VERTEX
  8
0
  5
A28
 10
11.4967
 20
-0.313179
 30
0.000000
  70
    32
  0
VERTEX
  8
0
  5
A29
 10
11.4947
 20
-0.312047
 30
0.000000
  70
    32
  0
VERTEX
  8
0
  5
A2A
 10
11.4927
 20
-0.310931
 30
0.000000
  70
    32
  0
VERTEX
  8
0
  5
A2B
 10
11.4908
 20
-0.309830
 30
0.000000
  70
    32
  0
VERTEX
  8
0
  5
A2C
 10
11.4888
 20
-0.308743
 30
0.000000
  70
    32
  0
VERTEX
  8
0
  5
A2D
 10
11.4868
 20
-0.307672
 30
0.000000
  70
    32
  0
VERTEX
  8
0
  5
A2E
 10
11.4848
 20
-0.306617
 30
0.000000
  70
    32
  0
SEQEND
  8
0
  5
A2F
  0
POLYLINE
  8
0
  5
A30
  66
     1
 10
0.000000
 20
0.000000
 30
0.000000
  70
     8
  0
VERTEX
  8
0
  5
A31
 10
12.5152
 20
-0.306603
 30
0.000000
  70
    32
  0
VERTEX
  8
0
  5
A32
 10
12.5132
 20
-0.307660
 30
0.000000
  70
    32
  0
VERTEX
  8
0
  5
A33
 10
12.5112
 20
-0.308731
 30
0.000000
  70
    32
  0
VERTEX
  8
0
  5
A34
 10
12.5092
 20
-0.309818
 30
0.000000
  70
    32
  0
VERTEX
  8
0
  5
A35
 10
12.5072
 20
-0.310920
 30
0.000000
  70
    32
  0
VERTEX
  8
0
  5
A36
 10
12.5053
 20
-0.312037
 30
0.000000
  70
    32
  0
VERTEX
  8
0
  5
A37
 10
12.5033
 20
-0.313169
 30
0.000000
  70
    32
  0
VERTEX
  8
0
  5
A38
 10
12.5014
 20
-0.314316
 30
0.000000
  70
    32
  0
VERTEX
  8
0
  5
A39
 10
12.4994
 20
-0.315477
 30
0.000000
  70
    32
  0
VERTEX
  8
0
  5
A3A
 10
12.4975
 20
-0.316653
 30
0.000000
  70
    32
  0
VERTEX
  8
0
  5
A3B
 10
12.4956
 20
-0.317844
 30
0.000000
  70
    32
  0
VERTEX
  8
0
  5
A3C
 10
12.4937
 20
-0.319049
 30
0.000000
  70
    32
  0
VERTEX
  8
0
  5
A3D
 10
12.4918
 20
-0.320269
 30
0.000000
  70
    32
  0
VERTEX
  8
0
  5
A3E
 10
12.4899
 20
-0.321502
 30
0.000000
  70
    32
  0
VERTEX
  8
0
  5
A3F
 10
12.4880
 20
-0.322750
 30
0.000000
  70
    32
  0
VERTEX
  8
0
  5
A40
 10
12.4862
 20
-0.324013
 30
0.000000
  70
    32
  0
VERTEX
  8
0
  5
A41
 10
12.4844
 20
-0.325289
 30
0.000000
  70
    32
  0
VERTEX
  8
0
  5
A42
 10
12.4825
 20
-0.326579
 30
0.000000
  70
    32
  0
VERTEX
  8
0
  5
A43
 10
12.4807
 20
-0.327883
 30
0.000000
  70
    32
  0
VERTEX
  8
0
  5
A44
 10
12.4789
 20
-0.329201
 30
0.000000
  70
    32
  0
VERTEX
  8
0
  5
A45
 10
12.4771
 20
-0.330532
 30
0.000000
  70
    32
  0
VERTEX
  8
0
  5
A46
 10
12.4753
 20
-0.331877
 30
0.000000
  70
    32
  0
VERTEX
  8
0
  5
A47
 10
12.4736
 20
-0.333235
 30
0.000000
  70
    32
  0
VERTEX
  8
0
  5
A48
 10
12.4718
 20
-0.334607
 30
0.000000
  70
    32
  0
VERTEX
  8
0
  5
A49
 10
12.4700
 20
-0.335992
 30
0.000000
  70
    32
  0
VERTEX
  8
0
  5
A4A
 10
12.4683
 20
-0.337390
 30
0.000000
  70
    32
  0
VERTEX
  8
0
  5
A4B
 10
12.4666
 20
-0.338802
 30
0.000000
  70
    32
  0
VERTEX
  8
0
  5
A4C
 10
12.4649
 20
-0.340226
 30
0.000000
  70
    32
  0
VERTEX
  8
0
  5
A4D
 10
12.4632
 20
-0.341664
 30
0.000000
  70
    32
  0
VERTEX
  8
0
  5
A4E
 10
12.4615
 20
-0.343114
 30
0.000000
  70
    32
  0
VERTEX
  8
0
  5
A4F
 10
12.4598
 20
-0.344577
 30
0.000000
  70
    32
  0
VERTEX
  8
0
  5
A50
 10
12.4582
 20
-0.346052
 30
0.000000
  70
    32
  0
VERTEX
  8
0
  5
A51
 10
12.4565
 20
-0.347540
 30
0.000000
  70
    32
  0
VERTEX
  8
0
  5
A52
 10
12.4549
 20
-0.349041
 30
0.000000
  70
    32
  0
VERTEX
  8
0
  5
A53
 10
12.4533
 20
-0.350554
 30
0.000000
  70
    32
  0
VERTEX
  8
0
  5
A54
 10
12.4517
 20
-0.352079
 30
0.000000
  70
    32
  0
VERTEX
  8
0
  5
A55
 10
12.4501
 20
-0.353617
 30
0.000000
  70
    32
  0
VERTEX
  8
0
  5
A56
 10
12.4485
 20
-0.355166
 30
0.000000
  70
    32
  0
VERTEX
  8
0
  5
A57
 10
12.4469
 20
-0.356728
 30
0.000000
  70
    32
  0
VERTEX
  8
0
  5
A58
 10
12.4454
 20
-0.358302
 30
0.000000
  70
    32
  0
VERTEX
  8
0
  5
A59
 10
12.4438
 20
-0.359887
 30
0.000000
  70
    32
  0
VERTEX
  8
0
  5
A5A
 10
12.4423
 20
-0.361484
 30
0.000000
  70
    32
  0
VERTEX
  8
0
  5
A5B
 10
12.4408
 20
-0.363093
 30
0.000000
  70
    32
  0
VERTEX
  8
0
  5
A5C
 10
12.4393
 20
-0.364713
 30
0.000000
  70
    32
  0
VERTEX
  8
0
  5
A5D
 10
12.4378
 20
-0.366345
 30
0.000000
  70
    32
  0
VERTEX
  8
0
  5
A5E
 10
12.4363
 20
-0.367988
 30
0.000000
  70
    32
  0
VERTEX
  8
0
  5
A5F
 10
12.4349
 20
-0.369643
 30
0.000000
  70
    32
  0
VERTEX
  8
0
  5
A60
 10
12.4334
 20
-0.371308
 30
0.000000
  70
    32
  0
VERTEX
  8
0
  5
A61
 10
12.4320
 20
-0.372985
 30
0.000000
  70
    32
  0
VERTEX
  8
0
  5
A62
 10
12.4306
 20
-0.374673
 30
0.000000
  70
    32
  0
VERTEX
  8
0
  5
A63
 10
12.4292
 20
-0.376372
 30
0.000000
  70
    32
  0
VERTEX
  8
0
  5
A64
 10
12.4278
 20
-0.378081
 30
0.000000
  70
    32
  0
VERTEX
  8
0
  5
A65
 10
12.4264
 20
-0.379802
 30
0.000000
  70
    32
  0
VERTEX
  8
0
  5
A66
 10
12.4250
 20
-0.381533
 30
0.000000
  70
    32
  0
VERTEX
  8
0
  5
A67
 10
12.4237
 20
-0.383274
 30
0.000000
  70
    32
  0
VERTEX
  8
0
  5
A68
 10
12.4224
 20
-0.385026
 30
0.000000
  70
    32
  0
VERTEX
  8
0
  5
A69
 10
12.4210
 20
-0.386789
 30
0.000000
  70
    32
  0
VERTEX
  8
0
  5
A6A
 10
12.4197
 20
-0.388562
 30
0.000000
  70
    32
  0
VERTEX
  8
0
  5
A6B
 10
12.4184
 20
-0.390344
 30
0.000000
  70
    32
  0
VERTEX
  8
0
  5
A6C
 10
12.4172
 20
-0.392137
 30
0.000000
  70
    32
  0
VERTEX
  8
0
  5
A6D
 10
12.4159
 20
-0.393940
 30
0.000000
  70
    32
  0
VERTEX
  8
0
  5
A6E
 10
12.4146
 20
-0.395753
 30
0.000000
  70
    32
  0
VERTEX
  8
0
  5
A6F
 10
12.4134
 20
-0.397576
 30
0.000000
  70
    32
  0
VERTEX
  8
0
  5
A70
 10
12.4122
 20
-0.399409
 30
0.000000
  70
    32
  0
VERTEX
  8
0
  5
A71
 10
12.4110
 20
-0.401251
 30
0.000000
  70
    32
  0
VERTEX
  8
0
  5
A72
 10
12.4098
 20
-0.403103
 30
0.000000
  70
    32
  0
VERTEX
  8
0
  5
A73
 10
12.4086
 20
-0.404964
 30
0.000000
  70
    32
  0
VERTEX
  8
0
  5
A74
 10
12.4075
 20
-0.406835
 30
0.000000
  70
    32
  0
VERTEX
  8
0
  5
A75
 10
12.4063
 20
-0.408715
 30
0.000000
  70
    32
  0
VERTEX
  8
0
  5
A76
 10
12.4052
 20
-0.410604
 30
0.000000
  70
    32
  0
VERTEX
  8
0
  5
A77
 10
12.4041
 20
-0.412502
 30
0.000000
  70
    32
  0
VERTEX
  8
0
  5
A78
 10
12.4030
 20
-0.414409
 30
0.000000
  70
    32
  0
VERTEX
  8
0
  5
A79
 10
12.4019
 20
-0.416325
 30
0.000000
  70
    32
  0
VERTEX
  8
0
  5
A7A
 10
12.4008
 20
-0.418250
 30
0.000000
  70
    32
  0
VERTEX
  8
0
  5
A7B
 10
12.3998
 20
-0.420184
 30
0.000000
  70
    32
  0
VERTEX
  8
0
  5
A7C
 10
12.3987
 20
-0.422126
 30
0.000000
  70
    32
  0
VERTEX
  8
0
  5
A7D
 10
12.3977
 20
-0.424077
 30
0.000000
  70
    32
  0
VERTEX
  8
0
  5
A7E
 10
12.3967
 20
-0.426037
 30
0.000000
  70
    32
  0
VERTEX
  8
0
  5
A7F
 10
12.3957
 20
-0.428005
 30
0.000000
  70
    32
  0
VERTEX
  8
0
  5
A80
 10
12.3947
 20
-0.429981
 30
0.000000
  70
    32
  0
VERTEX
  8
0
  5
A81
 10
12.3938
 20
-0.431965
 30
0.000000
  70
    32
  0
VERTEX
  8
0
  5
A82
 10
12.3928
 20
-0.433958
 30
0.000000
  70
    32
  0
VERTEX
  8
0
  5
A83
 10
12.3919
 20
-0.435958
 30
0.000000
  70
    32
  0
VERTEX
  8
0
  5
A84
 10
12.3910
 20
-0.437966
 30
0.000000
  70
    32
  0
VERTEX
  8
0
  5
A85
 10
12.3901
 20
-0.439983
 30
0.000000
  70
    32
  0
VERTEX
  8
0
  5
A86
 10
12.3892
 20
-0.442007
 30
0.000000
  70
    32
  0
VERTEX
  8
0
  5
A87
 10
12.3883
 20
-0.444038
 30
0.000000
  70
    32
  0
VERTEX
  8
0
  5
A88
 10
12.3875
 20
-0.446077
 30
0.000000
  70
    32
  0
VERTEX
  8
0
  5
A89
 10
12.3866
 20
-0.448124
 30
0.000000
  70
    32
  0
VERTEX
  8
0
  5
A8A
 10
12.3858
 20
-0.450178
 30
0.000000
  70
    32
  0
VERTEX
  8
0
  5
A8B
 10
12.3850
 20
-0.452239
 30
0.000000
  70
    32
  0
VERTEX
  8
0
  5
A8C
 10
12.3842
 20
-0.454308
 30
0.000000
  70
    32
  0
VERTEX
  8
0
  5
A8D
 10
12.3834
 20
-0.456383
 30
0.000000
  70
    32
  0
VERTEX
  8
0
  5
A8E
 10
12.3827
 20
-0.458466
 30
0.000000
  70
    32
  0
VERTEX
  8
0
  5
A8F
 10
12.3820
 20
-0.460556
 30
0.000000
  70
    32
  0
VERTEX
  8
0
  5
A90
 10
12.3812
 20
-0.462652
 30
0.000000
  70
    32
  0
VERTEX
  8
0
  5
A91
 10
12.3805
 20
-0.464755
 30
0.000000
  70
    32
  0
VERTEX
  8
0
  5
A92
 10
12.3798
 20
-0.466865
 30
0.000000
  70
    32
  0
VERTEX
  8
0
  5
A93
 10
12.3792
 20
-0.468981
 30
0.000000
  70
    32
  0
VERTEX
  8
0
  5
A94
 10
12.3785
 20
-0.471104
 30
0.000000
  70
    32
  0
VERTEX
  8
0
  5
A95
 10
12.3779
 20
-0.473233
 30
0.000000
  70
    32
  0
VERTEX
  8
0
  5
A96
 10
12.3773
 20
-0.475369
 30
0.000000
  70
    32
  0
VERTEX
  8
0
  5
A97
 10
12.3767
 20
-0.477511
 30
0.000000
  70
    32
  0
VERTEX
  8
0
  5
A98
 10
12.3761
 20
-0.479658
 30
0.000000
  70
    32
  0
VERTEX
  8
0
  5
A99
 10
12.3755
 20
-0.481812
 30
0.000000
  70
    32
  0
VERTEX
  8
0
  5
A9A
 10
12.3750
 20
-0.483972
 30
0.000000
  70
    32
  0
VERTEX
  8
0
  5
A9B
 10
12.3744
 20
-0.486138
 30
0.000000
  70
    32
  0
VERTEX
  8
0
  5
A9C
 10
12.3739
 20
-0.488309
 30
0.000000
  70
    32
  0
VERTEX
  8
0
  5
A9D
 10
12.3734
 20
-0.490486
 30
0.000000
  70
    32
  0
VERTEX
  8
0
  5
A9E
 10
12.3729
 20
-0.492668
 30
0.000000
  70
    32
  0
VERTEX
  8
0
  5
A9F
 10
12.3725
 20
-0.494856
 30
0.000000
  70
    32
  0
VERTEX
  8
0
  5
AA0
 10
12.3720
 20
-0.497050
 30
0.000000
  70
    32
  0
VERTEX
  8
0
  5
AA1
 10
12.3716
 20
-0.499249
 30
0.000000
  70
    32
  0
VERTEX
  8
0
  5
AA2
 10
12.3712
 20
-0.501452
 30
0.000000
  70
    32
  0
VERTEX
  8
0
  5
AA3
 10
12.3708
 20
-0.503661
 30
0.000000
  70
    32
  0
VERTEX
  8
0
  5
AA4
 10
12.3704
 20
-0.505875
 30
0.000000
  70
    32
  0
VERTEX
  8
0
  5
AA5
 10
12.3700
 20
-0.508094
 30
0.000000
  70
    32
  0
VERTEX
  8
0
  5
AA6
 10
12.3697
 20
-0.510318
 30
0.000000
  70
    32
  0
VERTEX
  8
0
  5
AA7
 10
12.3694
 20
-0.512547
 30
0.000000
  70
    32
  0
VERTEX
  8
0
  5
AA8
 10
12.3691
 20
-0.514780
 30
0.000000
  70
    32
  0
VERTEX
  8
0
  5
AA9
 10
12.3688
 20
-0.517018
 30
0.000000
  70
    32
  0
VERTEX
  8
0
  5
AAA
 10
12.3685
 20
-0.519260
 30
0.000000
  70
    32
  0
VERTEX
  8
0
  5
AAB
 10
12.3682
 20
-0.521506
 30
0.000000
  70
    32
  0
VERTEX
  8
0
  5
AAC
 10
12.3680
 20
-0.523757
 30
0.000000
  70
    32
  0
VERTEX
  8
0
  5
AAD
 10
12.3678
 20
-0.526012
 30
0.000000
  70
    32
  0
VERTEX
  8
0
  5
AAE
 10
12.3676
 20
-0.528272
 30
0.000000
  70
    32
  0
VERTEX
  8
0
  5
AAF
 10
12.3674
 20
-0.530535
 30
0.000000
  70
    32
  0
VERTEX
  8
0
  5
AB0
 10
12.3673
 20
-0.532802
 30
0.000000
  70
    32
  0
SEQEND
  8
0
  5
AB1
  0
POLYLINE
  8
0
  5
AB2
  66
     1
 10
0.000000
 20
0.000000
 30
0.000000
  70
     8
  0
VERTEX
  8
0
  5
AB3
 10
12.9252
 20
-0.255903
 30
0.000000
  70
    32
  0
VERTEX
  8
0
  5
AB4
 10
12.9255
 20
-0.255901
 30
0.000000
  70
    32
  0
VERTEX
  8
0
  5
AB5
 10
12.9257
 20
-0.255896
 30
0.000000
  70
    32
  0
VERTEX
  8
0
  5
AB6
 10
12.9260
 20
-0.255888
 30
0.000000
  70
    32
  0
VERTEX
  8
0
  5
AB7
 10
12.9262
 20
-0.255877
 30
0.000000
  70
    32
  0
VERTEX
  8
0
  5
AB8
 10
12.9265
 20
-0.255862
 30
0.000000
  70
    32
  0
VERTEX
  8
0
  5
AB9
 10
12.9267
 20
-0.255845
 30
0.000000
  70
    32
  0
VERTEX
  8
0
  5
ABA
 10
12.9270
 20
-0.255824
 30
0.000000
  70
    32
  0
VERTEX
  8
0
  5
ABB
 10
12.9272
 20
-0.255800
 30
0.000000
  70
    32
  0
VERTEX
  8
0
  5
ABC
 10
12.9275
 20
-0.255773
 30
0.000000
  70
    32
  0
VERTEX
  8
0
  5
ABD
 10
12.9277
 20
-0.255742
 30
0.000000
  70
    32
  0
VERTEX
  8
0
  5
ABE
 10
12.9280
 20
-0.255709
 30
0.000000
  70
    32
  0
VERTEX
  8
0
  5
ABF
 10
12.9282
 20
-0.255673
 30
0.000000
  70
    32
  0
VERTEX
  8
0
  5
AC0
 10
12.9285
 20
-0.255633
 30
0.000000
  70
    32
  0
VERTEX
  8
0
  5
AC1
 10
12.9287
 20
-0.255591
 30
0.000000
  70
    32
  0
VERTEX
  8
0
  5
AC2
 10
12.9290
 20
-0.255545
 30
0.000000
  70
    32
  0
VERTEX
  8
0
  5
AC3
 10
12.9292
 20
-0.255497
 30
0.000000
  70
    32
  0
VERTEX
  8
0
  5
AC4
 10
12.9294
 20
-0.255446
 30
0.000000
  70
    32
  0
VERTEX
  8
0
  5
AC5
 10
12.9297
 20
-0.255391
 30
0.000000
  70
    32
  0
VERTEX
  8
0
  5
AC6
 10
12.9299
 20
-0.255334
 30
0.000000
  70
    32
  0
VERTEX
  8
0
  5
AC7
 10
12.9302
 20
-0.255274
 30
0.000000
  70
    32
  0
VERTEX
  8
0
  5
AC8
 10
12.9304
 20
-0.255211
 30
0.000000
  70
    32
  0
VERTEX
  8
0
  5
AC9
 10
12.9306
 20
-0.255145
 30
0.000000
  70
    32
  0
VERTEX
  8
0
  5
ACA
 10
12.9309
 20
-0.255077
 30
0.000000
  70
    32
  0
VERTEX
  8
0
  5
ACB
 10
12.9311
 20
-0.255005
 30
0.000000
  70
    32
  0
VERTEX
  8
0
  5
ACC
 10
12.9313
 20
-0.254931
 30
0.000000
  70
    32
  0
VERTEX
  8
0
  5
ACD
 10
12.9316
 20
-0.254854
 30
0.000000
  70
    32
  0
VERTEX
  8
0
  5
ACE
 10
12.9318
 20
-0.254774
 30
0.000000
  70
    32
  0
VERTEX
  8
0
  5
ACF
 10
12.9320
 20
-0.254691
 30
0.000000
  70
    32
  0
VERTEX
  8
0
  5
AD0
 10
12.9322
 20
-0.254606
 30
0.000000
  70
    32
  0
VERTEX
  8
0
  5
AD1
 10
12.9325
 20
-0.254518
 30
0.000000
  70
    32
  0
VERTEX
  8
0
  5
AD2
 10
12.9327
 20
-0.254427
 30
0.000000
  70
    32
  0
VERTEX
  8
0
  5
AD3
 10
12.9329
 20
-0.254334
 30
0.000000
  70
    32
  0
VERTEX
  8
0
  5
AD4
 10
12.9331
 20
-0.254238
 30
0.000000
  70
    32
  0
VERTEX
  8
0
  5
AD5
 10
12.9334
 20
-0.254139
 30
0.000000
  70
    32
  0
VERTEX
  8
0
  5
AD6
 10
12.9336
 20
-0.254038
 30
0.000000
  70
    32
  0
VERTEX
  8
0
  5
AD7
 10
12.9338
 20
-0.253934
 30
0.000000
  70
    32
  0
VERTEX
  8
0
  5
AD8
 10
12.9340
 20
-0.253827
 30
0.000000
  70
    32
  0
VERTEX
  8
0
  5
AD9
 10
12.9342
 20
-0.253718
 30
0.000000
  70
    32
  0
VERTEX
  8
0
  5
ADA
 10
12.9344
 20
-0.253607
 30
0.000000
  70
    32
  0
VERTEX
  8
0
  5
ADB
 10
12.9346
 20
-0.253493
 30
0.000000
  70
    32
  0
VERTEX
  8
0
  5
ADC
 10
12.9349
 20
-0.253376
 30
0.000000
  70
    32
  0
VERTEX
  8
0
  5
ADD
 10
12.9351
 20
-0.253257
 30
0.000000
  70
    32
  0
VERTEX
  8
0
  5
ADE
 10
12.9353
 20
-0.253136
 30
0.000000
  70
    32
  0
VERTEX
  8
0
  5
ADF
 10
12.9355
 20
-0.253012
 30
0.000000
  70
    32
  0
VERTEX
  8
0
  5
AE0
 10
12.9357
 20
-0.252886
 30
0.000000
  70
    32
  0
VERTEX
  8
0
  5
AE1
 10
12.9359
 20
-0.252757
 30
0.000000
  70
    32
  0
VERTEX
  8
0
  5
AE2
 10
12.9361
 20
-0.252626
 30
0.000000
  70
    32
  0
VERTEX
  8
0
  5
AE3
 10
12.9363
 20
-0.252493
 30
0.000000
  70
    32
  0
VERTEX
  8
0
  5
AE4
 10
12.9365
 20
-0.252357
 30
0.000000
  70
    32
  0
VERTEX
  8
0
  5
AE5
 10
12.9367
 20
-0.252219
 30
0.000000
  70
    32
  0
VERTEX
  8
0
  5
AE6
 10
12.9369
 20
-0.252079
 30
0.000000
  70
    32
  0
VERTEX
  8
0
  5
AE7
 10
12.9371
 20
-0.251936
 30
0.000000
  70
    32
  0
VERTEX
  8
0
  5
AE8
 10
12.9372
 20
-0.251792
 30
0.000000
  70
    32
  0
VERTEX
  8
0
  5
AE9
 10
12.9374
 20
-0.251644
 30
0.000000
  70
    32
  0
VERTEX
  8
0
  5
AEA
 10
12.9376
 20
-0.251495
 30
0.000000
  70
    32
  0
VERTEX
  8
0
  5
AEB
 10
12.9378
 20
-0.251344
 30
0.000000
  70
    32
  0
VERTEX
  8
0
  5
AEC
 10
12.9380
 20
-0.251190
 30
0.000000
  70
    32
  0
VERTEX
  8
0
  5
AED
 10
12.9382
 20
-0.251034
 30
0.000000
  70
    32
  0
VERTEX
  8
0
  5
AEE
 10
12.9383
 20
-0.250876
 30
0.000000
  70
    32
  0
VERTEX
  8
0
  5
AEF
 10
12.9385
 20
-0.250716
 30
0.000000
  70
    32
  0
VERTEX
  8
0
  5
AF0
 10
12.9387
 20
-0.250554
 30
0.000000
  70
    32
  0
VERTEX
  8
0
  5
AF1
 10
12.9389
 20
-0.250390
 30
0.000000
  70
    32
  0
VERTEX
  8
0
  5
AF2
 10
12.9390
 20
-0.250224
 30
0.000000
  70
    32
  0
VERTEX
  8
0
  5
AF3
 10
12.9392
 20
-0.250056
 30
0.000000
  70
    32
  0
VERTEX
  8
0
  5
AF4
 10
12.9394
 20
-0.249885
 30
0.000000
  70
    32
  0
VERTEX
  8
0
  5
AF5
 10
12.9395
 20
-0.249713
 30
0.000000
  70
    32
  0
VERTEX
  8
0
  5
AF6
 10
12.9397
 20
-0.249539
 30
0.000000
  70
    32
  0
VERTEX
  8
0
  5
AF7
 10
12.9399
 20
-0.249362
 30
0.000000
  70
    32
  0
VERTEX
  8
0
  5
AF8
 10
12.9400
 20
-0.249184
 30
0.000000
  70
    32
  0
VERTEX
  8
0
  5
AF9
 10
12.9402
 20
-0.249004
 30
0.000000
  70
    32
  0
VERTEX
  8
0
  5
AFA
 10
12.9403
 20
-0.248822
 30
0.000000
  70
    32
  0
VERTEX
  8
0
  5
AFB
 10
12.9405
 20
-0.248638
 30
0.000000
  70
    32
  0
VERTEX
  8
0
  5
AFC
 10
12.9406
 20
-0.248453
 30
0.000000
  70
    32
  0
VERTEX
  8
0
  5
AFD
 10
12.9408
 20
-0.248265
 30
0.000000
  70
    32
  0
VERTEX
  8
0
  5
AFE
 10
12.9409
 20
-0.248076
 30
0.000000
  70
    32
  0
VERTEX
  8
0
  5
AFF
 10
12.9411
 20
-0.247884
 30
0.000000
  70
    32
  0
VERTEX
  8
0
  5
B00
 10
12.9412
 20
-0.247692
 30
0.000000
  70
    32
  0
VERTEX
  8
0
  5
B01
 10
12.9413
 20
-0.247497
 30
0.000000
  70
    32
  0
VERTEX
  8
0
  5
B02
 10
12.9415
 20
-0.247300
 30
0.000000
  70
    32
  0
VERTEX
  8
0
  5
B03
 10
12.9416
 20
-0.247102
 30
0.000000
  70
    32
  0
VERTEX
  8
0
  5
B04
 10
12.9417
 20
-0.246902
 30
0.000000
  70
    32
  0
VERTEX
  8
0
  5
B05
 10
12.9419
 20
-0.246701
 30
0.000000
  70
    32
  0
VERTEX
  8
0
  5
B06
 10
12.9420
 20
-0.246497
 30
0.000000
  70
    32
  0
VERTEX
  8
0
  5
B07
 10
12.9421
 20
-0.246293
 30
0.000000
  70
    32
  0
VERTEX
  8
0
  5
B08
 10
12.9422
 20
-0.246086
 30
0.000000
  70
    32
  0
VERTEX
  8
0
  5
B09
 10
12.9424
 20
-0.245878
 30
0.000000
  70
    32
  0
VERTEX
  8
0
  5
B0A
 10
12.9425
 20
-0.245668
 30
0.000000
  70
    32
  0
VERTEX
  8
0
  5
B0B
 10
12.9426
 20
-0.245457
 30
0.000000
  70
    32
  0
VERTEX
  8
0
  5
B0C
 10
12.9427
 20
-0.245244
 30
0.000000
  70
    32
  0
VERTEX
  8
0
  5
B0D
 10
12.9428
 20
-0.245030
 30
0.000000
  70
    32
  0
VERTEX
  8
0
  5
B0E
 10
12.9429
 20
-0.244814
 30
0.000000
  70
    32
  0
VERTEX
  8
0
  5
B0F
 10
12.9430
 20
-0.244597
 30
0.000000
  70
    32
  0
VERTEX
  8
0
  5
B10
 10
12.9431
 20
-0.244378
 30
0.000000
  70
    32
  0
VERTEX
  8
0
  5
B11
 10
12.9432
 20
-0.244158
 30
0.000000
  70
    32
  0
VERTEX
  8
0
  5
B12
 10
12.9433
 20
-0.243936
 30
0.000000
  70
    32
  0
VERTEX
  8
0
  5
B13
 10
12.9434
 20
-0.243713
 30
0.000000
  70
    32
  0
VERTEX
  8
0
  5
B14
 10
12.9435
 20
-0.243489
 30
0.000000
  70
    32
  0
VERTEX
  8
0
  5
B15
 10
12.9436
 20
-0.243263
 30
0.000000
  70
    32
  0
VERTEX
  8
0
  5
B16
 10
12.9437
 20
-0.243036
 30
0.000000
  70
    32
  0
VERTEX
  8
0
  5
B17
 10
12.9438
 20
-0.242807
 30
0.000000
  70
    32
  0
VERTEX
  8
0
  5
B18
 10
12.9438
 20
-0.242578
 30
0.000000
  70
    32
  0
VERTEX
  8
0
  5
B19
 10
12.9439
 20
-0.242346
 30
0.000000
  70
    32
  0
VERTEX
  8
0
  5
B1A
 10
12.9440
 20
-0.242114
 30
0.000000
  70
    32
  0
VERTEX
  8
0
  5
B1B
 10
12.9441
 20
-0.241881
 30
0.000000
  70
    32
  0
VERTEX
  8
0
  5
B1C
 10
12.9441
 20
-0.241646
 30
0.000000
  70
    32
  0
VERTEX
  8
0
  5
B1D
 10
12.9442
 20
-0.241410
 30
0.000000
  70
    32
  0
VERTEX
  8
0
  5
B1E
 10
12.9443
 20
-0.241173
 30
0.000000
  70
    32
  0
VERTEX
  8
0
  5
B1F
 10
12.9443
 20
-0.240934
 30
0.000000
  70
    32
  0
VERTEX
  8
0
  5
B20
 10
12.9444
 20
-0.240695
 30
0.000000
  70
    32
  0
VERTEX
  8
0
  5
B21
 10
12.9444
 20
-0.240454
 30
0.000000
  70
    32
  0
VERTEX
  8
0
  5
B22
 10
12.9445
 20
-0.240212
 30
0.000000
  70
    32
  0
VERTEX
  8
0
  5
B23
 10
12.9445
 20
-0.239969
 30
0.000000
  70
    32
  0
VERTEX
  8
0
  5
B24
 10
12.9446
 20
-0.239725
 30
0.000000
  70
    32
  0
VERTEX
  8
0
  5
B25
 10
12.9446
 20
-0.239480
 30
0.000000
  70
    32
  0
VERTEX
  8
0
  5
B26
 10
12.9447
 20
-0.239234
 30
0.000000
  70
    32
  0
VERTEX
  8
0
  5
B27
 10
12.9447
 20
-0.238987
 30
0.000000
  70
    32
  0
VERTEX
  8
0
  5
B28
 10
12.9447
 20
-0.238739
 30
0.000000
  70
    32
  0
VERTEX
  8
0
  5
B29
 10
12.9448
 20
-0.238490
 30
0.000000
  70
    32
  0
VERTEX
  8
0
  5
B2A
 10
12.9448
 20
-0.238240
 30
0.000000
  70
    32
  0
VERTEX
  8
0
  5
B2B
 10
12.9448
 20
-0.237989
 30
0.000000
  70
    32
  0
VERTEX
  8
0
  5
B2C
 10
12.9448
 20
-0.237738
 30
0.000000
  70
    32
  0
VERTEX
  8
0
  5
B2D
 10
12.9449
 20
-0.237485
 30
0.000000
  70
    32
  0
VERTEX
  8
0
  5
B2E
 10
12.9449
 20
-0.237231
 30
0.000000
  70
    32
  0
VERTEX
  8
0
  5
B2F
 10
12.9449
 20
-0.236977
 30
0.000000
  70
    32
  0
VERTEX
  8
0
  5
B30
 10
12.9449
 20
-0.236722
 30
0.000000
  70
    32
  0
VERTEX
  8
0
  5
B31
 10
12.9449
 20
-0.236465
 30
0.000000
  70
    32
  0
VERTEX
  8
0
  5
B32
 10
12.9449
 20
-0.236209
 30
0.000000
  70
    32
  0
SEQEND
  8
0
  5
B33
  0
POLYLINE
  8
0
  5
B34
  66
     1
 10
0.000000
 20
0.000000
 30
0.000000
  70
     8
  0
VERTEX
  8
0
  5
B35
 10
11.0551
 20
-0.236222
 30
0.000000
  70
    32
  0
VERTEX
  8
0
  5
B36
 10
11.0551
 20
-0.236478
 30
0.000000
  70
    32
  0
VERTEX
  8
0
  5
B37
 10
11.0551
 20
-0.236734
 30
0.000000
  70
    32
  0
VERTEX
  8
0
  5
B38
 10
11.0551
 20
-0.236989
 30
0.000000
  70
    32
  0
VERTEX
  8
0
  5
B39
 10
11.0551
 20
-0.237242
 30
0.000000
  70
    32
  0
VERTEX
  8
0
  5
B3A
 10
11.0551
 20
-0.237495
 30
0.000000
  70
    32
  0
VERTEX
  8
0
  5
B3B
 10
11.0552
 20
-0.237748
 30
0.000000
  70
    32
  0
VERTEX
  8
0
  5
B3C
 10
11.0552
 20
-0.237999
 30
0.000000
  70
    32
  0
VERTEX
  8
0
  5
B3D
 10
11.0552
 20
-0.238249
 30
0.000000
  70
    32
  0
VERTEX
  8
0
  5
B3E
 10
11.0552
 20
-0.238499
 30
0.000000
  70
    32
  0
VERTEX
  8
0
  5
B3F
 10
11.0553
 20
-0.238747
 30
0.000000
  70
    32
  0
VERTEX
  8
0
  5
B40
 10
11.0553
 20
-0.238995
 30
0.000000
  70
    32
  0
VERTEX
  8
0
  5
B41
 10
11.0553
 20
-0.239242
 30
0.000000
  70
    32
  0
VERTEX
  8
0
  5
B42
 10
11.0554
 20
-0.239487
 30
0.000000
  70
    32
  0
VERTEX
  8
0
  5
B43
 10
11.0554
 20
-0.239732
 30
0.000000
  70
    32
  0
VERTEX
  8
0
  5
B44
 10
11.0555
 20
-0.239975
 30
0.000000
  70
    32
  0
VERTEX
  8
0
  5
B45
 10
11.0555
 20
-0.240218
 30
0.000000
  70
    32
  0
VERTEX
  8
0
  5
B46
 10
11.0556
 20
-0.240459
 30
0.000000
  70
    32
  0
VERTEX
  8
0
  5
B47
 10
11.0556
 20
-0.240700
 30
0.000000
  70
    32
  0
VERTEX
  8
0
  5
B48
 10
11.0557
 20
-0.240939
 30
0.000000
  70
    32
  0
VERTEX
  8
0
  5
B49
 10
11.0557
 20
-0.241177
 30
0.000000
  70
    32
  0
VERTEX
  8
0
  5
B4A
 10
11.0558
 20
-0.241414
 30
0.000000
  70
    32
  0
VERTEX
  8
0
  5
B4B
 10
11.0559
 20
-0.241650
 30
0.000000
  70
    32
  0
VERTEX
  8
0
  5
B4C
 10
11.0559
 20
-0.241884
 30
0.000000
  70
    32
  0
VERTEX
  8
0
  5
B4D
 10
11.0560
 20
-0.242118
 30
0.000000
  70
    32
  0
VERTEX
  8
0
  5
B4E
 10
11.0561
 20
-0.242350
 30
0.000000
  70
    32
  0
VERTEX
  8
0
  5
B4F
 10
11.0561
 20
-0.242581
 30
0.000000
  70
    32
  0
VERTEX
  8
0
  5
B50
 10
11.0562
 20
-0.242810
 30
0.000000
  70
    32
  0
VERTEX
  8
0
  5
B51
 10
11.0563
 20
-0.243038
 30
0.000000
  70
    32
  0
VERTEX
  8
0
  5
B52
 10
11.0564
 20
-0.243265
 30
0.000000
  70
    32
  0
VERTEX
  8
0
  5
B53
 10
11.0565
 20
-0.243491
 30
0.000000
  70
    32
  0
VERTEX
  8
0
  5
B54
 10
11.0566
 20
-0.243715
 30
0.000000
  70
    32
  0
VERTEX
  8
0
  5
B55
 10
11.0567
 20
-0.243938
 30
0.000000
  70
    32
  0
VERTEX
  8
0
  5
B56
 10
11.0568
 20
-0.244160
 30
0.000000
  70
    32
  0
VERTEX
  8
0
  5
B57
 10
11.0569
 20
-0.244380
 30
0.000000
  70
    32
  0
VERTEX
  8
0
  5
B58
 10
11.0570
 20
-0.244599
 30
0.000000
  70
    32
  0
VERTEX
  8
0
  5
B59
 10
11.0571
 20
-0.244816
 30
0.000000
  70
    32
  0
VERTEX
  8
0
  5
B5A
 10
11.0572
 20
-0.245032
 30
0.000000
  70
    32
  0
VERTEX
  8
0
  5
B5B
 10
11.0573
 20
-0.245246
 30
0.000000
  70
    32
  0
VERTEX
  8
0
  5
B5C
 10
11.0574
 20
-0.245459
 30
0.000000
  70
    32
  0
VERTEX
  8
0
  5
B5D
 10
11.0575
 20
-0.245670
 30
0.000000
  70
    32
  0
VERTEX
  8
0
  5
B5E
 10
11.0576
 20
-0.245880
 30
0.000000
  70
    32
  0
VERTEX
  8
0
  5
B5F
 10
11.0577
 20
-0.246088
 30
0.000000
  70
    32
  0
VERTEX
  8
0
  5
B60
 10
11.0579
 20
-0.246294
 30
0.000000
  70
    32
  0
VERTEX
  8
0
  5
B61
 10
11.0580
 20
-0.246499
 30
0.000000
  70
    32
  0
VERTEX
  8
0
  5
B62
 10
11.0581
 20
-0.246702
 30
0.000000
  70
    32
  0
VERTEX
  8
0
  5
B63
 10
11.0582
 20
-0.246904
 30
0.000000
  70
    32
  0
VERTEX
  8
0
  5
B64
 10
11.0584
 20
-0.247104
 30
0.000000
  70
    32
  0
VERTEX
  8
0
  5
B65
 10
11.0585
 20
-0.247302
 30
0.000000
  70
    32
  0
VERTEX
  8
0
  5
B66
 10
11.0586
 20
-0.247499
 30
0.000000
  70
    32
  0
VERTEX
  8
0
  5
B67
 10
11.0588
 20
-0.247693
 30
0.000000
  70
    32
  0
VERTEX
  8
0
  5
B68
 10
11.0589
 20
-0.247886
 30
0.000000
  70
    32
  0
VERTEX
  8
0
  5
B69
 10
11.0591
 20
-0.248078
 30
0.000000
  70
    32
  0
VERTEX
  8
0
  5
B6A
 10
11.0592
 20
-0.248267
 30
0.000000
  70
    32
  0
VERTEX
  8
0
  5
B6B
 10
11.0594
 20
-0.248455
 30
0.000000
  70
    32
  0
VERTEX
  8
0
  5
B6C
 10
11.0595
 20
-0.248641
 30
0.000000
  70
    32
  0
VERTEX
  8
0
  5
B6D
 10
11.0597
 20
-0.248825
 30
0.000000
  70
    32
  0
VERTEX
  8
0
  5
B6E
 10
11.0598
 20
-0.249007
 30
0.000000
  70
    32
  0
VERTEX
  8
0
  5
B6F
 10
11.0600
 20
-0.249187
 30
0.000000
  70
    32
  0
VERTEX
  8
0
  5
B70
 10
11.0601
 20
-0.249365
 30
0.000000
  70
    32
  0
VERTEX
  8
0
  5
B71
 10
11.0603
 20
-0.249542
 30
0.000000
  70
    32
  0
VERTEX
  8
0
  5
B72
 10
11.0605
 20
-0.249716
 30
0.000000
  70
    32
  0
VERTEX
  8
0
  5
B73
 10
11.0606
 20
-0.249888
 30
0.000000
  70
    32
  0
VERTEX
  8
0
  5
B74
 10
11.0608
 20
-0.250059
 30
0.000000
  70
    32
  0
VERTEX
  8
0
  5
B75
 10
11.0610
 20
-0.250227
 30
0.000000
  70
    32
  0
VERTEX
  8
0
  5
B76
 10
11.0611
 20
-0.250394
 30
0.000000
  70
    32
  0
VERTEX
  8
0
  5
B77
 10
11.0613
 20
-0.250558
 30
0.000000
  70
    32
  0
VERTEX
  8
0
  5
B78
 10
11.0615
 20
-0.250720
 30
0.000000
  70
    32
  0
VERTEX
  8
0
  5
B79
 10
11.0616
 20
-0.250881
 30
0.000000
  70
    32
  0
VERTEX
  8
0
  5
B7A
 10
11.0618
 20
-0.251039
 30
0.000000
  70
    32
  0
VERTEX
  8
0
  5
B7B
 10
11.0620
 20
-0.251195
 30
0.000000
  70
    32
  0
VERTEX
  8
0
  5
B7C
 10
11.0622
 20
-0.251348
 30
0.000000
  70
    32
  0
VERTEX
  8
0
  5
B7D
 10
11.0624
 20
-0.251500
 30
0.000000
  70
    32
  0
VERTEX
  8
0
  5
B7E
 10
11.0626
 20
-0.251650
 30
0.000000
  70
    32
  0
VERTEX
  8
0
  5
B7F
 10
11.0627
 20
-0.251797
 30
0.000000
  70
    32
  0
VERTEX
  8
0
  5
B80
 10
11.0629
 20
-0.251942
 30
0.000000
  70
    32
  0
VERTEX
  8
0
  5
B81
 10
11.0631
 20
-0.252085
 30
0.000000
  70
    32
  0
VERTEX
  8
0
  5
B82
 10
11.0633
 20
-0.252225
 30
0.000000
  70
    32
  0
VERTEX
  8
0
  5
B83
 10
11.0635
 20
-0.252363
 30
0.000000
  70
    32
  0
VERTEX
  8
0
  5
B84
 10
11.0637
 20
-0.252499
 30
0.000000
  70
    32
  0
VERTEX
  8
0
  5
B85
 10
11.0639
 20
-0.252633
 30
0.000000
  70
    32
  0
VERTEX
  8
0
  5
B86
 10
11.0641
 20
-0.252764
 30
0.000000
  70
    32
  0
VERTEX
  8
0
  5
B87
 10
11.0643
 20
-0.252893
 30
0.000000
  70
    32
  0
VERTEX
  8
0
  5
B88
 10
11.0645
 20
-0.253019
 30
0.000000
  70
    32
  0
VERTEX
  8
0
  5
B89
 10
11.0647
 20
-0.253143
 30
0.000000
  70
    32
  0
VERTEX
  8
0
  5
B8A
 10
11.0649
 20
-0.253265
 30
0.000000
  70
    32
  0
VERTEX
  8
0
  5
B8B
 10
11.0651
 20
-0.253384
 30
0.000000
  70
    32
  0
VERTEX
  8
0
  5
B8C
 10
11.0653
 20
-0.253501
 30
0.000000
  70
    32
  0
VERTEX
  8
0
  5
B8D
 10
11.0655
 20
-0.253615
 30
0.000000
  70
    32
  0
VERTEX
  8
0
  5
B8E
 10
11.0658
 20
-0.253727
 30
0.000000
  70
    32
  0
VERTEX
  8
0
  5
B8F
 10
11.0660
 20
-0.253836
 30
0.000000
  70
    32
  0
VERTEX
  8
0
  5
B90
 10
11.0662
 20
-0.253943
 30
0.000000
  70
    32
  0
VERTEX
  8
0
  5
B91
 10
11.0664
 20
-0.254047
 30
0.000000
  70
    32
  0
VERTEX
  8
0
  5
B92
 10
11.0666
 20
-0.254148
 30
0.000000
  70
    32
  0
VERTEX
  8
0
  5
B93
 10
11.0668
 20
-0.254247
 30
0.000000
  70
    32
  0
VERTEX
  8
0
  5
B94
 10
11.0671
 20
-0.254343
 30
0.000000
  70
    32
  0
VERTEX
  8
0
  5
B95
 10
11.0673
 20
-0.254437
 30
0.000000
  70
    32
  0
VERTEX
  8
0
  5
B96
 10
11.0675
 20
-0.254528
 30
0.000000
  70
    32
  0
VERTEX
  8
0
  5
B97
 10
11.0677
 20
-0.254616
 30
0.000000
  70
    32
  0
VERTEX
  8
0
  5
B98
 10
11.0680
 20
-0.254702
 30
0.000000
  70
    32
  0
VERTEX
  8
0
  5
B99
 10
11.0682
 20
-0.254784
 30
0.000000
  70
    32
  0
VERTEX
  8
0
  5
B9A
 10
11.0684
 20
-0.254864
 30
0.000000
  70
    32
  0
VERTEX
  8
0
  5
B9B
 10
11.0687
 20
-0.254942
 30
0.000000
  70
    32
  0
VERTEX
  8
0
  5
B9C
 10
11.0689
 20
-0.255016
 30
0.000000
  70
    32
  0
VERTEX
  8
0
  5
B9D
 10
11.0691
 20
-0.255088
 30
0.000000
  70
    32
  0
VERTEX
  8
0
  5
B9E
 10
11.0694
 20
-0.255157
 30
0.000000
  70
    32
  0
VERTEX
  8
0
  5
B9F
 10
11.0696
 20
-0.255223
 30
0.000000
  70
    32
  0
VERTEX
  8
0
  5
BA0
 10
11.0698
 20
-0.255286
 30
0.000000
  70
    32
  0
VERTEX
  8
0
  5
BA1
 10
11.0701
 20
-0.255346
 30
0.000000
  70
    32
  0
VERTEX
  8
0
  5
BA2
 10
11.0703
 20
-0.255404
 30
0.000000
  70
    32
  0
VERTEX
  8
0
  5
BA3
 10
11.0706
 20
-0.255458
 30
0.000000
  70
    32
  0
VERTEX
  8
0
  5
BA4
 10
11.0708
 20
-0.255509
 30
0.000000
  70
    32
  0
VERTEX
  8
0
  5
BA5
 10
11.0710
 20
-0.255558
 30
0.000000
  70
    32
  0
VERTEX
  8
0
  5
BA6
 10
11.0713
 20
-0.255604
 30
0.000000
  70
    32
  0
VERTEX
  8
0
  5
BA7
 10
11.0715
 20
-0.255646
 30
0.000000
  70
    32
  0
VERTEX
  8
0
  5
BA8
 10
11.0718
 20
-0.255686
 30
0.000000
  70
    32
  0
VERTEX
  8
0
  5
BA9
 10
11.0720
 20
-0.255722
 30
0.000000
  70
    32
  0
VERTEX
  8
0
  5
BAA
 10
11.0723
 20
-0.255755
 30
0.000000
  70
    32
  0
VERTEX
  8
0
  5
BAB
 10
11.0725
 20
-0.255786
 30
0.000000
  70
    32
  0
VERTEX
  8
0
  5
BAC
 10
11.0728
 20
-0.255813
 30
0.000000
  70
    32
  0
VERTEX
  8
0
  5
BAD
 10
11.0730
 20
-0.255837
 30
0.000000
  70
    32
  0
VERTEX
  8
0
  5
BAE
 10
11.0733
 20
-0.255858
 30
0.000000
  70
    32
  0
VERTEX
  8
0
  5
BAF
 10
11.0735
 20
-0.255876
 30
0.000000
  70
    32
  0
VERTEX
  8
0
  5
BB0
 10
11.0738
 20
-0.255890
 30
0.000000
  70
    32
  0
VERTEX
  8
0
  5
BB1
 10
11.0740
 20
-0.255902
 30
0.000000
  70
    32
  0
VERTEX
  8
0
  5
BB2
 10
11.0743
 20
-0.255910
 30
0.000000
  70
    32
  0
VERTEX
  8
0
  5
BB3
 10
11.0745
 20
-0.255915
 30
0.000000
  70
    32
  0
VERTEX
  8
0
  5
BB4
 10
11.0748
 20
-0.255916
 30
0.000000
  70
    32
  0
SEQEND
  8
0
  5
BB5
  0
ATTDEF
  5
278
  8
DEFPOINTS
 10
0.0
 20
-0.005
 30
0.0
 40
0.001
  1
BRASS
  3

  2
MATERIAL
 70
     8
1001
AcDbAttr
1070
     0
1070
     1
  0
ATTDEF
  5
27A
  8
DEFPOINTS
 10
0.0
 20
-0.0033333333333333
 30
0.0
 40
0.001
  1
24" DBL TOWEL BAR
  3

  2
PRODUCT
 70
     8
1001
AcDbAttr
1070
     0
1070
     1
  0
ATTDEF
  5
27B
  8
DEFPOINTS
 10
0.0
 20
-0.0016666666666667
 30
0.0
 40
0.001
  1
PURIST
  3

  2
TRADENAME
 70
     8
1001
AcDbAttr
1070
     0
1070
     1
  0
ATTDEF
  5
27C
  8
DEFPOINTS
 10
0.0
 20
0.0
 30
0.0
 40
0.001
  1
K-14375
  3

  2
MODELNUMBER
 70
     8
1001
AcDbAttr
1070
     0
1070
     1
  0
ENDSEC
  0
EOF
