  0
SECTION
  2
HEADER
  9
$ACADVER
  1
AC1009
  9
$INSBASE
 10
72.446166956089385
 20
-8.283623799299999
 30
0.0
  9
$EXTMIN
 10
54.446166992378799
 20
-8.2966471619848043
 30
0.0
  9
$EXTMAX
 10
90.446166919799992
 20
15.733776200699991
 30
0.0
  9
$LIMMIN
 10
0.0
 20
0.0
  9
$LIMMAX
 10
11.692913385800001
 20
8.2677165353999982
  9
$ORTHOMODE
 70
     1
  9
$REGENMODE
 70
     1
  9
$FILLMODE
 70
     1
  9
$QTEXTMODE
 70
     0
  9
$MIRRTEXT
 70
     0
  9
$DRAGMODE
 70
     2
  9
$LTSCALE
 40
0.6431102362
  9
$OSMODE
 70
  3071
  9
$ATTMODE
 70
     1
  9
$TEXTSIZE
 40
0.2
  9
$TRACEWID
 40
0.05
  9
$TEXTSTYLE
  7
STANDARD
  9
$CLAYER
  8
0
  9
$CELTYPE
  6
BYLAYER
  9
$CECOLOR
 62
   256
  9
$DIMSCALE
 40
1.0
  9
$DIMASZ
 40
0.1875
  9
$DIMEXO
 40
0.0625
  9
$DIMDLI
 40
0.4443307087
  9
$DIMRND
 40
0.0
  9
$DIMDLE
 40
0.0
  9
$DIMEXE
 40
0.125
  9
$DIMTP
 40
0.01
  9
$DIMTM
 40
0.01
  9
$DIMTXT
 40
1.0
  9
$DIMCEN
 40
0.1052362205
  9
$DIMTSZ
 40
0.0
  9
$DIMTOL
 70
     1
  9
$DIMLIM
 70
     0
  9
$DIMTIH
 70
     1
  9
$DIMTOH
 70
     1
  9
$DIMSE1
 70
     0
  9
$DIMSE2
 70
     0
  9
$DIMTAD
 70
     0
  9
$DIMZIN
 70
     0
  9
$DIMBLK
  1

  9
$DIMASO
 70
     1
  9
$DIMSHO
 70
     1
  9
$DIMPOST
  1
\X
  9
$DIMAPOST
  1

  9
$DIMALT
 70
     1
  9
$DIMALTD
 70
     2
  9
$DIMALTF
 40
25.399999999999999
  9
$DIMLFAC
 40
1.0
  9
$DIMTOFL
 70
     0
  9
$DIMTVP
 40
0.0
  9
$DIMTIX
 70
     0
  9
$DIMSOXD
 70
     0
  9
$DIMSAH
 70
     0
  9
$DIMBLK1
  1

  9
$DIMBLK2
  1

  9
$DIMSTYLE
  2
STANDARD
  9
$DIMCLRD
 70
     0
  9
$DIMCLRE
 70
     0
  9
$DIMCLRT
 70
     0
  9
$DIMTFAC
 40
1.0
  9
$DIMGAP
 40
0.09
  9
$LUNITS
 70
     2
  9
$LUPREC
 70
     4
  9
$SKETCHINC
 40
0.1
  9
$FILLETRAD
 40
0.0
  9
$AUNITS
 70
     0
  9
$AUPREC
 70
     0
  9
$MENU
  1
.
  9
$ELEVATION
 40
0.0
  9
$PELEVATION
 40
0.0
  9
$THICKNESS
 40
0.0
  9
$LIMCHECK
 70
     0
  9
$BLIPMODE
 70
     0
  9
$CHAMFERA
 40
0.0
  9
$CHAMFERB
 40
0.0
  9
$SKPOLY
 70
     0
  9
$TDCREATE
 40
2457893.437396354
  9
$TDUPDATE
 40
2457905.6883407291
  9
$TDINDWG
 40
0.1302745949
  9
$TDUSRTIMER
 40
0.1302745949
  9
$USRTIMER
 70
     1
  9
$ANGBASE
 50
0.0
  9
$ANGDIR
 70
     0
  9
$PDMODE
 70
     0
  9
$PDSIZE
 40
0.3125
  9
$PLINEWID
 40
0.0
  9
$COORDS
 70
     1
  9
$SPLFRAME
 70
     0
  9
$SPLINETYPE
 70
     6
  9
$SPLINESEGS
 70
     8
  9
$ATTDIA
 70
     1
  9
$ATTREQ
 70
     1
  9
$HANDLING
 70
     1
  9
$HANDSEED
  5
185F
  9
$SURFTAB1
 70
     6
  9
$SURFTAB2
 70
     6
  9
$SURFTYPE
 70
     6
  9
$SURFU
 70
     6
  9
$SURFV
 70
     6
  9
$UCSNAME
  2

  9
$UCSORG
 10
0.0
 20
0.0
 30
0.0
  9
$UCSXDIR
 10
1.0
 20
0.0
 30
0.0
  9
$UCSYDIR
 10
0.0
 20
1.0
 30
0.0
  9
$PUCSNAME
  2

  9
$PUCSORG
 10
0.0
 20
0.0
 30
0.0
  9
$PUCSXDIR
 10
1.0
 20
0.0
 30
0.0
  9
$PUCSYDIR
 10
0.0
 20
1.0
 30
0.0
  9
$USERI1
 70
     0
  9
$USERI2
 70
     0
  9
$USERI3
 70
     0
  9
$USERI4
 70
     0
  9
$USERI5
 70
     0
  9
$USERR1
 40
0.0
  9
$USERR2
 40
0.0
  9
$USERR3
 40
0.0
  9
$USERR4
 40
0.0
  9
$USERR5
 40
0.0
  9
$WORLDVIEW
 70
     1
  9
$SHADEDGE
 70
     3
  9
$SHADEDIF
 70
    70
  9
$TILEMODE
 70
     1
  9
$MAXACTVP
 70
    48
  9
$PLIMCHECK
 70
     0
  9
$PEXTMIN
 10
1.0000000000000000E+020
 20
1.0000000000000000E+020
 30
1.0000000000000000E+020
  9
$PEXTMAX
 10
-1.0000000000000000E+020
 20
-1.0000000000000000E+020
 30
-1.0000000000000000E+020
  9
$PLIMMIN
 10
0.0
 20
0.0
  9
$PLIMMAX
 10
12.0
 20
9.0
  9
$UNITMODE
 70
     0
  9
$VISRETAIN
 70
     1
  9
$PLINEGEN
 70
     0
  9
$PSLTSCALE
 70
     1
  0
ENDSEC
  0
SECTION
  2
TABLES
  0
TABLE
  2
VPORT
 70
     1
  0
VPORT
  2
*ACTIVE
 70
     0
 10
0.0
 20
0.0
 11
1.0
 21
1.0
 12
0.0
 22
0.0
 13
0.0
 23
0.0
 14
1.0
 24
1.0
 15
0.0
 25
0.0
 16
-0.0000000000000284
 26
0.0
 36
108.2124990479096
 17
72.446166956089385
 27
3.7185473648481562
 37
0.0
 40
43.28347944475896
 41
1.798307475317348
 42
50.0
 43
0.0
 44
0.0
 50
0.0
 51
0.0
 71
     0
 72
   100
 73
     1
 74
     1
 75
     0
 76
     0
 77
     0
 78
     0
  0
ENDTAB
  0
TABLE
  2
LTYPE
 70
     2
  0
LTYPE
  2
CONTINUOUS
 70
     0
  3
Solid line
 72
    65
 73
     0
 40
0.0
  0
LTYPE
  2
PHANTOM2
 70
     0
  3
___ _ _ ___ _ _ ___ _ _ ___ _ _
 72
    65
 73
     6
 40
1.25
 49
0.625
 49
-0.125
 49
0.125
 49
-0.125
 49
0.125
 49
-0.125
  0
ENDTAB
  0
TABLE
  2
LAYER
 70
     2
  0
LAYER
  2
0
 70
     0
 62
     7
  6
CONTINUOUS
  0
LAYER
  2
DEFPOINTS
 70
     0
 62
     7
  6
CONTINUOUS
  0
ENDTAB
  0
TABLE
  2
STYLE
 70
     1
  0
STYLE
  2
STANDARD
 70
     0
 40
0.0
 41
0.8
 50
0.0
 71
     0
 42
0.2
  3
txt
  4

  0
ENDTAB
  0
TABLE
  2
VIEW
 70
     0
  0
ENDTAB
  0
TABLE
  2
UCS
 70
     0
  0
ENDTAB
  0
TABLE
  2
APPID
 70
     7
  0
APPID
  2
ACAD
 70
     0
  0
APPID
  2
ACAD_MLEADERVER
 70
     0
  0
APPID
  2
ACAD_NAV_VCDISPLAY
 70
     0
  0
APPID
  2
ACAD_EXEMPT_FROM_CAD_STANDARDS
 70
     0
  0
APPID
  2
ACAD_DSTYLE_DIMJAG
 70
     0
  0
APPID
  2
ACAD_DSTYLE_DIMTALN
 70
     0
  0
APPID
  2
ACDBATTR
 70
     0
  0
ENDTAB
  0
TABLE
  2
DIMSTYLE
 70
     1
  0
DIMSTYLE
  2
STANDARD
 70
     0
  3

  4

  5

  6

  7

 40
1.0
 41
0.1875
 42
0.0625
 43
0.38
 44
0.125
 45
0.0
 46
0.0
 47
0.01
 48
0.01
140
0.15625
141
0.09
142
0.0
143
25.399999999999999
144
1.0
145
0.0
146
1.0
147
0.09
 71
     1
 72
     0
 73
     1
 74
     1
 75
     0
 76
     0
 77
     0
 78
     4
170
     0
171
     2
172
     0
173
     0
174
     0
175
     0
176
     0
177
     0
178
     0
  0
ENDTAB
  0
ENDSEC
  0
SECTION
  2
BLOCKS
  0
BLOCK
  8
0
  2
$MODEL_SPACE
 70
     0
 10
0.0
 20
0.0
 30
0.0
  3
$MODEL_SPACE
  1

  0
ENDBLK
  5
21
  8
0
  0
BLOCK
 67
     1
  8
0
  2
$PAPER_SPACE
 70
     0
 10
0.0
 20
0.0
 30
0.0
  3
$PAPER_SPACE
  1

  0
ENDBLK
  5
1D
 67
     1
  8
0
  0
ENDSEC
  0
SECTION
  2
ENTITIES
  0
ARC
  5
12A8
  8
0
 10
72.98417423468166
 20
140.77741405186671
 30
0.0
 40
126.0264917749042
 50
269.75540385151379
 51
277.14889884965902
  0
ARC
  5
12A9
  8
0
 10
88.723747586531076
 20
15.235892629428729
 30
0.0
 40
0.4978835712712626
 50
9.8437475211477174
 51
96.433346029559004
  0
LINE
  5
12AA
  8
0
 10
89.214301141500016
 20
15.321011723932619
 30
0.0
 11
89.468385593099995
 21
13.823227703200001
 31
0.0
  0
ARC
  5
12EE
  8
0
 10
79.320201513493615
 20
4.5994881675510007
 30
0.0
 40
14.693888755871541
 50
45.83873753883703
 51
48.385088278690802
  0
ARC
  5
12EF
  8
0
 10
66.666849850264413
 20
-8.5368510079691724
 30
0.0
 40
32.933083802599747
 50
44.949325870079697
 51
45.968426275279683
  0
ARC
  5
12F0
  8
0
 10
88.529178048119462
 20
13.28683993587326
 30
0.0
 40
2.0423913428461429
 50
41.021386152585492
 51
44.949325870079761
  0
ARC
  5
12F1
  8
0
 10
89.680031742366893
 20
14.31570022488825
 30
0.0
 40
0.4992671308531041
 50
9.9785568133244151
 51
38.623743565098003
  0
LINE
  5
12F2
  8
0
 10
90.171746295873049
 20
14.402213032151369
 30
0.0
 11
90.446166919799992
 21
12.8458959599
 31
0.0
  0
LINE
  5
12F3
  8
0
 10
90.446166919799992
 20
12.8458959599
 30
0.0
 11
90.249205367799988
 21
12.811166332499999
 31
0.0
  0
LINE
  5
12F4
  8
0
 10
90.249205367799988
 20
12.811166332499999
 30
0.0
 11
89.271614662399983
 21
13.788498023200001
 31
0.0
  0
LINE
  5
12F5
  8
0
 10
90.446166919799992
 20
12.8458959599
 30
0.0
 11
89.468381243745924
 21
13.82323137031768
 31
0.0
  0
ARC
  5
12F6
  8
0
 10
89.399393223054076
 20
13.68837631713356
 30
0.0
 40
0.1514768377286479
 50
62.907002617930779
 51
95.549417563231003
  0
ARC
  5
12F7
  8
0
 10
89.395795357454844
 20
12.419617514318331
 30
0.0
 40
1.4195687051582091
 50
90.4460216869074
 51
97.253701431904531
  0
ARC
  5
12F8
  8
0
 10
89.571752548089435
 20
10.873893975508169
 30
0.0
 40
2.9752098408991858
 50
96.85662690527964
 51
100.5745765908277
  0
ARC
  5
12F9
  8
0
 10
89.258993503410466
 20
13.774151151451891
 30
0.0
 40
0.0191131977804608
 50
48.66632474003935
 51
88.890267703199484
  0
ARC
  5
12FA
  8
0
 10
89.231223502890387
 20
13.50720807064225
 30
0.0
 40
0.2874334927827731
 50
84.381657540224893
 51
93.746936176169484
  0
ARC
  5
12FB
  8
0
 10
89.277170286024784
 20
12.760203750269181
 30
0.0
 40
1.035847894809929
 50
93.582767613279927
 51
98.917107086389166
  0
ARC
  5
12FC
  8
0
 10
89.40563839949229
 20
11.873642990766321
 30
0.0
 40
1.9316351705410619
 50
98.605470680047404
 51
101.8884346886625
  0
ARC
  5
12FD
  8
0
 10
72.286831034801082
 20
160.0117678688091
 30
0.0
 40
147.20068777406311
 50
270.06201925911802
 51
276.52244280586569
  0
ARC
  5
133F
  8
0
 10
72.208113775422575
 20
161.7333402539505
 30
0.0
 40
148.88763460338751
 50
270.09160905635639
 51
276.48570201851112
  0
LINE
  5
13C2
  8
0
 10
90.093152319608222
 20
12.967178034110599
 30
0.0
 11
90.092246913249994
 21
12.869290138949999
 31
0.0
  0
ARC
  5
13C3
  8
0
 10
89.859691732991124
 20
12.87144113972999
 30
0.0
 40
0.2325651278020802
 50
343.0298403565875
 51
359.47006232282052
  0
ARC
  5
13C4
  8
0
 10
139.6869996783802
 20
-0.8728566406587871
 30
0.0
 40
51.455684664244238
 50
164.58608644840081
 51
165.6583314179544
  0
ARC
  5
13C6
  8
0
 10
165.74714185928929
 20
-7.0086599183210438
 30
0.0
 40
78.225211972905754
 50
166.03232611023469
 51
172.16445730790909
  0
ARC
  5
13C7
  8
0
 10
344.10234353195608
 20
-31.067338430110741
 30
0.0
 40
258.19556464350683
 50
172.27122564781061
 51
174.44097966386229
  0
ARC
  5
13CB
  8
0
 10
84.358143896537257
 20
-6.0538092035900073
 30
0.0
 40
2.7629449368105732
 50
324.57307298897632
 51
359.96160236201899
  0
ARC
  5
13CC
  8
0
 10
85.311596299747919
 20
-6.5194313964866728
 30
0.0
 40
1.72483931575516
 50
276.8674486722507
 51
318.8077446161758
  0
ARC
  5
13CD
  8
0
 10
84.847950245725684
 20
-3.785383231434996
 30
0.0
 40
4.4966905619732147
 50
271.25155341850251
 51
278.56747242692029
  0
LINE
  5
13CE
  8
0
 10
84.946166919799992
 20
-8.2810010415999997
 30
0.0
 11
84.946166919799992
 21
-8.2282154922000004
 31
0.0
  0
ARC
  5
13CF
  8
0
 10
84.934856706828157
 20
-8.2386847974340718
 30
0.0
 40
0.0154119197231375
 50
42.788906813690552
 51
96.561268173388029
  0
ARC
  5
13D0
  8
0
 10
84.902913955811286
 20
-9.174912198714253
 30
0.0
 40
0.9520169205480032
 50
88.183253131179214
 51
96.474315411726295
  0
ARC
  5
13D7
  8
0
 10
83.601350337241229
 20
3.953744201305923
 30
0.0
 40
12.241102849868479
 50
272.19273816225012
 51
275.59856072438782
  0
ARC
  5
13D8
  8
0
 10
83.74087733070894
 20
0.3097137803464189
 30
0.0
 40
8.5944022190537641
 50
269.09814743493041
 51
272.19273816225029
  0
LINE
  5
13D9
  8
0
 10
83.605604476400003
 20
-8.283623799299999
 30
0.0
 11
61.286729435778902
 21
-8.283623799299999
 31
0.0
  0
ARC
  5
13DC
  8
0
 10
88.996746669975025
 20
7.0644776232280542
 30
0.0
 40
6.657251297402893
 50
96.958144354615712
 51
99.952263319348461
  0
ARC
  5
13DD
  8
0
 10
88.315802869744545
 20
10.935507513148419
 30
0.0
 40
2.72678694716571
 50
99.917043454877756
 51
103.4573914907199
  0
ARC
  5
13DE
  8
0
 10
87.922338311356938
 20
12.577047510542039
 30
0.0
 40
1.0387505579009051
 50
103.42217162624959
 51
108.09695037674619
  0
ARC
  5
13DF
  8
0
 10
87.670080650763154
 20
13.34896992396618
 30
0.0
 40
0.2266556498545635
 50
108.09695037674349
 51
118.8461960597681
  0
ARC
  5
13E0
  8
0
 10
87.578730668982942
 20
13.51481803704025
 30
0.0
 40
0.0373135895999097
 50
118.8461960597735
 51
136.83747221054739
  0
ARC
  5
13E1
  8
0
 10
87.556155073348549
 20
13.53599016463629
 30
0.0
 40
0.0063633633456424
 50
136.83747221050999
 51
266.92593034624468
  0
ARC
  5
13E2
  8
0
 10
87.621737144996274
 20
13.85905934484463
 30
0.0
 40
0.3359548360520185
 50
258.68360531141792
 51
276.12707804930352
  0
ARC
  5
13E3
  8
0
 10
87.455900228893825
 20
16.262435915076001
 30
0.0
 40
2.7448327580246619
 50
274.21398387926803
 51
278.99893817967472
  0
ARC
  5
13E4
  8
0
 10
86.265193466106354
 20
23.922231814747612
 30
0.0
 40
10.49661503717031
 50
278.8784950219254
 51
281.89607068001112
  0
ARC
  5
13E5
  8
0
 10
87.998740166001625
 20
15.76677956987549
 30
0.0
 40
2.1590215004387261
 50
281.49337074770631
 51
285.59838787779762
  0
ARC
  5
13E6
  8
0
 10
88.690792688599757
 20
13.40628925872219
 30
0.0
 40
0.3023022025291105
 50
107.2697001527966
 51
111.64536196803751
  0
ARC
  5
13E7
  8
0
 10
88.595474173211144
 20
13.712892763101401
 30
0.0
 40
0.0187761808502475
 50
287.26970015279818
 51
314.38766653189077
  0
ARC
  5
13E8
  8
0
 10
88.60635009298025
 20
13.70178185599695
 30
0.0
 40
0.0032282585611522
 50
314.38766653178442
 51
21.65064280277733
  0
ARC
  5
13E9
  8
0
 10
88.603175364175897
 20
13.696347926312191
 30
0.0
 40
0.0090567073156984
 50
47.012311534493698
 51
92.757269182697513
  0
ARC
  5
13EA
  8
0
 10
88.563089050223979
 20
13.22527768838178
 30
0.0
 40
0.4817509614036133
 50
85.278914970639846
 51
94.271336361750897
  0
ARC
  5
13EB
  8
0
 10
88.661279126090278
 20
11.18427331359632
 30
0.0
 40
2.5249792262705202
 50
93.043710614451342
 51
95.775293367835062
  0
ARC
  5
13EC
  8
0
 10
71.904309790915647
 20
140.63944497020279
 30
0.0
 40
125.88900302768199
 50
262.84501864686888
 51
270.2466162200493
  0
ARC
  5
13ED
  8
0
 10
56.16955502652435
 20
15.234836544047971
 30
0.0
 40
0.498939656652023
 50
83.692259053623815
 51
170.10811645858479
  0
LINE
  5
13EE
  8
0
 10
55.678032770678797
 20
15.32054916265529
 30
0.0
 11
55.423948319078811
 21
13.820575772755291
 31
0.0
  0
ARC
  5
13EF
  8
0
 10
68.16153475296781
 20
1.8705353154078199
 30
0.0
 40
18.45372013774633
 50
132.00428976983071
 51
134.03157372472069
  0
ARC
  5
13F0
  8
0
 10
78.225484061914386
 20
-8.5368510079691724
 30
0.0
 40
32.933083802599747
 50
134.03157372472069
 51
135.05067412992051
  0
ARC
  5
13F1
  8
0
 10
56.363155864059337
 20
13.28683993587326
 30
0.0
 40
2.0423913428461429
 50
135.0506741299204
 51
138.9786138474141
  0
ARC
  5
13F2
  8
0
 10
55.212302169811892
 20
14.31570022488825
 30
0.0
 40
0.4992671308531041
 50
141.37625643490239
 51
170.0214431866755
  0
LINE
  5
13F3
  8
0
 10
54.72058761630575
 20
14.402213032151369
 30
0.0
 11
54.446166992378799
 21
12.8458959599
 31
0.0
  0
LINE
  5
13F4
  8
0
 10
54.446166992378799
 20
12.8458959599
 30
0.0
 11
54.643128544378797
 21
12.811166332499999
 31
0.0
  0
LINE
  5
13F5
  8
0
 10
54.643128544378797
 20
12.811166332499999
 30
0.0
 11
55.620719249778801
 21
13.788498023200001
 31
0.0
  0
LINE
  5
13F6
  8
0
 10
54.446166992378799
 20
12.8458959599
 30
0.0
 11
55.423952668432868
 21
13.82323137031768
 31
0.0
  0
ARC
  5
13F7
  8
0
 10
55.492940689124723
 20
13.68837631713356
 30
0.0
 40
0.1514768377286479
 50
84.450582436768514
 51
117.0929973820696
  0
ARC
  5
13F8
  8
0
 10
55.496538554723962
 20
12.419617514318331
 30
0.0
 40
1.4195687051582091
 50
82.746298568095341
 51
89.553978313092216
  0
ARC
  5
13F9
  8
0
 10
55.320581364089378
 20
10.873893975508169
 30
0.0
 40
2.9752098408991858
 50
79.425423409172808
 51
83.143373094719848
  0
ARC
  5
13FA
  8
0
 10
55.633340408768333
 20
13.774151151451891
 30
0.0
 40
0.0191131977804608
 50
91.109732296799834
 51
131.33367525996121
  0
ARC
  5
13FB
  8
0
 10
55.661110409288412
 20
13.50720807064225
 30
0.0
 40
0.2874334927827731
 50
86.253063823831127
 51
95.618342459775775
  0
ARC
  5
13FC
  8
0
 10
55.615163626154029
 20
12.760203750269181
 30
0.0
 40
1.035847894809929
 50
81.08289291361082
 51
86.417232386720386
  0
ARC
  5
13FD
  8
0
 10
55.486695512686509
 20
11.873642990766321
 30
0.0
 40
1.9316351705410619
 50
78.1115653113376
 51
81.394529319952696
  0
ARC
  5
13FE
  8
0
 10
72.605502877377717
 20
160.0117678688091
 30
0.0
 40
147.20068777406311
 50
263.4775571941347
 51
269.93798074088141
  0
ARC
  5
13FF
  8
0
 10
72.684220125530587
 20
161.73334012266261
 30
0.0
 40
148.8876344716719
 50
263.51429798007479
 51
269.9083910465601
  0
LINE
  5
1400
  8
0
 10
54.799181592570569
 20
12.967178034110599
 30
0.0
 11
54.800086998928791
 21
12.869290138949999
 31
0.0
  0
ARC
  5
1401
  8
0
 10
55.032642179187683
 20
12.87144113972999
 30
0.0
 40
0.2325651278020802
 50
180.5299376771795
 51
196.9701596434123
  0
ARC
  5
1402
  8
0
 10
5.2053342337986228
 20
-0.8728566406587871
 30
0.0
 40
51.455684664244238
 50
14.341668582045649
 51
15.413913551599199
  0
ARC
  5
1403
  8
0
 10
-20.854807947110519
 20
-7.0086599183210438
 30
0.0
 40
78.225211972905754
 50
7.8355426920908791
 51
13.967673889765059
  0
ARC
  5
1404
  8
0
 10
-199.21000961977731
 20
-31.067338430110741
 30
0.0
 40
258.19556464350683
 50
5.559020336137741
 51
7.7287743521893919
  0
ARC
  5
1405
  8
0
 10
60.534190015641542
 20
-6.0538092035900073
 30
0.0
 40
2.7629449368105732
 50
180.03839763798101
 51
215.42692701102391
  0
ARC
  5
1406
  8
0
 10
59.58073761243088
 20
-6.5194313964866728
 30
0.0
 40
1.72483931575516
 50
221.1922553838244
 51
263.13255132774998
  0
ARC
  5
1407
  8
0
 10
60.044383666453108
 20
-3.785383231434996
 30
0.0
 40
4.4966905619732147
 50
261.43252757307948
 51
268.74844658149709
  0
LINE
  5
1408
  8
0
 10
59.946166992378799
 20
-8.2810010415999997
 30
0.0
 11
59.946166992378799
 21
-8.2282154922000004
 31
0.0
  0
ARC
  5
1409
  8
0
 10
59.957477205350642
 20
-8.2386847974340718
 30
0.0
 40
0.0154119197231375
 50
83.4387318266118
 51
137.21109318630999
  0
ARC
  5
140A
  8
0
 10
59.98941995636752
 20
-9.174912198714253
 30
0.0
 40
0.9520169205480032
 50
83.52568458827335
 51
91.816746868821056
  0
ARC
  5
140B
  8
0
 10
61.29098357493757
 20
3.953744201305923
 30
0.0
 40
12.241102849868479
 50
264.40143927561172
 51
267.80726183775067
  0
ARC
  5
140C
  8
0
 10
61.151456581469851
 20
0.3097137803464189
 30
0.0
 40
8.5944022190537641
 50
267.80726183774908
 51
270.90185256507033
  0
ARC
  5
140E
  8
0
 10
55.895587242203781
 20
7.0644776232280542
 30
0.0
 40
6.657251297402893
 50
80.047736680651496
 51
83.041855645384345
  0
ARC
  5
140F
  8
0
 10
56.57653104243424
 20
10.935507513148419
 30
0.0
 40
2.72678694716571
 50
76.542608509280456
 51
80.082956545121547
  0
ARC
  5
1410
  8
0
 10
56.969995600821839
 20
12.577047510542039
 30
0.0
 40
1.0387505579009051
 50
71.903049623254461
 51
76.577828373750393
  0
ARC
  5
1411
  8
0
 10
57.222253261415652
 20
13.34896992396618
 30
0.0
 40
0.2266556498545635
 50
61.153803940232478
 51
71.90304962325628
  0
ARC
  5
1412
  8
0
 10
57.31360324319585
 20
13.51481803704025
 30
0.0
 40
0.0373135895999097
 50
43.162527789453108
 51
61.153803940226929
  0
ARC
  5
1413
  8
0
 10
57.33617883883025
 20
13.53599016463629
 30
0.0
 40
0.0063633633456424
 50
273.07406965375583
 51
43.162527789489701
  0
ARC
  5
1414
  8
0
 10
57.270596767182518
 20
13.85905934484463
 30
0.0
 40
0.3359548360520185
 50
263.87292195069699
 51
281.31639468858288
  0
ARC
  5
1415
  8
0
 10
57.436433683284967
 20
16.262435915076001
 30
0.0
 40
2.7448327580246619
 50
261.00106182032522
 51
265.78601612073282
  0
ARC
  5
1416
  8
0
 10
58.627140446072438
 20
23.922231814747612
 30
0.0
 40
10.49661503717031
 50
258.10392931998859
 51
261.1215049780742
  0
ARC
  5
1417
  8
0
 10
56.893593746177189
 20
15.76677956987549
 30
0.0
 40
2.1590215004387261
 50
254.40161212220221
 51
258.50662925229437
  0
ARC
  5
1418
  8
0
 10
56.201541223579042
 20
13.40628925872219
 30
0.0
 40
0.3023022025291105
 50
68.354638031963091
 51
72.730299847203
  0
ARC
  5
1419
  8
0
 10
56.296859738967662
 20
13.712892763101401
 30
0.0
 40
0.0187761808502475
 50
225.61233346810869
 51
252.73029984720131
  0
ARC
  5
141A
  8
0
 10
56.285983819198549
 20
13.70178185599695
 30
0.0
 40
0.0032282585611522
 50
158.34935719722279
 51
225.6123334682155
  0
ARC
  5
141B
  8
0
 10
56.289158548002902
 20
13.696347926312191
 30
0.0
 40
0.0090567073156984
 50
87.24273081730324
 51
132.98768846550621
  0
ARC
  5
141C
  8
0
 10
56.32924486195482
 20
13.22527768838178
 30
0.0
 40
0.4817509614036133
 50
85.728663638248776
 51
94.721085029359884
  0
ARC
  5
141D
  8
0
 10
56.231054786088521
 20
11.18427331359632
 30
0.0
 40
2.5249792262705202
 50
84.224706632164526
 51
86.956289385549226
  0
ATTDEF
  5
163C
  8
DEFPOINTS
 10
72.442916824071688
 20
-8.2966471619848008
 30
0.0
 40
0.001
  1
ACRYLIC
  3

  2
MATERIAL
 70
     0
1001
ACDBATTR
1070
     0
1070
     1
  0
ATTDEF
  5
163D
  8
DEFPOINTS
 10
72.442916824071688
 20
-8.2949804953181356
 30
0.0
 40
0.001
  1
BATH
  3

  2
PRODUCT
 70
     0
1001
ACDBATTR
1070
     0
1070
     1
  0
ATTDEF
  5
163E
  8
DEFPOINTS
 10
72.442916824071688
 20
-8.2933138286514705
 30
0.0
 40
0.001
  1
ESCALE
  3

  2
TRADENAME
 70
     0
1001
ACDBATTR
1070
     0
1070
     1
  0
ATTDEF
  5
163F
  8
DEFPOINTS
 10
72.442916824071688
 20
-8.2916471619848053
 30
0.0
 40
0.001
  1
K-14037
  3

  2
MODELNUMBER
 70
     0
1001
ACDBATTR
1070
     0
1070
     1
  0
ENDSEC
  0
EOF
