  0
SECTION
  2
HEADER
  9
$ACADVER
  1
AC1009
  9
$INSBASE
 10
5.0627826867998618
 20
-8.280979309601161
 30
0.0
  9
$EXTMIN
 10
-30.939414411189489
 20
-8.2950610847163642
 30
-0.0015258207003583
  9
$EXTMAX
 10
41.064980120065627
 20
15.73716874869854
 30
0.0000000349246037
  9
$LIMMIN
 10
0.0
 20
0.0
  9
$LIMMAX
 10
11.692913385800001
 20
8.2677165353999982
  9
$ORTHOMODE
 70
     1
  9
$REGENMODE
 70
     1
  9
$FILLMODE
 70
     1
  9
$QTEXTMODE
 70
     0
  9
$MIRRTEXT
 70
     0
  9
$DRAGMODE
 70
     2
  9
$LTSCALE
 40
0.6431102362
  9
$OSMODE
 70
  3071
  9
$ATTMODE
 70
     1
  9
$TEXTSIZE
 40
0.2
  9
$TRACEWID
 40
0.05
  9
$TEXTSTYLE
  7
STANDARD
  9
$CLAYER
  8
0
  9
$CELTYPE
  6
BYLAYER
  9
$CECOLOR
 62
   256
  9
$DIMSCALE
 40
1.0
  9
$DIMASZ
 40
0.1875
  9
$DIMEXO
 40
0.0625
  9
$DIMDLI
 40
0.4443307087
  9
$DIMRND
 40
0.0
  9
$DIMDLE
 40
0.0
  9
$DIMEXE
 40
0.125
  9
$DIMTP
 40
0.01
  9
$DIMTM
 40
0.01
  9
$DIMTXT
 40
1.0
  9
$DIMCEN
 40
0.1052362205
  9
$DIMTSZ
 40
0.0
  9
$DIMTOL
 70
     1
  9
$DIMLIM
 70
     0
  9
$DIMTIH
 70
     1
  9
$DIMTOH
 70
     1
  9
$DIMSE1
 70
     0
  9
$DIMSE2
 70
     0
  9
$DIMTAD
 70
     0
  9
$DIMZIN
 70
     0
  9
$DIMBLK
  1

  9
$DIMASO
 70
     1
  9
$DIMSHO
 70
     1
  9
$DIMPOST
  1
\X
  9
$DIMAPOST
  1

  9
$DIMALT
 70
     1
  9
$DIMALTD
 70
     2
  9
$DIMALTF
 40
25.399999999999999
  9
$DIMLFAC
 40
1.0
  9
$DIMTOFL
 70
     0
  9
$DIMTVP
 40
0.0
  9
$DIMTIX
 70
     0
  9
$DIMSOXD
 70
     0
  9
$DIMSAH
 70
     0
  9
$DIMBLK1
  1

  9
$DIMBLK2
  1

  9
$DIMSTYLE
  2
STANDARD
  9
$DIMCLRD
 70
     0
  9
$DIMCLRE
 70
     0
  9
$DIMCLRT
 70
     0
  9
$DIMTFAC
 40
1.0
  9
$DIMGAP
 40
0.09
  9
$LUNITS
 70
     2
  9
$LUPREC
 70
     4
  9
$SKETCHINC
 40
0.1
  9
$FILLETRAD
 40
0.0
  9
$AUNITS
 70
     0
  9
$AUPREC
 70
     0
  9
$MENU
  1
.
  9
$ELEVATION
 40
0.0
  9
$PELEVATION
 40
0.0
  9
$THICKNESS
 40
0.0
  9
$LIMCHECK
 70
     0
  9
$BLIPMODE
 70
     0
  9
$CHAMFERA
 40
0.0
  9
$CHAMFERB
 40
0.0
  9
$SKPOLY
 70
     0
  9
$TDCREATE
 40
2457893.437396354
  9
$TDUPDATE
 40
2457905.688717037
  9
$TDINDWG
 40
0.1298170486
  9
$TDUSRTIMER
 40
0.1298170486
  9
$USRTIMER
 70
     1
  9
$ANGBASE
 50
0.0
  9
$ANGDIR
 70
     0
  9
$PDMODE
 70
     0
  9
$PDSIZE
 40
0.3125
  9
$PLINEWID
 40
0.0
  9
$COORDS
 70
     1
  9
$SPLFRAME
 70
     0
  9
$SPLINETYPE
 70
     6
  9
$SPLINESEGS
 70
     8
  9
$ATTDIA
 70
     1
  9
$ATTREQ
 70
     1
  9
$HANDLING
 70
     1
  9
$HANDSEED
  5
1968
  9
$SURFTAB1
 70
     6
  9
$SURFTAB2
 70
     6
  9
$SURFTYPE
 70
     6
  9
$SURFU
 70
     6
  9
$SURFV
 70
     6
  9
$UCSNAME
  2

  9
$UCSORG
 10
0.0
 20
0.0
 30
0.0
  9
$UCSXDIR
 10
1.0
 20
0.0
 30
0.0
  9
$UCSYDIR
 10
0.0
 20
1.0
 30
0.0
  9
$PUCSNAME
  2

  9
$PUCSORG
 10
0.0
 20
0.0
 30
0.0
  9
$PUCSXDIR
 10
1.0
 20
0.0
 30
0.0
  9
$PUCSYDIR
 10
0.0
 20
1.0
 30
0.0
  9
$USERI1
 70
     0
  9
$USERI2
 70
     0
  9
$USERI3
 70
     0
  9
$USERI4
 70
     0
  9
$USERI5
 70
     0
  9
$USERR1
 40
0.0
  9
$USERR2
 40
0.0
  9
$USERR3
 40
0.0
  9
$USERR4
 40
0.0
  9
$USERR5
 40
0.0
  9
$WORLDVIEW
 70
     1
  9
$SHADEDGE
 70
     3
  9
$SHADEDIF
 70
    70
  9
$TILEMODE
 70
     1
  9
$MAXACTVP
 70
    48
  9
$PLIMCHECK
 70
     0
  9
$PEXTMIN
 10
1.0000000000000000E+020
 20
1.0000000000000000E+020
 30
1.0000000000000000E+020
  9
$PEXTMAX
 10
-1.0000000000000000E+020
 20
-1.0000000000000000E+020
 30
-1.0000000000000000E+020
  9
$PLIMMIN
 10
0.0
 20
0.0
  9
$PLIMMAX
 10
12.0
 20
9.0
  9
$UNITMODE
 70
     0
  9
$VISRETAIN
 70
     1
  9
$PLINEGEN
 70
     0
  9
$PSLTSCALE
 70
     1
  0
ENDSEC
  0
SECTION
  2
TABLES
  0
TABLE
  2
VPORT
 70
     1
  0
VPORT
  2
*ACTIVE
 70
     0
 10
0.0
 20
0.0
 11
1.0
 21
1.0
 12
0.0000001676380634
 22
0.0004334944766775
 13
0.0
 23
0.0
 14
1.0
 24
1.0
 15
0.0
 25
0.0
 16
-0.0000000000000417
 26
0.0
 36
189.76697254513681
 17
5.0627826868000021
 27
3.720620337514406
 37
0.0
 40
40.228249333547367
 41
1.798307475317348
 42
50.0
 43
0.0
 44
0.0
 50
0.0
 51
0.0
 71
     0
 72
   100
 73
     1
 74
     1
 75
     0
 76
     0
 77
     0
 78
     0
  0
ENDTAB
  0
TABLE
  2
LTYPE
 70
     2
  0
LTYPE
  2
CONTINUOUS
 70
     0
  3
Solid line
 72
    65
 73
     0
 40
0.0
  0
LTYPE
  2
PHANTOM2
 70
     0
  3
___ _ _ ___ _ _ ___ _ _ ___ _ _
 72
    65
 73
     6
 40
1.25
 49
0.625
 49
-0.125
 49
0.125
 49
-0.125
 49
0.125
 49
-0.125
  0
ENDTAB
  0
TABLE
  2
LAYER
 70
     2
  0
LAYER
  2
0
 70
     0
 62
     7
  6
CONTINUOUS
  0
LAYER
  2
DEFPOINTS
 70
     0
 62
     7
  6
CONTINUOUS
  0
ENDTAB
  0
TABLE
  2
STYLE
 70
     1
  0
STYLE
  2
STANDARD
 70
     0
 40
0.0
 41
0.8
 50
0.0
 71
     0
 42
0.2
  3
txt
  4

  0
ENDTAB
  0
TABLE
  2
VIEW
 70
     0
  0
ENDTAB
  0
TABLE
  2
UCS
 70
     0
  0
ENDTAB
  0
TABLE
  2
APPID
 70
     7
  0
APPID
  2
ACAD
 70
     0
  0
APPID
  2
ACAD_MLEADERVER
 70
     0
  0
APPID
  2
ACAD_NAV_VCDISPLAY
 70
     0
  0
APPID
  2
ACAD_EXEMPT_FROM_CAD_STANDARDS
 70
     0
  0
APPID
  2
ACAD_DSTYLE_DIMJAG
 70
     0
  0
APPID
  2
ACAD_DSTYLE_DIMTALN
 70
     0
  0
APPID
  2
ACDBATTR
 70
     0
  0
ENDTAB
  0
TABLE
  2
DIMSTYLE
 70
     1
  0
DIMSTYLE
  2
STANDARD
 70
     0
  3

  4

  5

  6

  7

 40
1.0
 41
0.1875
 42
0.0625
 43
0.38
 44
0.125
 45
0.0
 46
0.0
 47
0.01
 48
0.01
140
0.15625
141
0.09
142
0.0
143
25.399999999999999
144
1.0
145
0.0
146
1.0
147
0.09
 71
     1
 72
     0
 73
     1
 74
     1
 75
     0
 76
     0
 77
     0
 78
     4
170
     0
171
     2
172
     0
173
     0
174
     0
175
     0
176
     0
177
     0
178
     0
  0
ENDTAB
  0
ENDSEC
  0
SECTION
  2
BLOCKS
  0
BLOCK
  8
0
  2
$MODEL_SPACE
 70
     0
 10
0.0
 20
0.0
 30
0.0
  3
$MODEL_SPACE
  1

  0
ENDBLK
  5
21
  8
0
  0
BLOCK
 67
     1
  8
0
  2
$PAPER_SPACE
 70
     0
 10
0.0
 20
0.0
 30
0.0
  3
$PAPER_SPACE
  1

  0
ENDBLK
  5
1D
 67
     1
  8
0
  0
BLOCK
  8
0
  2
*U1
 70
     1
 10
0.0
 20
0.0
 30
0.0
  3
*U1
  1

  0
TEXT
  5
1961
  8
0
 62
     0
 10
41.449528615793788
 20
3.8177280506289648
 30
0.0
 40
1.0
  1
24.0174±0.0100
 41
0.8
  0
ENDBLK
  5
1963
  8
0
  0
BLOCK
  8
0
  2
*U2
 70
     1
 10
0.0
 20
0.0
 30
0.0
  3
*U2
  1

  0
TEXT
  5
1965
  8
0
 62
     0
 10
41.849528615793787
 20
2.6377280506289651
 30
0.0
 40
1.0
  1
[610.04±0.25]
 41
0.8
  0
ENDBLK
  5
1967
  8
0
  0
ENDSEC
  0
SECTION
  2
ENTITIES
  0
ARC
  5
1253
  8
0
 10
4.133760072766842
 20
688.47025245268151
 30
0.0
 40
673.6555040846257
 50
270.07901531946789
 51
272.99609495575987
  0
ARC
  5
1255
  8
0
 10
39.373662091067438
 20
15.239223285245499
 30
0.0
 40
0.497212046810527
 50
9.7241749840510501
 51
93.383831124359745
  0
ARC
  5
1256
  8
0
 10
36.378909699872032
 20
11.91428874782987
 30
0.0
 40
4.971668487091601
 50
40.19279290539086
 51
47.770108572117927
  0
ARC
  5
1257
  8
0
 10
43.976829268974839
 20
18.187458728622371
 30
0.0
 40
4.8819450564316762
 50
218.8843915377978
 51
226.4060834278705
  0
ARC
  5
1258
  8
0
 10
40.305034864112208
 20
14.253660800246641
 30
0.0
 40
0.5017802712757231
 50
10.03364402139171
 51
52.497035461845407
  0
LINE
  5
1259
  8
0
 10
40.799140715842007
 20
14.34108418343391
 30
0.0
 11
41.062782686799991
 21
12.8458959599
 31
0.0
  0
LINE
  5
125A
  8
0
 10
41.062782686799991
 20
12.8458959599
 30
0.0
 11
40.86582113499999
 21
12.811166331200001
 31
0.0
  0
LINE
  5
125B
  8
0
 10
40.86582113499999
 20
12.811166331200001
 30
0.0
 11
39.913883847999998
 21
13.7638457146
 31
0.0
  0
LINE
  5
125C
  8
0
 10
41.062782686799991
 20
12.8458959599
 30
0.0
 11
40.110016801699992
 21
13.798575185500001
 31
0.0
  0
ARC
  5
125D
  8
0
 10
40.045660360997239
 20
13.734212890678849
 30
0.0
 40
0.0910178908488371
 50
45.002605807732948
 51
79.074031480555504
  0
ARC
  5
125E
  8
0
 10
39.899127288081068
 20
12.975130439388691
 30
0.0
 40
0.8641143332898423
 50
79.074031480555504
 51
87.870142405675338
  0
ARC
  5
125F
  8
0
 10
39.878935993844181
 20
12.43221009274072
 30
0.0
 40
1.407410008928176
 50
87.870142405675665
 51
95.162377466914037
  0
ARC
  5
1260
  8
0
 10
41.79063432071711
 20
-8.7277473471645397
 30
0.0
 40
22.653548231004461
 50
95.162377466913966
 51
95.45433434195759
  0
ARC
  5
1261
  8
0
 10
5.3247374569153569
 20
615.6288068623129
 30
0.0
 40
602.78296782199118
 50
269.97510065143751
 51
273.26325041986013
  0
ARC
  5
1262
  8
0
 10
39.868762646117389
 20
13.72269216216357
 30
0.0
 40
0.0610699413580041
 50
42.36690635037489
 51
78.639183905161104
  0
ARC
  5
1263
  8
0
 10
39.777747397931158
 20
13.337895742235119
 30
0.0
 40
0.4564531935867965
 50
76.952896937672691
 51
90.042929045797308
  0
ARC
  5
1264
  8
0
 10
39.748089349288151
 20
12.772523149320151
 30
0.0
 40
1.0222461087679331
 50
88.356642078309306
 51
94.739564282737135
  0
ARC
  5
1265
  8
0
 10
39.255918294985477
 20
18.708717434069921
 30
0.0
 40
4.934316233136089
 50
274.33272865488789
 51
274.73956428273721
  0
ARC
  5
1266
  8
0
 10
5.3216806511783439
 20
615.39770450232004
 30
0.0
 40
602.58659378743755
 50
269.97538318759041
 51
273.26378108620253
  0
ARC
  5
1267
  8
0
 10
40.46036935992943
 20
12.994380338324911
 30
0.0
 40
0.2495518547805083
 50
312.34357264755113
 51
354.05813693683979
  0
ARC
  5
1268
  8
0
 10
58.557836229447638
 20
-6.6954770674802404
 30
0.0
 40
26.49383823119398
 50
132.5892262956865
 51
135.5044831864972
  0
ARC
  5
126A
  8
0
 10
71.847475854324358
 20
-17.118357932049399
 30
0.0
 40
43.319108354812293
 50
137.99103342773989
 51
151.59941039498381
  0
ARC
  5
126B
  8
0
 10
266.82692586099103
 20
-124.3741990059486
 30
0.0
 40
265.85085874915939
 50
151.25280906980109
 51
153.77966451114179
  0
ARC
  5
126C
  8
0
 10
26.439592263106249
 20
-6.2890504381801628
 30
0.0
 40
1.992898750199964
 50
268.21239584267192
 51
341.69912584379358
  0
LINE
  5
126E
  8
0
 10
26.377424749500001
 20
-8.2809793096011788
 30
0.0
 11
14.597198468099711
 21
-8.2809793096011646
 31
0.0
  0
ARC
  5
126F
  8
0
 10
9.3798830595756488
 20
-118.7059170020281
 30
0.0
 40
110.5481218494842
 50
87.294922511774743
 51
88.019860551969984
  0
ARC
  5
1271
  8
0
 10
12.84508256193415
 20
-26.141079952503091
 30
0.0
 40
17.920780721848899
 50
88.866280240021695
 51
94.716337288774994
  0
ARC
  5
1272
  8
0
 10
38.669894626838932
 20
12.54841332081268
 30
0.0
 40
1.1381016249261029
 50
95.808942092671444
 51
107.58953114126869
  0
ARC
  5
1273
  8
0
 10
38.964797471843141
 20
10.446267141331219
 30
0.0
 40
3.2602978078243869
 50
86.950921161500574
 51
97.226008114179976
  0
ARC
  5
1274
  8
0
 10
39.099422225067507
 20
13.00815386930257
 30
0.0
 40
0.6948793985838325
 50
75.968423538018456
 51
86.799531269673466
  0
ARC
  5
1275
  8
0
 10
39.245811524565639
 20
13.603186619885619
 30
0.0
 40
0.0821388073238828
 50
52.763002532378962
 51
74.399967624686795
  0
ARC
  5
1276
  8
0
 10
39.288547437447832
 20
13.65941367690456
 30
0.0
 40
0.0115141643804612
 50
329.95756699078743
 51
52.763002532381932
  0
ARC
  5
1277
  8
0
 10
39.214303599933899
 20
13.738518557040051
 30
0.0
 40
0.1195588568008983
 50
284.82093853634319
 51
314.77695361050343
  0
ARC
  5
1278
  8
0
 10
38.532045657385417
 20
16.17698022238265
 30
0.0
 40
2.6516554967704531
 50
273.64093523617231
 51
285.59457701107812
  0
ARC
  5
1279
  8
0
 10
38.540378534155529
 20
15.30981366609274
 30
0.0
 40
1.7863219601434901
 50
264.57152310121688
 51
275.1406669311163
  0
ARC
  5
127A
  8
0
 10
38.413176275010308
 20
13.92060837895562
 30
0.0
 40
0.3913427668138152
 50
250.5908087144914
 51
263.87000881635078
  0
ARC
  5
127B
  8
0
 10
38.304443866094068
 20
13.613840608319849
 30
0.0
 40
0.0658784999726993
 50
221.70200848190021
 51
251.12163273102459
  0
ARC
  5
127C
  8
0
 10
38.269544047737341
 20
13.58155156270862
 30
0.0
 40
0.0183628664501497
 50
146.52180069277441
 51
218.92347722039551
  0
ARC
  5
127D
  8
0
 10
38.373069017552432
 20
13.46948912312947
 30
0.0
 40
0.1704526158908764
 50
106.0422202740106
 51
134.2036308489005
  0
ARC
  5
127E
  8
0
 10
5.9918052622445881
 20
688.4702514779907
 30
0.0
 40
673.65550310925016
 50
267.00390504318472
 51
269.92098472270459
  0
ARC
  5
127F
  8
0
 10
-29.24809671746743
 20
15.239223285245499
 30
0.0
 40
0.497212046810527
 50
86.616168875640312
 51
170.2758250159489
  0
ARC
  5
1280
  8
0
 10
-26.253344326272028
 20
11.91428874782987
 30
0.0
 40
4.971668487091601
 50
132.229891427882
 51
139.80720709460911
  0
ARC
  5
1281
  8
0
 10
-33.851263895374849
 20
18.187458728622371
 30
0.0
 40
4.8819450564316762
 50
313.59391657212939
 51
321.11560846220232
  0
ARC
  5
1282
  8
0
 10
-30.179469490512201
 20
14.253660800246641
 30
0.0
 40
0.5017802712757231
 50
127.5029645381545
 51
169.96635597860819
  0
LINE
  5
1283
  8
0
 10
-30.673575342242
 20
14.34108418343391
 30
0.0
 11
-30.937217313200001
 21
12.8458959599
 31
0.0
  0
LINE
  5
1284
  8
0
 10
-30.937217313200001
 20
12.8458959599
 30
0.0
 11
-30.74025576139999
 21
12.811166331200001
 31
0.0
  0
LINE
  5
1285
  8
0
 10
-30.74025576139999
 20
12.811166331200001
 30
0.0
 11
-29.7883184744
 21
13.7638457146
 31
0.0
  0
LINE
  5
1286
  8
0
 10
-30.937217313200001
 20
12.8458959599
 30
0.0
 11
-29.984451428100002
 21
13.798575185500001
 31
0.0
  0
ARC
  5
1287
  8
0
 10
-29.920094987397238
 20
13.734212890678849
 30
0.0
 40
0.0910178908488371
 50
100.9259685194445
 51
134.997394192267
  0
ARC
  5
1288
  8
0
 10
-29.773561914481071
 20
12.975130439388691
 30
0.0
 40
0.8641143332898423
 50
92.129857594324605
 51
100.9259685194445
  0
ARC
  5
1289
  8
0
 10
-29.75337062024418
 20
12.43221009274072
 30
0.0
 40
1.407410008928176
 50
84.837622533085934
 51
92.129857594324335
  0
ARC
  5
128A
  8
0
 10
-31.66506894711711
 20
-8.7277473471645397
 30
0.0
 40
22.653548231004461
 50
84.545665658042395
 51
84.837622533086034
  0
ARC
  5
128B
  8
0
 10
4.8008279166846437
 20
615.6288068623129
 30
0.0
 40
602.78296782199118
 50
266.73674958013987
 51
270.02489934856249
  0
ARC
  5
128C
  8
0
 10
-29.743197272517389
 20
13.72269216216357
 30
0.0
 40
0.0610699413580041
 50
101.3608160948388
 51
137.6330936496251
  0
ARC
  5
128D
  8
0
 10
-29.652182024331161
 20
13.337895742235119
 30
0.0
 40
0.4564531935867965
 50
89.957070954202678
 51
103.0471030623273
  0
ARC
  5
128E
  8
0
 10
-29.622523975688139
 20
12.772523149320151
 30
0.0
 40
1.0222461087679331
 50
85.260435717262894
 51
91.643357921690694
  0
ARC
  5
128F
  8
0
 10
-29.13035292138547
 20
18.708717434069921
 30
0.0
 40
4.934316233136089
 50
265.26043571726279
 51
265.66727134511211
  0
ARC
  5
1290
  8
0
 10
4.8038847224215928
 20
615.39770450222909
 30
0.0
 40
602.5865937873466
 50
266.73621891379707
 51
270.02461681240948
  0
ARC
  5
1291
  8
0
 10
-30.33480398632943
 20
12.994380338324911
 30
0.0
 40
0.2495518547805083
 50
185.94186306316021
 51
227.65642735244899
  0
ARC
  5
1292
  8
0
 10
-48.432270855847641
 20
-6.6954770674802404
 30
0.0
 40
26.49383823119398
 50
44.495516813502817
 51
47.410773704313442
  0
ARC
  5
1293
  8
0
 10
-61.721910480724347
 20
-17.118357932049399
 30
0.0
 40
43.319108354812293
 50
28.400589605016229
 51
42.00896657226005
  0
ARC
  5
1294
  8
0
 10
-256.70136048739101
 20
-124.3741990059486
 30
0.0
 40
265.85085874915939
 50
26.220335488858129
 51
28.747190930198869
  0
ARC
  5
1295
  8
0
 10
-16.18698509544884
 20
-6.1073174648154804
 30
0.0
 40
2.1746297357806021
 50
201.7979987744904
 51
268.2904795390441
  0
ARC
  5
1297
  8
0
 10
0.7456823140237339
 20
-118.705917002014
 30
0.0
 40
110.54812184946999
 50
91.980139448029917
 51
92.705077488225257
  0
ARC
  5
1299
  8
0
 10
-2.719517188334108
 20
-26.141079952497812
 30
0.0
 40
17.92078072184362
 50
85.283662711223855
 51
91.133719759978618
  0
ARC
  5
129A
  8
0
 10
-28.544329253238921
 20
12.54841332081268
 30
0.0
 40
1.1381016249261029
 50
72.410468858731221
 51
84.191057907328613
  0
ARC
  5
129B
  8
0
 10
-28.839232098243141
 20
10.446267141331219
 30
0.0
 40
3.2602978078243869
 50
82.773991885819996
 51
93.049078838499426
  0
ARC
  5
129C
  8
0
 10
-28.973856851467499
 20
13.00815386930257
 30
0.0
 40
0.6948793985838325
 50
93.200468730326577
 51
104.0315764619815
  0
ARC
  5
129D
  8
0
 10
-29.120246150965642
 20
13.603186619885619
 30
0.0
 40
0.0821388073238828
 50
105.60003237531321
 51
127.23699746762099
  0
ARC
  5
129E
  8
0
 10
-29.162982063847831
 20
13.65941367690456
 30
0.0
 40
0.0115141643804612
 50
127.236997467618
 51
210.0424330092126
  0
ARC
  5
129F
  8
0
 10
-29.088738226333898
 20
13.738518557040051
 30
0.0
 40
0.1195588568008983
 50
225.2230463894966
 51
255.17906146365689
  0
ARC
  5
12A0
  8
0
 10
-28.40648028378542
 20
16.17698022238265
 30
0.0
 40
2.6516554967704531
 50
254.40542298892191
 51
266.35906476382769
  0
ARC
  5
12A1
  8
0
 10
-28.414813160555529
 20
15.30981366609274
 30
0.0
 40
1.7863219601434901
 50
264.85933306888381
 51
275.42847689878312
  0
ARC
  5
12A2
  8
0
 10
-28.287610901410311
 20
13.92060837895562
 30
0.0
 40
0.3913427668138152
 50
276.12999118364922
 51
289.4091912855086
  0
ARC
  5
12A3
  8
0
 10
-28.178878492494071
 20
13.613840608319849
 30
0.0
 40
0.0658784999726993
 50
288.87836726897541
 51
318.29799151809982
  0
ARC
  5
12A4
  8
0
 10
-28.14397867413734
 20
13.58155156270862
 30
0.0
 40
0.0183628664501497
 50
321.07652277960449
 51
33.478199307225537
  0
ARC
  5
12A5
  8
0
 10
-28.247503643952431
 20
13.46948912312947
 30
0.0
 40
0.1704526158908764
 50
45.796369151099441
 51
73.957779725989425
  0
LINE
  5
12AB
  8
0
 10
39.86373033943503
 20
15.32320501799396
 30
0.0
 11
40.109978927002778
 21
13.79861303447964
 31
0.0
  0
LINE
  5
12AC
  8
0
 10
-29.738164965835018
 20
15.32320501799396
 30
0.0
 11
-29.984451428100002
 21
13.798575185500001
 31
0.0
  0
ATTDEF
  5
15BC
  8
DEFPOINTS
 10
5.0597213637676894
 20
-8.2943277799758093
 30
0.0
 40
0.001
  1
ACRYLIC
  3

  2
MATERIAL
 70
     0
1001
ACDBATTR
1070
     0
1070
     1
  0
ATTDEF
  5
15BD
  8
DEFPOINTS
 10
5.0597213637676894
 20
-8.2926611133091441
 30
0.0
 40
0.001
  1
BATH
  3

  2
PRODUCT
 70
     0
1001
ACDBATTR
1070
     0
1070
     1
  0
ATTDEF
  5
15BE
  8
DEFPOINTS
 10
5.0597213637676894
 20
-8.2909944466424772
 30
0.0
 40
0.001
  1
ESCALE
  3

  2
TRADENAME
 70
     0
1001
ACDBATTR
1070
     0
1070
     1
  0
ATTDEF
  5
15BF
  8
DEFPOINTS
 10
5.0597213637676894
 20
-8.2893277799758138
 30
0.0
 40
0.001
  1
K-14037
  3

  2
MODELNUMBER
 70
     0
1001
ACDBATTR
1070
     0
1070
     1
  0
LINE
  5
1834
  8
0
 10
-4.4716330944997953
 20
-8.2809793096011646
 30
0.0
 11
-16.251859375901201
 21
-8.2809793096011397
 31
0.0
  0
LINE
  5
1835
  8
0
 10
11.371587836458151
 20
-8.2809793096011646
 30
0.0
 11
-1.246022462858422
 21
-8.2809793096011575
 31
0.0
  0
ENDSEC
  0
EOF
