  0
SECTION
  2
HEADER
  9
$ACADVER
  1
AC1009
  9
$INSBASE
 10
104.71166687052271
 20
-0.2187980162015433
 30
0.0
  9
$EXTMIN
 10
94.853704320122716
 20
-0.2187980162015433
 30
0.0
  9
$EXTMAX
 10
105.96166687052271
 20
12.46258221301151
 30
0.0
  9
$LIMMIN
 10
0.0
 20
0.0
  9
$LIMMAX
 10
11.692913385800001
 20
8.2677165353999982
  9
$ORTHOMODE
 70
     0
  9
$REGENMODE
 70
     1
  9
$FILLMODE
 70
     1
  9
$QTEXTMODE
 70
     0
  9
$MIRRTEXT
 70
     0
  9
$DRAGMODE
 70
     2
  9
$LTSCALE
 40
0.6431102362
  9
$OSMODE
 70
  3071
  9
$ATTMODE
 70
     1
  9
$TEXTSIZE
 40
0.2
  9
$TRACEWID
 40
0.05
  9
$TEXTSTYLE
  7
STANDARD
  9
$CLAYER
  8
0
  9
$CELTYPE
  6
BYLAYER
  9
$CECOLOR
 62
   256
  9
$DIMSCALE
 40
1.0
  9
$DIMASZ
 40
0.1875
  9
$DIMEXO
 40
0.0625
  9
$DIMDLI
 40
0.4443307087
  9
$DIMRND
 40
0.0
  9
$DIMDLE
 40
0.0
  9
$DIMEXE
 40
0.125
  9
$DIMTP
 40
0.01
  9
$DIMTM
 40
0.01
  9
$DIMTXT
 40
1.0
  9
$DIMCEN
 40
0.1052362205
  9
$DIMTSZ
 40
0.0
  9
$DIMTOL
 70
     1
  9
$DIMLIM
 70
     0
  9
$DIMTIH
 70
     1
  9
$DIMTOH
 70
     1
  9
$DIMSE1
 70
     0
  9
$DIMSE2
 70
     0
  9
$DIMTAD
 70
     0
  9
$DIMZIN
 70
     0
  9
$DIMBLK
  1

  9
$DIMASO
 70
     1
  9
$DIMSHO
 70
     1
  9
$DIMPOST
  1
\X
  9
$DIMAPOST
  1

  9
$DIMALT
 70
     1
  9
$DIMALTD
 70
     2
  9
$DIMALTF
 40
25.399999999999999
  9
$DIMLFAC
 40
1.0
  9
$DIMTOFL
 70
     0
  9
$DIMTVP
 40
0.0
  9
$DIMTIX
 70
     0
  9
$DIMSOXD
 70
     0
  9
$DIMSAH
 70
     0
  9
$DIMBLK1
  1

  9
$DIMBLK2
  1

  9
$DIMSTYLE
  2
STANDARD
  9
$DIMCLRD
 70
     0
  9
$DIMCLRE
 70
     0
  9
$DIMCLRT
 70
     0
  9
$DIMTFAC
 40
1.0
  9
$DIMGAP
 40
0.09
  9
$LUNITS
 70
     2
  9
$LUPREC
 70
     4
  9
$SKETCHINC
 40
0.1
  9
$FILLETRAD
 40
0.0
  9
$AUNITS
 70
     0
  9
$AUPREC
 70
     0
  9
$MENU
  1
.
  9
$ELEVATION
 40
0.0
  9
$PELEVATION
 40
0.0
  9
$THICKNESS
 40
0.0
  9
$LIMCHECK
 70
     0
  9
$BLIPMODE
 70
     0
  9
$CHAMFERA
 40
0.0
  9
$CHAMFERB
 40
0.0
  9
$SKPOLY
 70
     0
  9
$TDCREATE
 40
2458177.3912233328
  9
$TDUPDATE
 40
2458177.7276386688
  9
$TDINDWG
 40
0.1454936227
  9
$TDUSRTIMER
 40
0.1454936227
  9
$USRTIMER
 70
     1
  9
$ANGBASE
 50
0.0
  9
$ANGDIR
 70
     0
  9
$PDMODE
 70
     0
  9
$PDSIZE
 40
0.3125
  9
$PLINEWID
 40
0.0
  9
$COORDS
 70
     1
  9
$SPLFRAME
 70
     0
  9
$SPLINETYPE
 70
     6
  9
$SPLINESEGS
 70
     8
  9
$ATTDIA
 70
     1
  9
$ATTREQ
 70
     1
  9
$HANDLING
 70
     1
  9
$HANDSEED
  5
150B
  9
$SURFTAB1
 70
     6
  9
$SURFTAB2
 70
     6
  9
$SURFTYPE
 70
     6
  9
$SURFU
 70
     6
  9
$SURFV
 70
     6
  9
$UCSNAME
  2

  9
$UCSORG
 10
0.0
 20
0.0
 30
0.0
  9
$UCSXDIR
 10
1.0
 20
0.0
 30
0.0
  9
$UCSYDIR
 10
0.0
 20
1.0
 30
0.0
  9
$PUCSNAME
  2

  9
$PUCSORG
 10
0.0
 20
0.0
 30
0.0
  9
$PUCSXDIR
 10
1.0
 20
0.0
 30
0.0
  9
$PUCSYDIR
 10
0.0
 20
1.0
 30
0.0
  9
$USERI1
 70
     0
  9
$USERI2
 70
     0
  9
$USERI3
 70
     0
  9
$USERI4
 70
     0
  9
$USERI5
 70
     0
  9
$USERR1
 40
0.0
  9
$USERR2
 40
0.0
  9
$USERR3
 40
0.0
  9
$USERR4
 40
0.0
  9
$USERR5
 40
0.0
  9
$WORLDVIEW
 70
     1
  9
$SHADEDGE
 70
     3
  9
$SHADEDIF
 70
    70
  9
$TILEMODE
 70
     1
  9
$MAXACTVP
 70
    64
  9
$PLIMCHECK
 70
     0
  9
$PEXTMIN
 10
1.0000000000000000E+020
 20
1.0000000000000000E+020
 30
1.0000000000000000E+020
  9
$PEXTMAX
 10
-1.0000000000000000E+020
 20
-1.0000000000000000E+020
 30
-1.0000000000000000E+020
  9
$PLIMMIN
 10
0.0
 20
0.0
  9
$PLIMMAX
 10
12.0
 20
9.0
  9
$UNITMODE
 70
     0
  9
$VISRETAIN
 70
     1
  9
$PLINEGEN
 70
     0
  9
$PSLTSCALE
 70
     1
  0
ENDSEC
  0
SECTION
  2
TABLES
  0
TABLE
  2
VPORT
 70
     1
  0
VPORT
  2
*ACTIVE
 70
     0
 10
0.0
 20
0.0
 11
1.0
 21
1.0
 12
0.0
 22
0.0
 13
0.0
 23
0.0
 14
1.0
 24
1.0
 15
0.0
 25
0.0
 16
-0.0000000000000142
 26
0.0
 36
47.099270171409529
 17
100.4077104448973
 27
6.1218920984049889
 37
0.0
 40
16.858325315073859
 41
2.0811403508771931
 42
50.0
 43
0.0
 44
0.0
 50
0.0
 51
0.0
 71
     0
 72
   100
 73
     1
 74
     1
 75
     0
 76
     0
 77
     0
 78
     0
  0
ENDTAB
  0
TABLE
  2
LTYPE
 70
     2
  0
LTYPE
  2
CONTINUOUS
 70
     0
  3
Solid line
 72
    65
 73
     0
 40
0.0
  0
LTYPE
  2
PHANTOM2
 70
     0
  3
___ _ _ ___ _ _ ___ _ _ ___ _ _
 72
    65
 73
     6
 40
1.25
 49
0.625
 49
-0.125
 49
0.125
 49
-0.125
 49
0.125
 49
-0.125
  0
ENDTAB
  0
TABLE
  2
LAYER
 70
     2
  0
LAYER
  2
0
 70
     0
 62
   255
  6
CONTINUOUS
  0
LAYER
  2
DEFPOINTS
 70
     0
 62
     7
  6
CONTINUOUS
  0
ENDTAB
  0
TABLE
  2
STYLE
 70
     1
  0
STYLE
  2
STANDARD
 70
     0
 40
0.0
 41
0.8
 50
0.0
 71
     0
 42
0.2
  3
txt
  4

  0
ENDTAB
  0
TABLE
  2
VIEW
 70
     0
  0
ENDTAB
  0
TABLE
  2
UCS
 70
     0
  0
ENDTAB
  0
TABLE
  2
APPID
 70
    10
  0
APPID
  2
ACAD
 70
     0
  0
APPID
  2
ACAD_MLEADERVER
 70
     0
  0
APPID
  2
ACAD_EXEMPT_FROM_CAD_STANDARDS
 70
     0
  0
APPID
  2
ACAD_DSTYLE_DIMJAG
 70
     0
  0
APPID
  2
ACAD_DSTYLE_DIMTALN
 70
     0
  0
APPID
  2
DCO15
 70
     0
  0
APPID
  2
ACAD_NAV_VCDISPLAY
 70
     0
  0
APPID
  2
ACAECLAYERSTANDARD
 70
     0
  0
APPID
  2
ACCMTRANSPARENCY
 70
     0
  0
APPID
  2
ACDBATTR
 70
     0
  0
ENDTAB
  0
TABLE
  2
DIMSTYLE
 70
     1
  0
DIMSTYLE
  2
STANDARD
 70
     0
  3

  4

  5

  6

  7

 40
1.0
 41
0.1875
 42
0.0625
 43
0.38
 44
0.125
 45
0.0
 46
0.0
 47
0.01
 48
0.01
140
0.15625
141
0.09
142
0.0
143
25.399999999999999
144
1.0
145
0.0
146
1.0
147
0.09
 71
     1
 72
     0
 73
     1
 74
     1
 75
     0
 76
     0
 77
     0
 78
     4
170
     0
171
     2
172
     0
173
     0
174
     0
175
     0
176
     0
177
     0
178
     0
  0
ENDTAB
  0
ENDSEC
  0
SECTION
  2
BLOCKS
  0
BLOCK
  8
0
  2
$MODEL_SPACE
 70
     0
 10
0.0
 20
0.0
 30
0.0
  3
$MODEL_SPACE
  1

  0
ENDBLK
  5
21
  8
0
  0
BLOCK
 67
     1
  8
0
  2
$PAPER_SPACE
 70
     0
 10
0.0
 20
0.0
 30
0.0
  3
$PAPER_SPACE
  1

  0
ENDBLK
  5
1D
 67
     1
  8
0
  0
ENDSEC
  0
SECTION
  2
ENTITIES
  0
ATTDEF
  5
11E2
  8
DEFPOINTS
 10
104.70794042414281
 20
-0.21181079253956
 30
0.0
 40
0.001
  1
METAL
  3

  2
MATERIAL
 70
     0
1001
ACDBATTR
1070
     0
1070
     1
  0
ATTDEF
  5
11E3
  8
DEFPOINTS
 10
104.70794042414281
 20
-0.2101441258728949
 30
0.0
 40
0.001
  1
KITCHEN SINK FAUCET
  3

  2
PRODUCT
 70
     0
1001
ACDBATTR
1070
     0
1070
     1
  0
ATTDEF
  5
11E4
  8
DEFPOINTS
 10
104.70794042414281
 20
-0.2084774592062297
 30
0.0
 40
0.001
  1
ELATE
  3

  2
TRADENAME
 70
     0
1001
ACDBATTR
1070
     0
1070
     1
  0
ATTDEF
  5
11E5
  8
DEFPOINTS
 10
104.70794042414281
 20
-0.2068107925395646
 30
0.0
 40
0.001
  1
K-13963
  3

  2
MODELNUMBER
 70
     0
1001
ACDBATTR
1070
     0
1070
     1
  0
LINE
  5
13BE
  8
0
 10
103.46166687052271
 20
-0.2187980162015433
 30
0.0
 11
105.96166687052271
 21
-0.2187980162015433
 31
0.0
  0
LINE
  5
13BF
  8
0
 10
94.853754019271875
 20
10.794109150230129
 30
0.0
 11
94.94654816938052
 21
12.40415246212781
 31
0.0
  0
LINE
  5
13C0
  8
0
 10
95.221072821122732
 20
10.73756728109845
 30
0.0
 11
95.210179233122744
 21
10.688625748398451
 31
0.0
  0
LINE
  5
13C1
  8
0
 10
95.373105858022726
 20
10.730800316298451
 30
0.0
 11
95.362212270022738
 21
10.68185878369845
 31
0.0
  0
LINE
  5
13C2
  8
0
 10
95.525932492522728
 20
10.72399802869846
 30
0.0
 11
95.515038904522726
 21
10.675056495998451
 31
0.0
  0
LINE
  5
13C3
  8
0
 10
95.636434802322739
 20
10.719079589598451
 30
0.0
 11
95.625541214322737
 21
10.67013805689845
 31
0.0
  0
LINE
  5
13C4
  8
0
 10
103.7216668705227
 20
0.4812019837984565
 30
0.0
 11
105.7016668705227
 21
0.4812019837984565
 31
0.0
  0
LINE
  5
13C5
  8
0
 10
103.7316768916227
 20
0.5412019837984561
 30
0.0
 11
105.6916568318227
 21
0.5412019837984561
 31
0.0
  0
LINE
  5
13C6
  8
0
 10
95.341903188022741
 20
10.653288555198451
 30
0.0
 11
95.34277849912273
 21
10.67295412429845
 31
0.0
  0
LINE
  5
13C7
  8
0
 10
95.788467839122745
 20
10.71231262489845
 30
0.0
 11
95.777574251122715
 21
10.663371092198449
 31
0.0
  0
LINE
  5
13C8
  8
0
 10
95.940500876022739
 20
10.70554566009845
 30
0.0
 11
95.929607288022737
 21
10.656604127398451
 31
0.0
  0
LINE
  5
13C9
  8
0
 10
96.051003185722735
 20
10.700627220998451
 30
0.0
 11
96.040109597722747
 21
10.65168568829845
 31
0.0
  0
LINE
  5
13CA
  8
0
 10
96.203829820322753
 20
10.693824933398449
 30
0.0
 11
96.192936232322737
 21
10.644883400698451
 31
0.0
  0
LINE
  5
13CB
  8
0
 10
96.243192398222732
 20
10.69207291169846
 30
0.0
 11
96.232298810222744
 21
10.643131378998451
 31
0.0
  0
LINE
  5
13CC
  8
0
 10
96.129401260522741
 20
10.63794167829845
 30
0.0
 11
96.128525949322736
 21
10.618276109198449
 31
0.0
  0
LINE
  5
13CD
  8
0
 10
96.35586285712273
 20
10.687057968598459
 30
0.0
 11
96.344969269122757
 21
10.63811643599845
 31
0.0
  0
LINE
  5
13CE
  8
0
 10
95.128078462222732
 20
10.692280039798449
 30
0.0
 11
95.121576096422714
 21
10.74199586349846
 31
0.0
  0
LINE
  5
13CF
  8
0
 10
95.240748921122716
 20
10.68726509679845
 30
0.0
 11
95.234246555322741
 21
10.736980920398461
 31
0.0
  0
LINE
  5
13D0
  8
0
 10
95.280111499022738
 20
10.685513075098459
 30
0.0
 11
95.273609133322736
 21
10.73522889869845
 31
0.0
  0
LINE
  5
13D1
  8
0
 10
95.432938133622727
 20
10.678710787398449
 30
0.0
 11
95.426435767822724
 21
10.728426611098451
 31
0.0
  0
LINE
  5
13D2
  8
0
 10
95.543440443322723
 20
10.67379234829845
 30
0.0
 11
95.536938077522734
 21
10.72350817199845
 31
0.0
  0
LINE
  5
13D3
  8
0
 10
95.695473480222745
 20
10.66702538359845
 30
0.0
 11
95.688971114422728
 21
10.716741207198449
 31
0.0
  0
LINE
  5
13D4
  8
0
 10
95.847506517022737
 20
10.660258418898451
 30
0.0
 11
95.841004151322736
 21
10.709974242498451
 31
0.0
  0
LINE
  5
13D5
  8
0
 10
95.958008826722732
 20
10.65533997979845
 30
0.0
 11
95.951506461022745
 21
10.70505580339845
 31
0.0
  0
LINE
  5
13D6
  8
0
 10
96.110835461322736
 20
10.648537692098451
 30
0.0
 11
96.104333095522733
 21
10.69825351569845
 31
0.0
  0
LINE
  5
13D7
  8
0
 10
96.26286849822273
 20
10.641770727398461
 30
0.0
 11
96.256366132422727
 21
10.69148655099845
 31
0.0
  0
LINE
  5
13D8
  8
0
 10
97.885281821122746
 20
10.847557381898451
 30
0.0
 11
97.889980495899167
 21
10.92332647934594
 31
0.0
  0
LINE
  5
13D9
  8
0
 10
98.303099982522752
 20
10.808983692798449
 30
0.0
 11
98.307631335115303
 21
10.910789350489781
 31
0.0
  0
LINE
  5
13DA
  8
0
 10
98.853735915522734
 20
10.78447498059845
 30
0.0
 11
98.857911420262582
 21
10.8782858231473
 31
0.0
  0
LINE
  5
13DB
  8
0
 10
100.1301765343007
 20
11.864157459023041
 30
0.0
 11
99.888065850735501
 21
10.725116125624339
 31
0.0
  0
LINE
  5
13DC
  8
0
 10
104.1216668705227
 20
5.2766133265984561
 30
0.0
 11
104.5089318966771
 21
5.2766133265984561
 31
0.0
  0
LINE
  5
13DD
  8
0
 10
104.91410241312271
 20
5.2766133265984561
 30
0.0
 11
105.29660718218101
 21
5.2766133265984561
 31
0.0
  0
LINE
  5
13DE
  8
0
 10
103.7216668705227
 20
0.5212019837984565
 30
0.0
 11
103.7216668705227
 21
0.4812019837984565
 31
0.0
  0
LINE
  5
13DF
  8
0
 10
103.46166687052271
 20
-0.2187980162015433
 30
0.0
 11
103.4696595364227
 21
-0.0746679082015436
 31
0.0
  0
LINE
  5
13E0
  8
0
 10
103.9316663894205
 20
3.5019093797624969
 30
0.0
 11
103.93166634767699
 21
3.9088452788445611
 31
0.0
  0
LINE
  5
13E1
  8
0
 10
104.1116668705227
 20
6.6635693373984557
 30
0.0
 11
104.1116668705227
 21
5.3266133265984559
 31
0.0
  0
LINE
  5
13E2
  8
0
 10
103.6731401669788
 20
0.4264314511390009
 30
0.0
 11
103.6528768139227
 21
0.1948202664984571
 31
0.0
  0
LINE
  5
13E3
  8
0
 10
104.6417793911227
 20
2.7812561277984562
 30
0.0
 11
104.6417793911227
 21
2.7855793754984561
 31
0.0
  0
LINE
  5
13E4
  8
0
 10
104.7815543883939
 20
2.785654624015526
 30
0.0
 11
104.7815549505227
 21
2.781247272698455
 31
0.0
  0
LINE
  5
13E5
  8
0
 10
95.351298316922737
 20
10.64301811509845
 30
0.0
 11
96.118255509222735
 21
10.60888098029845
 31
0.0
  0
LINE
  5
13E6
  8
0
 10
95.139264760822726
 20
10.682012486298451
 30
0.0
 11
95.240449287622738
 21
10.677508780098449
 31
0.0
  0
LINE
  5
13E7
  8
0
 10
95.251935219722739
 20
10.67699754319845
 30
0.0
 11
95.35015799972274
 21
10.672625663898449
 31
0.0
  0
LINE
  5
13E8
  8
0
 10
95.444124432222736
 20
10.668443233898451
 30
0.0
 11
95.502984634222742
 21
10.66582337629846
 31
0.0
  0
LINE
  5
13E9
  8
0
 10
95.554626741922732
 20
10.663524794798461
 30
0.0
 11
95.613486944022739
 21
10.660904937198451
 31
0.0
  0
LINE
  5
13EA
  8
0
 10
95.70665977882274
 20
10.65675783009846
 30
0.0
 11
95.765519980822731
 21
10.654137972398461
 31
0.0
  0
LINE
  5
13EB
  8
0
 10
95.858692815722733
 20
10.649990865298451
 30
0.0
 11
95.917553017722724
 21
10.64737100769845
 31
0.0
  0
LINE
  5
13EC
  8
0
 10
95.969195125422743
 20
10.64507242619845
 30
0.0
 11
96.028055327422734
 21
10.642452568598451
 31
0.0
  0
LINE
  5
13ED
  8
0
 10
96.122021759922731
 20
10.638270138598459
 30
0.0
 11
96.220244539922746
 21
10.63389825929845
 31
0.0
  0
LINE
  5
13EE
  8
0
 10
96.231730472022733
 20
10.63338702239845
 30
0.0
 11
96.332914998822744
 21
10.628883316198451
 31
0.0
  0
LINE
  5
13EF
  8
0
 10
94.882370424918875
 20
10.76241264090941
 30
0.0
 11
96.609089981522743
 21
10.685556665898449
 31
0.0
  0
LINE
  5
13F0
  8
0
 10
98.331563799622728
 20
10.778159979598451
 30
0.0
 11
98.822924595222744
 21
10.756289593698449
 31
0.0
  0
LINE
  5
13F1
  8
0
 10
97.373704703622735
 20
10.778043156398461
 30
0.0
 11
97.411078577471514
 21
10.771015810498961
 31
0.0
  0
LINE
  5
13F2
  8
0
 10
100.2488344683227
 20
10.64279744049845
 30
0.0
 11
101.0225224647227
 21
10.47834498019845
 31
0.0
  0
LINE
  5
13F3
  8
0
 10
100.20096491342269
 20
10.65808413149845
 30
0.0
 11
100.1576481137396
 21
10.66797683772058
 31
0.0
  0
LINE
  5
13F4
  8
0
 10
99.888065850735501
 20
10.725116125624339
 30
0.0
 11
100.0883165159227
 21
10.682551532698451
 31
0.0
  0
LINE
  5
13F5
  8
0
 10
100.1032667394697
 20
10.68538641776029
 30
0.0
 11
99.899244945022744
 21
10.729612407498459
 31
0.0
  0
LINE
  5
13F6
  8
0
 10
99.921560454822753
 20
10.738403940098451
 30
0.0
 11
100.0878455466227
 21
10.70305895269845
 31
0.0
  0
LINE
  5
13F7
  8
0
 10
105.7501935848227
 20
0.426431328398456
 30
0.0
 11
105.76994800302271
 21
0.2006335637984558
 31
0.0
  0
LINE
  5
13F8
  8
0
 10
105.3116668705227
 20
6.6635693373984557
 30
0.0
 11
105.3116668705227
 21
5.3266133265984559
 31
0.0
  0
LINE
  5
13F9
  8
0
 10
105.4916628197856
 20
3.5018910325027779
 30
0.0
 11
105.49168071689471
 21
3.9157571997206868
 31
0.0
  0
LINE
  5
13FA
  8
0
 10
96.839364347522746
 20
10.710883869198449
 30
0.0
 11
97.355109097522728
 21
10.778558211598449
 31
0.0
  0
LINE
  5
13FB
  8
0
 10
105.96166687052271
 20
-0.2187980162015433
 30
0.0
 11
105.9534775152227
 21
-0.0711210503015436
 31
0.0
  0
LINE
  5
13FC
  8
0
 10
105.7016668705227
 20
0.5212019837984565
 30
0.0
 11
105.7016668705227
 21
0.4812019837984565
 31
0.0
  0
LINE
  5
13FD
  8
0
 10
100.16575831302271
 20
11.887264536298449
 30
0.0
 11
101.2720164937227
 21
11.652122101098451
 31
0.0
  0
ARC
  5
13FE
  8
0
 10
95.010064216383924
 20
12.399036610214781
 30
0.0
 40
0.0637217401499324
 50
94.26107951715268
 51
175.39509556761209
  0
ARC
  5
13FF
  8
0
 10
94.88370438292273
 20
10.792383031698449
 30
0.0
 40
0.0300000628
 50
176.70154169259999
 51
267.45149294240059
  0
ARC
  5
1400
  8
0
 10
95.222535265522737
 20
10.735449264298451
 30
0.0
 40
0.0118110236
 50
7.4511137112999766
 51
87.451456656600158
  0
ARC
  5
1401
  8
0
 10
95.252460192422717
 20
10.68879689419845
 30
0.0
 40
0.0118110236
 50
187.4518050131999
 51
267.45249593359972
  0
ARC
  5
1402
  8
0
 10
95.384634758522736
 20
10.72823424329845
 30
0.0
 40
0.0118110236
 50
87.451456656600158
 51
167.45179957659991
  0
ARC
  5
1403
  8
0
 10
95.261897843522746
 20
10.733697242598449
 30
0.0
 40
0.0118110236
 50
7.4511137366998774
 51
87.451456656600158
  0
ARC
  5
1404
  8
0
 10
95.350683400422739
 20
10.68442499579845
 30
0.0
 40
0.0118110236
 50
267.4504173796002
 51
347.45110828550008
  0
ARC
  5
1405
  8
0
 10
95.291822770322739
 20
10.687044872498451
 30
0.0
 40
0.0118110236
 50
187.45180502779999
 51
267.45249593359972
  0
ARC
  5
1406
  8
0
 10
95.414724478022734
 20
10.72689495499846
 30
0.0
 40
0.0118110236
 50
7.4511137366998774
 51
87.451456656600158
  0
ARC
  5
1407
  8
0
 10
95.444649404922728
 20
10.680242584898449
 30
0.0
 40
0.0118110236
 50
187.45180502779999
 51
267.45249593359972
  0
ARC
  5
1408
  8
0
 10
95.240974688322737
 20
10.68930811199845
 30
0.0
 40
0.0118110236
 50
267.4504173796002
 51
296.65712316609978
  0
ARC
  5
1409
  8
0
 10
95.232601721722745
 20
10.735001207998449
 30
0.0
 40
0.0118110236
 50
112.7408334389002
 51
167.45179957659991
  0
ARC
  5
140A
  8
0
 10
95.109864806622724
 20
10.74046420729845
 30
0.0
 40
0.0118110236
 50
7.4511137366998774
 51
87.451456656600158
  0
ARC
  5
140B
  8
0
 10
95.198650363522731
 20
10.69119196059845
 30
0.0
 40
0.0118110236
 50
267.4504173796002
 51
347.45110828539998
  0
ARC
  5
140C
  8
0
 10
95.139789733522733
 20
10.693811837198449
 30
0.0
 40
0.0118110236
 50
187.45180502790001
 51
267.45249593359972
  0
ARC
  5
140D
  8
0
 10
95.351735972522718
 20
10.65285089959845
 30
0.0
 40
0.0098425197
 50
177.4514566565999
 51
267.4514566566001
  0
ARC
  5
140E
  8
0
 10
95.53746139312274
 20
10.721431955598449
 30
0.0
 40
0.0118110236
 50
118.7835505928003
 51
167.45179957659991
  0
ARC
  5
140F
  8
0
 10
95.503510034922726
 20
10.67762270819845
 30
0.0
 40
0.0118110236
 50
267.4504173796002
 51
347.45110828550008
  0
ARC
  5
1410
  8
0
 10
95.647963702822736
 20
10.716513516498461
 30
0.0
 40
0.0118110236
 50
87.451456656600158
 51
167.45179957659991
  0
ARC
  5
1411
  8
0
 10
95.525226787722744
 20
10.721976515898451
 30
0.0
 40
0.0118110236
 50
7.4511137366998774
 51
87.451456656600158
  0
ARC
  5
1412
  8
0
 10
95.614012344722738
 20
10.67270426909845
 30
0.0
 40
0.0118110236
 50
267.4504173796002
 51
347.45110828550008
  0
ARC
  5
1413
  8
0
 10
95.555151714622724
 20
10.67532414579845
 30
0.0
 40
0.0118110236
 50
187.45180502779999
 51
267.45249593359972
  0
ARC
  5
1414
  8
0
 10
95.799996739722715
 20
10.70974655179846
 30
0.0
 40
0.0118110236
 50
87.451456656600158
 51
167.45179957659991
  0
ARC
  5
1415
  8
0
 10
95.677259824622737
 20
10.71520955109845
 30
0.0
 40
0.0118110236
 50
7.4511137366998774
 51
87.451456656600158
  0
ARC
  5
1416
  8
0
 10
95.766045381522716
 20
10.665937304298451
 30
0.0
 40
0.0118110236
 50
267.4504173796002
 51
347.45110828550008
  0
ARC
  5
1417
  8
0
 10
95.707184751522746
 20
10.66855718099845
 30
0.0
 40
0.0118110236
 50
187.45180502779999
 51
267.45249593369999
  0
ARC
  5
1418
  8
0
 10
95.952029776522735
 20
10.702979587098451
 30
0.0
 40
0.0118110236
 50
87.451456656600158
 51
167.45179957659991
  0
ARC
  5
1419
  8
0
 10
95.829292861522731
 20
10.70844258639845
 30
0.0
 40
0.0118110236
 50
7.4511137366998774
 51
87.451456656600158
  0
ARC
  5
141A
  8
0
 10
95.918078418422724
 20
10.65917033959845
 30
0.0
 40
0.0118110236
 50
267.4504173796002
 51
347.45110828550008
  0
ARC
  5
141B
  8
0
 10
95.859217788322738
 20
10.661790216298449
 30
0.0
 40
0.0118110236
 50
187.45180502779999
 51
267.45249593359972
  0
ARC
  5
141C
  8
0
 10
96.092621805722743
 20
10.696721859598449
 30
0.0
 40
0.0118110236
 50
7.4511137366998774
 51
87.451456656600158
  0
ARC
  5
141D
  8
0
 10
95.969720098122735
 20
10.656871777198459
 30
0.0
 40
0.0118110236
 50
187.45180502779999
 51
267.45249593359972
  0
ARC
  5
141E
  8
0
 10
96.028580728122733
 20
10.65425190049845
 30
0.0
 40
0.0118110236
 50
267.4504173796002
 51
347.45110828550008
  0
ARC
  5
141F
  8
0
 10
95.939795171222727
 20
10.703524147298451
 30
0.0
 40
0.0118110236
 50
7.4511137366998774
 51
56.119362723100338
  0
ARC
  5
1420
  8
0
 10
96.062532086322733
 20
10.69806114799845
 30
0.0
 40
0.0118110236
 50
87.451456656600158
 51
167.45179957659991
  0
ARC
  5
1421
  8
0
 10
97.362792245622742
 20
10.72000502029845
 30
0.0
 40
0.0590551181
 50
79.351448355100032
 51
97.475446581000085
  0
ARC
  5
1422
  8
0
 10
97.421989962122737
 20
10.829054146198461
 30
0.0
 40
0.059055116
 50
259.3525030047
 51
283.48633866940003
  0
ARC
  5
1423
  8
0
 10
96.232255444622737
 20
10.645186373298451
 30
0.0
 40
0.0118110236
 50
238.24579014710031
 51
267.45249593359972
  0
ARC
  5
1424
  8
0
 10
96.274579769522731
 20
10.64330252479845
 30
0.0
 40
0.0118110236
 50
187.45180502790001
 51
267.45249593359972
  0
ARC
  5
1425
  8
0
 10
96.333440399522743
 20
10.64068264809845
 30
0.0
 40
0.0118110236
 50
267.4504173796002
 51
347.45110828539998
  0
ARC
  5
1426
  8
0
 10
96.244654842622737
 20
10.689954894898451
 30
0.0
 40
0.0118110236
 50
7.4511137366998774
 51
62.162089280599673
  0
ARC
  5
1427
  8
0
 10
96.367391757722757
 20
10.68449189559845
 30
0.0
 40
0.0118110236
 50
87.451456656600158
 51
167.45179957659991
  0
ARC
  5
1428
  8
0
 10
96.220769940622745
 20
10.64569759119845
 30
0.0
 40
0.0118110236
 50
267.4504173796002
 51
347.45110828539998
  0
ARC
  5
1429
  8
0
 10
96.254721298822744
 20
10.689506838598451
 30
0.0
 40
0.0118110236
 50
87.451456656600158
 51
167.45179957659991
  0
ARC
  5
142A
  8
0
 10
96.122546732622737
 20
10.650069489498449
 30
0.0
 40
0.0118110236
 50
187.45180502779999
 51
267.45249593359972
  0
ARC
  5
142B
  8
0
 10
96.181407362722723
 20
10.64744961289845
 30
0.0
 40
0.0118110236
 50
267.4504173796002
 51
347.45110828550008
  0
ARC
  5
142C
  8
0
 10
96.215358720822735
 20
10.691258860298451
 30
0.0
 40
0.0118110236
 50
87.451456656600158
 51
167.45179957659991
  0
ARC
  5
142D
  8
0
 10
96.11869316482273
 20
10.61871376479845
 30
0.0
 40
0.0098425197
 50
267.4514566566001
 51
357.45145665659999
  0
ARC
  5
142E
  8
0
 10
100.21166687052271
 20
6.6635693373984557
 30
0.0
 40
5.0999999999999988
 50
0.0
 51
77.999999999999559
  0
ARC
  5
142F
  8
0
 10
100.21166687052271
 20
6.6635693373984557
 30
0.0
 40
3.8999999999999999
 50
0.0
 51
77.999999999999559
  0
ARC
  5
1430
  8
0
 10
99.947474686468567
 20
10.105108226568641
 30
0.0
 40
0.6008277148658912
 50
69.524521049420315
 51
74.971723415067743
  0
ARC
  5
1431
  8
0
 10
100.1595209623227
 20
11.857920108298449
 30
0.0
 40
0.03
 50
77.999999999999559
 51
167.99999999989981
  0
ARC
  5
1432
  8
0
 10
100.10077001669811
 20
11.87010764716775
 30
0.0
 40
0.0300024668397593
 50
348.56107288783068
 51
77.79992504959425
  0
ARC
  5
1433
  8
0
 10
98.824237561922743
 20
10.78578794729845
 30
0.0
 40
0.0295275591
 50
267.4514566566001
 51
357.45145665659999
  0
ARC
  5
1434
  8
0
 10
98.332600584309162
 20
10.80767154211496
 30
0.0
 40
0.0295297687876456
 50
177.45323254225141
 51
267.98794232308097
  0
ARC
  5
1435
  8
0
 10
100.09240926572269
 20
10.70180640679845
 30
0.0
 40
0.0196850394
 50
257.9999999999996
 51
303.47407846960022
  0
ARC
  5
1436
  8
0
 10
103.7329118381227
 20
0.421201983798456
 30
0.0
 40
0.06
 50
90.0
 51
174.99988231000009
  0
ARC
  5
1437
  8
0
 10
103.74166687052271
 20
0.5212019837984565
 30
0.0
 40
0.02
 50
89.999990007900209
 51
180.0
  0
ARC
  5
1438
  8
0
 10
105.6904219029098
 20
0.4212019837651502
 30
0.0
 40
0.0600000000333193
 50
5.0000000628278682
 51
89.999999987623809
  0
ARC
  5
1439
  8
0
 10
105.6816668705227
 20
0.5212019837984565
 30
0.0
 40
0.02
 50
0.0
 51
90.000009992099777
  0
ARC
  5
143A
  8
0
 10
105.2898072068167
 20
5.2547592275822259
 30
0.0
 40
0.0218534413093497
 50
5.0369298694274889
 51
91.835652286983475
  0
ARC
  5
143B
  8
0
 10
103.5994636370871
 20
-0.0818028874500829
 30
0.0
 40
0.1300000479929895
 50
123.4739997826325
 51
176.85377257075751
  0
ARC
  5
143C
  8
0
 10
103.4451909773382
 20
0.2186905481347789
 30
0.0
 40
0.2090530962775059
 50
293.26419978433262
 51
353.44350374511339
  0
ARC
  5
143D
  8
0
 10
105.8220322587557
 20
-0.079148109850459
 30
0.0
 40
0.1316901254183209
 50
3.4945817399306089
 51
53.919190446299929
  0
ARC
  5
143E
  8
0
 10
105.9892757159628
 20
0.2295056782119769
 30
0.0
 40
0.2212199011261088
 50
187.4992484500483
 51
246.0823282042615
  0
ARC
  5
143F
  8
0
 10
103.73155956548661
 20
0.5610847222022919
 30
0.0
 40
0.0198830845913416
 50
179.61704772037211
 51
270.33810537710838
  0
ARC
  5
1440
  8
0
 10
105.6916568313214
 20
0.5612019831028299
 30
0.0
 40
0.0199999993043738
 50
270.00000143624692
 51
0.0348659050715756
  0
LINE
  5
1441
  8
0
 10
104.1216668705227
 20
5.286613326598455
 30
0.0
 11
104.1216668705227
 21
5.2766133265984561
 31
0.0
  0
LINE
  5
1442
  8
0
 10
104.13166687052269
 20
5.3066133265984554
 30
0.0
 11
104.5103037212516
 21
5.3066133265984554
 31
0.0
  0
LINE
  5
1443
  8
0
 10
104.91280054938051
 20
5.3066797901380758
 30
0.0
 11
105.2916668705227
 21
5.3066133265984554
 31
0.0
  0
LINE
  5
1444
  8
0
 10
105.29660718218101
 20
5.2866014541759121
 30
0.0
 11
105.29660718218101
 21
5.2766133265984561
 31
0.0
  0
ARC
  5
1445
  8
0
 10
104.1416668705227
 20
5.286613326598455
 30
0.0
 40
0.02
 50
90.0
 51
180.0
  0
ARC
  5
1446
  8
0
 10
105.276607182181
 20
5.2866014541759121
 30
0.0
 40
0.02
 50
0.0
 51
90.0
  0
ARC
  5
1447
  8
0
 10
104.13166687052269
 20
5.3266133265984559
 30
0.0
 40
0.02
 50
180.0
 51
270.0
  0
ARC
  5
1448
  8
0
 10
105.2916668705227
 20
5.3266133265984559
 30
0.0
 40
0.02
 50
270.0
 51
0.0
  0
ARC
  5
1449
  8
0
 10
104.76907617558859
 20
7.6157469819800587
 30
0.0
 40
0.0199937112528678
 50
3.9641135218130938
 51
89.402475930490979
  0
ARC
  5
144A
  8
0
 10
104.6563243862818
 20
7.6157994865336436
 30
0.0
 40
0.0199401217849177
 50
89.972333697093362
 51
175.97018139069431
  0
ARC
  5
144B
  8
0
 10
236.9853081839556
 20
-0.7661669258241238
 30
0.0
 40
132.61412242814731
 50
176.37555879720051
 51
177.39683059159469
  0
ARC
  5
144C
  8
0
 10
-9.3195479814188786
 20
0.3454113628178224
 30
0.0
 40
114.3400351376102
 50
2.4717914349209629
 51
3.646317844921164
  0
ARC
  5
144D
  8
0
 10
106.7219634506951
 20
5.4037657772552752
 30
0.0
 40
1.812327033644981
 50
184.0231640158797
 51
197.2841106895429
  0
ARC
  5
144E
  8
0
 10
102.6999472380369
 20
5.400618259115892
 30
0.0
 40
1.813788594369721
 50
342.52838274934572
 51
355.4564007443048
  0
ARC
  5
144F
  8
0
 10
104.13218373893
 20
5.256402394796603
 30
0.0
 40
0.0204281186260975
 50
98.362299356957337
 51
179.22695696372051
  0
ARC
  5
1450
  8
0
 10
114.5436214275629
 20
5.3539283002025089
 30
0.0
 40
9.2325573742540872
 50
180.60353156915249
 51
186.08305988445741
  0
ARC
  5
1451
  8
0
 10
114.5436214275629
 20
5.3539283002025089
 30
0.0
 40
9.2325573742540872
 50
186.33821056338761
 51
186.33898278542659
  0
ARC
  5
1452
  8
0
 10
94.9896635619655
 20
5.3503295789668464
 30
0.0
 40
9.1225746398565342
 50
353.59868701441201
 51
353.60271500643978
  0
ARC
  5
1453
  8
0
 10
94.9896635619655
 20
5.3503295789668464
 30
0.0
 40
9.1225746398565342
 50
353.89758213168369
 51
359.41179608113208
  0
ARC
  5
1454
  8
0
 10
104.7107870545701
 20
3.8294030910476851
 30
0.0
 40
0.7571007654026217
 50
199.15628571499241
 51
338.03115166132272
  0
ARC
  5
1455
  8
0
 10
104.83639974995241
 20
3.9151087363645289
 30
0.0
 40
0.9047550829329066
 50
149.04041744086831
 51
201.67376171183591
  0
ARC
  5
1456
  8
0
 10
86.415718920741853
 20
18.473360606211148
 30
0.0
 40
22.582013512782112
 50
321.38584938920548
 51
322.91383295554999
  0
ARC
  5
1457
  8
0
 10
103.21454381282609
 20
5.4761166010409559
 30
0.0
 40
1.364531836371478
 50
332.97296455111911
 51
356.63647917981672
  0
ARC
  5
1458
  8
0
 10
89.445209967392486
 20
7.2591673683692033
 30
0.0
 40
15.24578383412841
 50
352.98063130625712
 51
1.415354870216718
  0
ARC
  5
1459
  8
0
 10
120.1924428580662
 20
7.262834659020978
 30
0.0
 40
15.45812066638136
 50
178.61768756214289
 51
186.89518919422869
  0
ARC
  5
145A
  8
0
 10
105.999747643551
 20
5.4261982821107031
 30
0.0
 40
1.1537826239552269
 50
180.95175184349009
 51
222.0440460083031
  0
ARC
  5
145B
  8
0
 10
104.27399602345869
 20
3.7391890448796188
 30
0.0
 40
1.261347472418298
 50
23.348672274765281
 51
46.45843737303332
  0
ARC
  5
145C
  8
0
 10
104.5852258705449
 20
3.9157571997206868
 30
0.0
 40
0.9064548463497715
 50
335.93778667500362
 51
20.897917117501621
  0
ARC
  5
145D
  8
0
 10
120.314708948731
 20
0.7290386111915872
 30
0.0
 40
16.603880156978999
 50
170.5035658652931
 51
180.57911755617471
  0
ARC
  5
145E
  8
0
 10
89.307487695793014
 20
0.7443985110598224
 30
0.0
 40
16.405191903526369
 50
359.36020811347692
 51
9.5579018356407861
  0
ARC
  5
145F
  8
0
 10
104.71166623814131
 20
3.6407936332877031
 30
0.0
 40
0.7922680101339882
 50
190.09609257969089
 51
349.90255969857469
  0
ARC
  5
1460
  8
0
 10
104.71207282051409
 20
3.5283461483653311
 30
0.0
 40
0.7712072675362889
 50
186.92305562883681
 51
263.77352631542652
  0
ARC
  5
1461
  8
0
 10
104.7120624688245
 20
3.5283410689858239
 30
0.0
 40
0.7711963790814048
 50
276.16587731776178
 51
353.48099212672918
  0
ARC
  5
1462
  8
0
 10
105.0168186903155
 20
2.769459625941125
 30
0.0
 40
0.3884681365068603
 50
177.41887657348269
 51
184.26960906978911
  0
ARC
  5
1463
  8
0
 10
104.3994487290778
 20
2.7696271661860048
 30
0.0
 40
0.3955273600898117
 50
355.782393581402
 51
2.5107098971006891
  0
ARC
  5
1464
  8
0
 10
104.7116668525839
 20
3.2603435472968711
 30
0.0
 40
0.5262705235959237
 50
261.00977051302101
 51
278.9902196634348
  0
ARC
  5
1465
  8
0
 10
104.711666562999
 20
3.5535706755459691
 30
0.0
 40
0.7885835538475748
 50
266.30836258077881
 51
273.6917137763009
  0
ARC
  5
1466
  8
0
 10
104.6594585722283
 20
2.784549483514799
 30
0.0
 40
0.0179833155018115
 50
190.5523573930455
 51
274.57279716449818
  0
ARC
  5
1467
  8
0
 10
104.7642422315452
 20
2.784072586456888
 30
0.0
 40
0.0175417398289852
 50
264.10919123006568
 51
350.73143608794322
  0
ARC
  5
1468
  8
0
 10
104.71167126811019
 20
3.5533659616933502
 30
0.0
 40
0.77088543150047
 50
191.02964823607979
 51
348.97694455045752
  0
ARC
  5
1469
  8
0
 10
104.7147891141843
 20
2.7796117224866381
 30
0.0
 40
0.2571962357527537
 50
72.860087147416351
 51
111.6529333073762
  0
ARC
  5
146A
  8
0
 10
104.71142390181519
 20
3.1380414998366621
 30
0.0
 40
0.1782407882497671
 50
244.2387541062341
 51
296.04046531099249
  0
ARC
  5
146B
  8
0
 10
104.6480777140417
 20
3.0122692113592122
 30
0.0
 40
0.0375130076182615
 50
192.4452057326844
 51
247.8870046601979
  0
ARC
  5
146C
  8
0
 10
104.6299129679566
 20
3.003113405718044
 30
0.0
 40
0.0184978631863623
 50
122.8167518011599
 51
176.67914496093431
  0
ARC
  5
146D
  8
0
 10
104.7846883378928
 20
2.998736645899478
 30
0.0
 40
0.0272935972191372
 50
11.38225396506607
 51
77.520098567517607
  0
ARC
  5
146E
  8
0
 10
104.77548194200141
 20
3.0118258862342921
 30
0.0
 40
0.036778845919306
 50
292.69581753541632
 51
347.91080402435517
  0
ARC
  5
146F
  8
0
 10
104.7161117486749
 20
-2.0816830511827402
 30
0.0
 40
2.4243924497767888
 50
62.397237046245984
 51
117.85465279136621
  0
ARC
  5
1470
  8
0
 10
99.952349661976996
 20
10.09590894376937
 30
0.0
 40
0.6220854186512611
 50
61.536537970087423
 51
77.419614751750757
  0
ARC
  5
1471
  8
0
 10
99.928274466894422
 20
10.7680909427761
 30
0.0
 40
0.0304367555345371
 50
171.0008317217511
 51
257.25637253987497
  0
ARC
  5
1472
  8
0
 10
99.902270438454792
 20
10.751191476664131
 30
0.0
 40
0.0217901316325565
 50
235.11776389381609
 51
262.0188699809629
  0
ARC
  5
1473
  8
0
 10
100.20300959656799
 20
10.667918762081641
 30
0.0
 40
0.0100449334429013
 50
258.25515418870361
 51
321.86073647504162
  0
ARC
  5
1474
  8
0
 10
99.863237454817977
 20
10.759863211614221
 30
0.0
 40
0.0342412130025083
 50
262.61473331243548
 51
324.96130944607353
  0
ARC
  5
1475
  8
0
 10
94.104462408713644
 20
-18.409281020091431
 30
0.0
 40
30.897409257401229
 50
78.797524202224039
 51
85.417376274712893
  0
ARC
  5
1476
  8
0
 10
93.252183717701186
 20
-41.888524384689099
 30
0.0
 40
54.379373928919222
 50
86.498843028595431
 51
88.152511485753465
  0
ARC
  5
1477
  8
0
 10
96.610421460458994
 20
10.71553424362361
 30
0.0
 40
0.0300071325258737
 50
267.45683199109988
 51
312.04433024410758
  0
ARC
  5
1478
  8
0
 10
97.178403035402056
 20
10.161434489667551
 30
0.0
 40
0.7635486605211954
 50
99.494395943436103
 51
135.8527121562191
  0
ARC
  5
1479
  8
0
 10
97.753053341829997
 20
6.2030764797598428
 30
0.0
 40
4.763252537039083
 50
91.621090450280946
 51
98.457981227706696
  0
ARC
  5
147A
  8
0
 10
97.651148612426937
 20
10.263009768723141
 30
0.0
 40
0.702181477177094
 50
65.172640468093306
 51
92.681086225960428
  0
ARC
  5
147B
  8
0
 10
96.979299745486344
 20
-18.503217512096981
 30
0.0
 40
29.419397411883342
 50
87.499801473947116
 51
88.116993217422717
  0
ARC
  5
147C
  8
0
 10
98.551746543366107
 20
10.369291563734221
 30
0.0
 40
0.593979871679591
 50
53.525580764090861
 51
119.12378643076551
  0
ARC
  5
147D
  8
0
 10
98.011356196741616
 20
-0.0171742984660224
 30
0.0
 40
10.900777825885079
 50
80.242327882954925
 51
85.298436730725086
  0
ARC
  5
147E
  8
0
 10
97.609002538756471
 20
11.01264221855587
 30
0.0
 40
0.8543029483925719
 50
193.5868847788129
 51
199.02853818431041
  0
ARC
  5
147F
  8
0
 10
96.834815679318623
 20
10.74611738790882
 30
0.0
 40
0.0355259232553424
 50
199.7611365169457
 51
277.35623058244238
  0
ARC
  5
1480
  8
0
 10
97.788577231784558
 20
9.8486114834660299
 30
0.0
 40
0.9881481450583362
 50
96.092134655587955
 51
110.91892076565659
  0
ARC
  5
1481
  8
0
 10
97.681080448102691
 20
10.059051482230499
 30
0.0
 40
0.7721320706303373
 50
78.563578101602943
 51
89.80506249928348
  0
ARC
  5
1482
  8
0
 10
97.847698104900786
 20
10.8510997025006
 30
0.0
 40
0.0377502815923442
 50
249.015479205037
 51
354.61569434905658
  0
LINE
  5
1484
  8
0
 10
104.65633401472979
 20
7.6357396059939262
 30
0.0
 11
104.7692846814714
 21
7.6357396059939262
 31
0.0
  0
ENDSEC
  0
EOF
