  0
SECTION
  2
HEADER
  9
$ACADVER
  1
AC1009
  9
$INSBASE
 10
81.545114289530019
 20
-6.7455651774723107
 30
0.0
  9
$EXTMIN
 10
76.29423573925348
 20
-6.7532001161328132
 30
0.0
  9
$EXTMAX
 10
86.795992839806544
 20
5.9358150517407431
 30
0.0
  9
$LIMMIN
 10
0.0
 20
0.0
  9
$LIMMAX
 10
11.692913385800001
 20
8.2677165353999982
  9
$ORTHOMODE
 70
     0
  9
$REGENMODE
 70
     1
  9
$FILLMODE
 70
     1
  9
$QTEXTMODE
 70
     0
  9
$MIRRTEXT
 70
     0
  9
$DRAGMODE
 70
     2
  9
$LTSCALE
 40
0.6431102362
  9
$OSMODE
 70
  3071
  9
$ATTMODE
 70
     1
  9
$TEXTSIZE
 40
0.2
  9
$TRACEWID
 40
0.05
  9
$TEXTSTYLE
  7
STANDARD
  9
$CLAYER
  8
0
  9
$CELTYPE
  6
BYLAYER
  9
$CECOLOR
 62
   256
  9
$DIMSCALE
 40
1.0
  9
$DIMASZ
 40
0.1875
  9
$DIMEXO
 40
0.0625
  9
$DIMDLI
 40
0.4443307087
  9
$DIMRND
 40
0.0
  9
$DIMDLE
 40
0.0
  9
$DIMEXE
 40
0.125
  9
$DIMTP
 40
0.01
  9
$DIMTM
 40
0.01
  9
$DIMTXT
 40
1.0
  9
$DIMCEN
 40
0.1052362205
  9
$DIMTSZ
 40
0.0
  9
$DIMTOL
 70
     1
  9
$DIMLIM
 70
     0
  9
$DIMTIH
 70
     1
  9
$DIMTOH
 70
     1
  9
$DIMSE1
 70
     0
  9
$DIMSE2
 70
     0
  9
$DIMTAD
 70
     0
  9
$DIMZIN
 70
     0
  9
$DIMBLK
  1

  9
$DIMASO
 70
     1
  9
$DIMSHO
 70
     1
  9
$DIMPOST
  1
\X
  9
$DIMAPOST
  1

  9
$DIMALT
 70
     1
  9
$DIMALTD
 70
     2
  9
$DIMALTF
 40
25.399999999999999
  9
$DIMLFAC
 40
1.0
  9
$DIMTOFL
 70
     0
  9
$DIMTVP
 40
0.0
  9
$DIMTIX
 70
     0
  9
$DIMSOXD
 70
     0
  9
$DIMSAH
 70
     0
  9
$DIMBLK1
  1

  9
$DIMBLK2
  1

  9
$DIMSTYLE
  2
STANDARD
  9
$DIMCLRD
 70
     0
  9
$DIMCLRE
 70
     0
  9
$DIMCLRT
 70
     0
  9
$DIMTFAC
 40
1.0
  9
$DIMGAP
 40
0.09
  9
$LUNITS
 70
     2
  9
$LUPREC
 70
     4
  9
$SKETCHINC
 40
0.1
  9
$FILLETRAD
 40
0.0
  9
$AUNITS
 70
     0
  9
$AUPREC
 70
     0
  9
$MENU
  1
.
  9
$ELEVATION
 40
0.0
  9
$PELEVATION
 40
0.0
  9
$THICKNESS
 40
0.0
  9
$LIMCHECK
 70
     0
  9
$BLIPMODE
 70
     0
  9
$CHAMFERA
 40
0.0
  9
$CHAMFERB
 40
0.0
  9
$SKPOLY
 70
     0
  9
$TDCREATE
 40
2458177.3912233328
  9
$TDUPDATE
 40
2458177.7278026738
  9
$TDINDWG
 40
0.1426128009
  9
$TDUSRTIMER
 40
0.1426128009
  9
$USRTIMER
 70
     1
  9
$ANGBASE
 50
0.0
  9
$ANGDIR
 70
     0
  9
$PDMODE
 70
     0
  9
$PDSIZE
 40
0.3125
  9
$PLINEWID
 40
0.0
  9
$COORDS
 70
     1
  9
$SPLFRAME
 70
     0
  9
$SPLINETYPE
 70
     6
  9
$SPLINESEGS
 70
     8
  9
$ATTDIA
 70
     1
  9
$ATTREQ
 70
     1
  9
$HANDLING
 70
     1
  9
$HANDSEED
  5
149D
  9
$SURFTAB1
 70
     6
  9
$SURFTAB2
 70
     6
  9
$SURFTYPE
 70
     6
  9
$SURFU
 70
     6
  9
$SURFV
 70
     6
  9
$UCSNAME
  2

  9
$UCSORG
 10
0.0
 20
0.0
 30
0.0
  9
$UCSXDIR
 10
1.0
 20
0.0
 30
0.0
  9
$UCSYDIR
 10
0.0
 20
1.0
 30
0.0
  9
$PUCSNAME
  2

  9
$PUCSORG
 10
0.0
 20
0.0
 30
0.0
  9
$PUCSXDIR
 10
1.0
 20
0.0
 30
0.0
  9
$PUCSYDIR
 10
0.0
 20
1.0
 30
0.0
  9
$USERI1
 70
     0
  9
$USERI2
 70
     0
  9
$USERI3
 70
     0
  9
$USERI4
 70
     0
  9
$USERI5
 70
     0
  9
$USERR1
 40
0.0
  9
$USERR2
 40
0.0
  9
$USERR3
 40
0.0
  9
$USERR4
 40
0.0
  9
$USERR5
 40
0.0
  9
$WORLDVIEW
 70
     1
  9
$SHADEDGE
 70
     3
  9
$SHADEDIF
 70
    70
  9
$TILEMODE
 70
     1
  9
$MAXACTVP
 70
    64
  9
$PLIMCHECK
 70
     0
  9
$PEXTMIN
 10
1.0000000000000000E+020
 20
1.0000000000000000E+020
 30
1.0000000000000000E+020
  9
$PEXTMAX
 10
-1.0000000000000000E+020
 20
-1.0000000000000000E+020
 30
-1.0000000000000000E+020
  9
$PLIMMIN
 10
0.0
 20
0.0
  9
$PLIMMAX
 10
12.0
 20
9.0
  9
$UNITMODE
 70
     0
  9
$VISRETAIN
 70
     1
  9
$PLINEGEN
 70
     0
  9
$PSLTSCALE
 70
     1
  0
ENDSEC
  0
SECTION
  2
TABLES
  0
TABLE
  2
VPORT
 70
     1
  0
VPORT
  2
*ACTIVE
 70
     0
 10
0.0
 20
0.0
 11
1.0
 21
1.0
 12
0.0
 22
0.0
 13
0.0
 23
0.0
 14
1.0
 24
1.0
 15
0.0
 25
0.0
 16
-0.0000000000000142
 26
0.0
 36
46.001072345394313
 17
81.545114289530019
 27
-0.4048750628657843
 37
0.0
 40
16.468031127841162
 41
2.0811403508771931
 42
50.0
 43
0.0
 44
0.0
 50
0.0
 51
0.0
 71
     0
 72
   100
 73
     1
 74
     1
 75
     0
 76
     0
 77
     0
 78
     0
  0
ENDTAB
  0
TABLE
  2
LTYPE
 70
     2
  0
LTYPE
  2
CONTINUOUS
 70
     0
  3
Solid line
 72
    65
 73
     0
 40
0.0
  0
LTYPE
  2
PHANTOM2
 70
     0
  3
___ _ _ ___ _ _ ___ _ _ ___ _ _
 72
    65
 73
     6
 40
1.25
 49
0.625
 49
-0.125
 49
0.125
 49
-0.125
 49
0.125
 49
-0.125
  0
ENDTAB
  0
TABLE
  2
LAYER
 70
     2
  0
LAYER
  2
0
 70
     0
 62
   255
  6
CONTINUOUS
  0
LAYER
  2
DEFPOINTS
 70
     0
 62
     7
  6
CONTINUOUS
  0
ENDTAB
  0
TABLE
  2
STYLE
 70
     1
  0
STYLE
  2
STANDARD
 70
     0
 40
0.0
 41
0.8
 50
0.0
 71
     0
 42
0.2
  3
txt
  4

  0
ENDTAB
  0
TABLE
  2
VIEW
 70
     0
  0
ENDTAB
  0
TABLE
  2
UCS
 70
     0
  0
ENDTAB
  0
TABLE
  2
APPID
 70
    10
  0
APPID
  2
ACAD
 70
     0
  0
APPID
  2
ACAD_MLEADERVER
 70
     0
  0
APPID
  2
ACAD_EXEMPT_FROM_CAD_STANDARDS
 70
     0
  0
APPID
  2
ACAD_DSTYLE_DIMJAG
 70
     0
  0
APPID
  2
ACAD_DSTYLE_DIMTALN
 70
     0
  0
APPID
  2
DCO15
 70
     0
  0
APPID
  2
ACAD_NAV_VCDISPLAY
 70
     0
  0
APPID
  2
ACAECLAYERSTANDARD
 70
     0
  0
APPID
  2
ACCMTRANSPARENCY
 70
     0
  0
APPID
  2
ACDBATTR
 70
     0
  0
ENDTAB
  0
TABLE
  2
DIMSTYLE
 70
     1
  0
DIMSTYLE
  2
STANDARD
 70
     0
  3

  4

  5

  6

  7

 40
1.0
 41
0.1875
 42
0.0625
 43
0.38
 44
0.125
 45
0.0
 46
0.0
 47
0.01
 48
0.01
140
0.15625
141
0.09
142
0.0
143
25.399999999999999
144
1.0
145
0.0
146
1.0
147
0.09
 71
     1
 72
     0
 73
     1
 74
     1
 75
     0
 76
     0
 77
     0
 78
     4
170
     0
171
     2
172
     0
173
     0
174
     0
175
     0
176
     0
177
     0
178
     0
  0
ENDTAB
  0
ENDSEC
  0
SECTION
  2
BLOCKS
  0
BLOCK
  8
0
  2
$MODEL_SPACE
 70
     0
 10
0.0
 20
0.0
 30
0.0
  3
$MODEL_SPACE
  1

  0
ENDBLK
  5
21
  8
0
  0
BLOCK
 67
     1
  8
0
  2
$PAPER_SPACE
 70
     0
 10
0.0
 20
0.0
 30
0.0
  3
$PAPER_SPACE
  1

  0
ENDBLK
  5
1D
 67
     1
  8
0
  0
ENDSEC
  0
SECTION
  2
ENTITIES
  0
ATTDEF
  5
11E2
  8
DEFPOINTS
 10
81.539106589180335
 20
-6.7532001161328132
 30
0.0
 40
0.001
  1
METAL
  3

  2
MATERIAL
 70
     0
1001
ACDBATTR
1070
     0
1070
     1
  0
ATTDEF
  5
11E3
  8
DEFPOINTS
 10
81.539106589180335
 20
-6.7515334494661481
 30
0.0
 40
0.001
  1
KITCHEN SINK FAUCET
  3

  2
PRODUCT
 70
     0
1001
ACDBATTR
1070
     0
1070
     1
  0
ATTDEF
  5
11E4
  8
DEFPOINTS
 10
81.539106589180335
 20
-6.749866782799482
 30
0.0
 40
0.001
  1
ELATE
  3

  2
TRADENAME
 70
     0
1001
ACDBATTR
1070
     0
1070
     1
  0
ATTDEF
  5
11E5
  8
DEFPOINTS
 10
81.539106589180335
 20
-6.7482001161328169
 30
0.0
 40
0.001
  1
K-13963
  3

  2
MODELNUMBER
 70
     0
1001
ACDBATTR
1070
     0
1070
     1
  0
LINE
  5
1345
  8
0
 10
76.29423573925348
 20
-6.7455651774723107
 30
0.0
 11
86.795992839806544
 21
-6.7455651774723107
 31
0.0
  0
LINE
  5
1346
  8
0
 10
80.555112800837179
 20
-6.0455651774723123
 30
0.0
 11
82.535112800837183
 21
-6.0455651774723123
 31
0.0
  0
LINE
  5
1347
  8
0
 10
82.515104828337186
 20
-5.9855651774723118
 30
0.0
 11
82.472150110037177
 21
-5.9855651774723118
 31
0.0
  0
LINE
  5
1348
  8
0
 10
80.565122814037167
 20
-5.9855651774723118
 30
0.0
 11
82.525102787637181
 21
-5.9855651774723118
 31
0.0
  0
LINE
  5
1349
  8
0
 10
76.299755751037182
 20
-6.6462995938723122
 30
0.0
 11
76.29423573925348
 21
-6.7455651774723107
 31
0.0
  0
LINE
  5
134A
  8
0
 10
81.01655653653718
 20
4.1451837720276874
 30
0.0
 11
81.025262844437165
 21
4.194509341127687
 31
0.0
  0
LINE
  5
134B
  8
0
 10
80.555112800837179
 20
-6.0055651774723122
 30
0.0
 11
80.555112800837179
 21
-6.0455651774723123
 31
0.0
  0
LINE
  5
134C
  8
0
 10
80.945112800837194
 20
-1.2001538346723111
 30
0.0
 11
80.945112800837194
 21
4.1216924641663359
 31
0.0
  0
LINE
  5
134D
  8
0
 10
80.955112800837185
 20
-1.240153834672312
 30
0.0
 11
80.955112800837185
 21
-1.250153834672312
 31
0.0
  0
LINE
  5
134E
  8
0
 10
80.680298959237177
 20
5.840187809627686
 30
0.0
 11
80.659172437298125
 21
4.2279285490746128
 31
0.0
  0
LINE
  5
134F
  8
0
 10
80.955112800837185
 20
-1.250153834672312
 30
0.0
 11
82.135112800837206
 21
-1.250153834672312
 31
0.0
  0
LINE
  5
1350
  8
0
 10
80.965112800837176
 20
-1.2201538346723131
 30
0.0
 11
82.125112800837186
 21
-1.2201538346723131
 31
0.0
  0
LINE
  5
1351
  8
0
 10
81.149722754037185
 20
4.102192795727686
 30
0.0
 11
81.149722754037185
 21
4.146423681661493
 31
0.0
  0
LINE
  5
1352
  8
0
 10
81.937124328837172
 20
4.1464295332783268
 30
0.0
 11
81.937124328837186
 21
4.102192795727686
 31
0.0
  0
LINE
  5
1353
  8
0
 10
82.135112800837206
 20
-1.240153834672312
 30
0.0
 11
82.135112800837206
 21
-1.250153834672312
 31
0.0
  0
LINE
  5
1354
  8
0
 10
82.145112800837168
 20
-1.2001538346723111
 30
0.0
 11
82.145112800837168
 21
4.122559921701396
 31
0.0
  0
LINE
  5
1355
  8
0
 10
83.783229560437164
 20
-3.107896362172311
 30
0.0
 11
84.211311019504166
 21
-3.668054815725573
 31
0.0
  0
LINE
  5
1356
  8
0
 10
80.934376060237184
 20
4.1451833586276878
 30
0.0
 11
80.92567067813718
 21
4.194509341127687
 31
0.0
  0
LINE
  5
1357
  8
0
 10
82.409926608337173
 20
5.8401904185276861
 30
0.0
 11
82.430991861791284
 21
4.225530101680314
 31
0.0
  0
LINE
  5
1358
  8
0
 10
82.535112800837183
 20
-6.0055651774723122
 30
0.0
 11
82.535112800837183
 21
-6.0455651774723123
 31
0.0
  0
LINE
  5
1359
  8
0
 10
83.941570928137196
 20
-3.738945427572312
 30
0.0
 11
83.382674771037173
 21
-2.395496531272312
 31
0.0
  0
LINE
  5
135A
  8
0
 10
83.462599125937174
 20
-2.3371698248723121
 30
0.0
 11
83.783229560437164
 21
-3.107896362172311
 31
0.0
  0
LINE
  5
135B
  8
0
 10
84.118640888354193
 20
-3.5918156127900431
 30
0.0
 11
84.077500506737167
 21
-3.492924254272312
 31
0.0
  0
LINE
  5
135C
  8
0
 10
83.019955601537177
 20
-2.5251620871723111
 30
0.0
 11
83.356679489637187
 21
-2.3850795819723132
 31
0.0
  0
LINE
  5
135D
  8
0
 10
83.763504544037175
 20
-2.1848962311723108
 30
0.0
 11
83.476074157537184
 21
-2.3044738447723119
 31
0.0
  0
LINE
  5
135E
  8
0
 10
83.944551585337194
 20
-3.7419652387723121
 30
0.0
 11
83.942727572949678
 21
-3.7427240570118321
 31
0.0
  0
LINE
  5
135F
  8
0
 10
84.240776328744985
 20
-3.675955411721012
 30
0.0
 11
84.50275873763718
 21
-3.566966448572312
 31
0.0
  0
LINE
  5
1360
  8
0
 10
84.687416754837173
 20
-3.4901457697723108
 30
0.0
 11
84.773185629325283
 21
-3.4544645857407259
 31
0.0
  0
LINE
  5
1361
  8
0
 10
86.795992839806544
 20
-6.7455651774723107
 30
0.0
 11
86.790469479137187
 21
-6.6463043189723114
 31
0.0
  0
ARC
  5
1362
  8
0
 10
83.542370595337189
 20
-3.497599175072311
 30
0.0
 40
1.133
 50
93.413442743999596
 51
96.488162446499416
  0
ARC
  5
1363
  8
0
 10
83.274343129537186
 20
-2.8533270709723122
 30
0.0
 40
1.133
 50
308.68801585009982
 51
317.9015196435999
  0
ARC
  5
1364
  8
0
 10
83.417732929675154
 20
-2.4016637516749268
 30
0.0
 40
0.0300000000340674
 50
96.486349470662404
 51
202.5880891158213
  0
ARC
  5
1365
  8
0
 10
83.963804972901727
 20
-3.7142866318703711
 30
0.0
 40
0.0300000004880504
 50
247.3370899962361
 51
308.68982820018709
  0
ARC
  5
1366
  8
0
 10
84.231175772437183
 20
-3.6528649293723112
 30
0.0
 40
0.0250068202
 50
217.40388774079989
 51
292.57655481469988
  0
ARC
  5
1367
  8
0
 10
83.485676675182773
 20
-2.327556071457856
 30
0.0
 40
0.0249999506778855
 50
112.5879693489334
 51
202.6158621239702
  0
ARC
  5
1368
  8
0
 10
80.565130095588813
 20
-5.9655579408375496
 30
0.0
 40
0.0200072379598178
 50
179.98587263512809
 51
269.97914743719917
  0
ARC
  5
1369
  8
0
 10
82.525095544338328
 20
-5.9655579618712391
 30
0.0
 40
0.0200072169122336
 50
270.02074303810008
 51
0.0141876150778479
  0
ARC
  5
136A
  8
0
 10
83.364711345558021
 20
-2.4026800697721171
 30
0.0
 40
0.0193465211426759
 50
21.796372820115732
 51
114.529243763545
  0
ARC
  5
136B
  8
0
 10
82.515112800837187
 20
-6.0055651774723122
 30
0.0
 40
0.02
 50
0.0
 51
90.0
  0
ARC
  5
136C
  8
0
 10
80.575112800837189
 20
-6.0055651774723122
 30
0.0
 40
0.02
 50
90.0
 51
180.0
  0
ARC
  5
136D
  8
0
 10
84.100175077740786
 20
-3.5994976816727848
 30
0.0
 40
0.0200000085982345
 50
317.9312142648663
 51
22.588082005219999
  0
ARC
  5
136E
  8
0
 10
83.948392619337184
 20
-3.751198139572312
 30
0.0
 40
0.01
 50
67.337085192800501
 51
112.5880891483002
  0
ARC
  5
136F
  8
0
 10
80.975112800837181
 20
-1.240153834672312
 30
0.0
 40
0.02
 50
90.0
 51
180.0
  0
ARC
  5
1370
  8
0
 10
82.115112800837167
 20
-1.240153834672312
 30
0.0
 40
0.02
 50
0.0
 51
90.0
  0
ARC
  5
1371
  8
0
 10
80.965112800837176
 20
-1.2001538346723111
 30
0.0
 40
0.02
 50
180.0
 51
270.0
  0
ARC
  5
1372
  8
0
 10
82.125112800837186
 20
-1.2001538346723111
 30
0.0
 40
0.02
 50
270.0
 51
0.0
  0
ARC
  5
1373
  8
0
 10
82.125057823437174
 20
-1.270153112372312
 30
0.0
 40
0.0199999975
 50
0.183166876900017
 51
81.926809806400357
  0
ARC
  5
1374
  8
0
 10
80.965167741137179
 20
-1.2701531416723111
 30
0.0
 40
0.0199999973
 50
90.476039344482132
 51
179.81674984579999
  0
ARC
  5
1375
  8
0
 10
84.780096373696367
 20
1.088963013391715
 30
0.0
 40
0.0200095723647416
 50
359.81951711619803
 51
89.784880482025159
  0
ARC
  5
1376
  8
0
 10
76.429579471445351
 20
-6.6535354282230292
 30
0.0
 40
0.1300252117066964
 50
97.911383849578868
 51
176.80987212208021
  0
ARC
  5
1377
  8
0
 10
82.688771666439877
 20
-56.142908795266521
 30
0.0
 40
50.013635635318821
 50
92.681672168574607
 51
97.210067279060013
  0
ARC
  5
1378
  8
0
 10
86.660638569604544
 20
-6.6535428797410443
 30
0.0
 40
0.1300325414351157
 50
3.1911510663761322
 51
81.835669146499427
  0
ARC
  5
1379
  8
0
 10
80.328527380898834
 20
-56.984217426128637
 30
0.0
 40
50.857445779083882
 50
82.826742167512705
 51
87.280593449888954
  0
ARC
  5
137A
  8
0
 10
81.545118278628948
 20
-3.8798362479629191
 30
0.0
 40
2.5962623329709551
 50
242.56192880639131
 51
297.43803976625128
  0
ARC
  5
137B
  8
0
 10
80.338738716124013
 20
-5.9951140809926828
 30
0.0
 40
0.1891964485593597
 50
273.04460439897218
 51
333.71278738744672
  0
ARC
  5
137C
  8
0
 10
80.563904385699885
 20
-6.107350404824289
 30
0.0
 40
0.0623966407531283
 50
98.027489982468836
 51
152.87708545401071
  0
ARC
  5
137D
  8
0
 10
82.526305381722437
 20
-6.1073568817384567
 30
0.0
 40
0.0624150727872167
 50
27.123883078367381
 51
81.895477253825831
  0
ARC
  5
137E
  8
0
 10
82.7516527135422
 20
-5.9948650608673892
 30
0.0
 40
0.1894541190958836
 50
206.33175934786161
 51
266.91225314454158
  0
ARC
  5
137F
  8
0
 10
96.676479636026272
 20
-5.819936065329232
 30
0.0
 40
16.132014002790211
 50
171.36734524054251
 51
180.51719205826211
  0
ARC
  5
1380
  8
0
 10
65.915289081860337
 20
-0.806488748528686
 30
0.0
 40
15.037027000854991
 50
350.0738977750907
 51
358.23325730069729
  0
ARC
  5
1381
  8
0
 10
106.3914942509261
 20
-5.5636999292574876
 30
0.0
 40
23.849777210799171
 50
178.82708095767941
 51
180.9654419308192
  0
ARC
  5
1382
  8
0
 10
83.510246704183345
 20
-5.009471393235124
 30
0.0
 40
0.9657920398184015
 50
111.4842985177678
 51
183.92010382188889
  0
ARC
  5
1383
  8
0
 10
90.093859122357301
 20
-18.613317022338791
 30
0.0
 40
16.076380110506609
 50
112.5419353213958
 51
115.56426170538769
  0
ARC
  5
1384
  8
0
 10
83.923049924856684
 20
-3.7466810779360298
 30
0.0
 40
0.0200715681765533
 50
292.79285918709849
 51
22.668785319818149
  0
ARC
  5
1385
  8
0
 10
84.890896974995314
 20
-4.2396087385581556
 30
0.0
 40
0.7765944511628272
 50
105.1897218445072
 51
119.9864564335243
  0
ARC
  5
1386
  8
0
 10
84.765478961228183
 20
-3.4359813014372729
 30
0.0
 40
0.0200255969149854
 50
292.63386150488691
 51
356.55839071999878
  0
ARC
  5
1387
  8
0
 10
83.540230357813542
 20
-1.537729582467813
 30
0.0
 40
0.6845991772046214
 50
289.03456825301282
 51
353.46304478351323
  0
ARC
  5
1388
  8
0
 10
78.127906990866165
 20
-0.6998304652299298
 30
0.0
 40
6.1609226872987719
 50
351.45115411882881
 51
2.6892461333644708
  0
ARC
  5
1389
  8
0
 10
-4335.882088521771
 20
14.989531746234469
 30
0.0
 40
4420.1909611835636
 50
359.80037652761519
 51
359.8198174743755
  0
ARC
  5
138A
  8
0
 10
84.30707668896946
 20
1.088911030979677
 30
0.0
 40
0.0200614137434814
 50
90.0
 51
179.6490146379538
  0
ARC
  5
138B
  8
0
 10
-221.1652647471231
 20
-0.1846699508033236
 30
0.0
 40
305.96802117712423
 50
359.39092063826803
 51
0.2384902597007235
  0
ARC
  5
138C
  8
0
 10
82.705669469322103
 20
-1.8195084343435679
 30
0.0
 40
0.7724783819973644
 50
271.4603428408829
 51
294.0073778676379
  0
ARC
  5
138D
  8
0
 10
82.735125956892034
 20
-2.088313075111059
 30
0.0
 40
0.5035176353234422
 50
193.4201589828846
 51
268.88820893647699
  0
ARC
  5
138E
  8
0
 10
85.517691441174151
 20
-1.3812542202790621
 30
0.0
 40
3.3744652751161799
 50
178.1121629671313
 51
194.13238858856781
  0
ARC
  5
138F
  8
0
 10
80.84468777127401
 20
5.5236937220190461
 30
0.0
 40
0.396134080425202
 50
94.497900991717231
 51
107.2855282656692
  0
ARC
  5
1390
  8
0
 10
80.746149587222135
 20
5.838924515557351
 30
0.0
 40
0.0658627445368122
 50
106.9183313527374
 51
178.90095898766239
  0
ARC
  5
1391
  8
0
 10
82.213313469060097
 20
5.4207915634620667
 30
0.0
 40
0.5025620217095465
 50
71.360019756094175
 51
88.398534774891729
  0
ARC
  5
1392
  8
0
 10
82.344297922050529
 20
5.8384132163932341
 30
0.0
 40
0.0656527448865413
 50
1.5511708123026089
 51
63.157597927898053
  0
ARC
  5
1393
  8
0
 10
81.543712033001583
 20
-0.8265709360353881
 30
0.0
 40
4.937981455974203
 50
87.450355943250585
 51
92.576035351410681
  0
ARC
  5
1394
  8
0
 10
81.543530426815764
 20
8.9804130042969277
 30
0.0
 40
4.8934586851704864
 50
267.37521375669718
 51
272.61529492266311
  0
ARC
  5
1395
  8
0
 10
81.32453384175875
 20
3.8858416288644331
 30
0.0
 40
0.2205961120234
 50
90.716914119529605
 51
104.7355240023735
  0
ARC
  5
1396
  8
0
 10
81.321681868990908
 20
4.2951950564113988
 30
0.0
 40
0.2031192168357424
 50
254.79922044178389
 51
269.36585296180698
  0
ARC
  5
1397
  8
0
 10
81.759758547854887
 20
3.869297938341508
 30
0.0
 40
0.2372518512970874
 50
75.684044258806409
 51
89.125845167383858
  0
ARC
  5
1398
  8
0
 10
81.764900978244967
 20
4.2962147408677804
 30
0.0
 40
0.204172509086983
 50
270.53776753915929
 51
285.19730744592721
  0
ARC
  5
1399
  8
0
 10
81.927294776898279
 20
4.1021922046090156
 30
0.0
 40
0.0098295519566593
 50
275.10822253982019
 51
0.0034455899087223
  0
ARC
  5
139A
  8
0
 10
81.159552103261859
 20
4.1021926292203359
 30
0.0
 40
0.0098293492260807
 50
179.99902942013739
 51
263.72168182453032
  0
ARC
  5
139B
  8
0
 10
81.54351533547721
 20
11.278208307817209
 30
0.0
 40
7.1960944893747127
 50
266.93283609734812
 51
273.06410596055088
  0
ARC
  5
139C
  8
0
 10
80.697616804433196
 20
4.2301546118869204
 30
0.0
 40
0.0385087616012361
 50
183.31392492283959
 51
263.17283705115881
  0
ARC
  5
139D
  8
0
 10
82.393829513451905
 20
4.229843418043842
 30
0.0
 40
0.0374118274366266
 50
282.44854105723402
 51
353.37948329094132
  0
ARC
  5
139E
  8
0
 10
80.913835984435877
 20
4.1922402994244861
 30
0.0
 40
0.0120502500079725
 50
10.853492106133849
 51
89.025265832025127
  0
ARC
  5
139F
  8
0
 10
81.037175969831708
 20
4.1922287581952862
 30
0.0
 40
0.012129452385711
 50
94.117767932138435
 51
169.16272799359541
  0
ARC
  5
13A0
  8
0
 10
80.975424930505
 20
3.513836334381844
 30
0.0
 40
0.6931757387914787
 50
84.961777405096285
 51
95.080464135493585
  0
ARC
  5
13A1
  8
0
 10
80.946561003663845
 20
4.1475549631372761
 30
0.0
 40
0.0124135955412093
 50
191.01400658857821
 51
264.57272427665828
  0
ARC
  5
13A2
  8
0
 10
81.004453761517937
 20
4.1474572204001161
 30
0.0
 40
0.0123144521058995
 50
273.99413408302212
 51
349.36123832311381
  0
ARC
  5
13A3
  8
0
 10
80.975523119316094
 20
4.5633651654728951
 30
0.0
 40
0.4292273932451517
 50
265.9739287702854
 51
273.97952810547031
  0
LINE
  5
13A4
  8
0
 10
81.168740559987185
 20
4.1569047054776869
 30
0.0
 11
81.177446867887184
 21
4.2062302745776883
 31
0.0
  0
LINE
  5
13A5
  8
0
 10
81.086560083687175
 20
4.1569042920776891
 30
0.0
 11
81.077854701587185
 21
4.2062302745776883
 31
0.0
  0
ARC
  5
13A6
  8
0
 10
81.066020007885868
 20
4.2039612328744873
 30
0.0
 40
0.0120502500079725
 50
10.853492106133849
 51
89.025265832025127
  0
ARC
  5
13A7
  8
0
 10
81.189359993281698
 20
4.2039496916452856
 30
0.0
 40
0.012129452385711
 50
93.922982729367661
 51
169.16272799359541
  0
ARC
  5
13A8
  8
0
 10
81.12760895395499
 20
3.5255572678318439
 30
0.0
 40
0.6931757387914787
 50
84.957935598136316
 51
95.080464135493585
  0
ARC
  5
13A9
  8
0
 10
81.098745027113836
 20
4.1592758965872756
 30
0.0
 40
0.0124135955412093
 50
191.01400658857821
 51
264.57272427665828
  0
ARC
  5
13AA
  8
0
 10
81.156637784967927
 20
4.1591781538501174
 30
0.0
 40
0.0123144521058995
 50
273.99413408302212
 51
349.36123832311381
  0
ARC
  5
13AB
  8
0
 10
81.127707142766099
 20
4.5750860989228954
 30
0.0
 40
0.4292273932451517
 50
265.9739287702854
 51
273.97952810547031
  0
LINE
  5
13AC
  8
0
 10
81.321718503937177
 20
4.1586567271776866
 30
0.0
 11
81.330424811837204
 21
4.2079822962776881
 31
0.0
  0
LINE
  5
13AD
  8
0
 10
81.239538027637181
 20
4.158656313777688
 30
0.0
 11
81.230832645537177
 21
4.2079822962776881
 31
0.0
  0
ARC
  5
13AE
  8
0
 10
81.218997951835874
 20
4.2057132545744871
 30
0.0
 40
0.0120502500079725
 50
10.853492106133849
 51
89.025265832025127
  0
ARC
  5
13AF
  8
0
 10
81.342337937231719
 20
4.2057017133452863
 30
0.0
 40
0.012129452385711
 50
103.19273629711481
 51
169.16272799359541
  0
ARC
  5
13B0
  8
0
 10
81.280586897904996
 20
3.5273092895318441
 30
0.0
 40
0.6931757387914787
 50
85.147957703082369
 51
95.080464135493585
  0
ARC
  5
13B1
  8
0
 10
81.251722971063842
 20
4.1610279182872763
 30
0.0
 40
0.0124135955412093
 50
191.01400658857821
 51
264.57272427665828
  0
ARC
  5
13B2
  8
0
 10
81.309615728917947
 20
4.1609301755501171
 30
0.0
 40
0.0123144521058995
 50
273.99413408302212
 51
349.36123832311381
  0
ARC
  5
13B3
  8
0
 10
81.280685086716076
 20
4.5768381206228952
 30
0.0
 40
0.4292273932451517
 50
265.9739287702854
 51
273.97952810547031
  0
LINE
  5
13B4
  8
0
 10
81.432330218987175
 20
4.1636716702276866
 30
0.0
 11
81.441036526887174
 21
4.2129972393276871
 31
0.0
  0
LINE
  5
13B5
  8
0
 10
81.350149742687194
 20
4.1636712568276879
 30
0.0
 11
81.341444360587175
 21
4.2129972393276871
 31
0.0
  0
ARC
  5
13B6
  8
0
 10
81.329609666885887
 20
4.210728197624487
 30
0.0
 40
0.0120502500079725
 50
10.853492106133849
 51
89.025265832025127
  0
ARC
  5
13B7
  8
0
 10
81.452949652281717
 20
4.2107166563952863
 30
0.0
 40
0.012129452385711
 50
93.922982729367661
 51
169.16272799359541
  0
ARC
  5
13B8
  8
0
 10
81.391198612955009
 20
3.532324232581844
 30
0.0
 40
0.6931757387914787
 50
84.957935598136316
 51
95.080464135493585
  0
ARC
  5
13B9
  8
0
 10
81.362334686113854
 20
4.1660428613372762
 30
0.0
 40
0.0124135955412093
 50
191.01400658857821
 51
264.57272427665828
  0
ARC
  5
13BA
  8
0
 10
81.420227443967946
 20
4.1659451186001171
 30
0.0
 40
0.0123144521058995
 50
273.99413408302212
 51
349.36123832311381
  0
ARC
  5
13BB
  8
0
 10
81.391296801766075
 20
4.5818530636728951
 30
0.0
 40
0.4292273932451517
 50
265.9739287702854
 51
273.97952810547031
  0
LINE
  5
13BC
  8
0
 10
81.58451377953719
 20
4.1617878217276871
 30
0.0
 11
81.593220087437189
 21
4.2111133908276868
 31
0.0
  0
LINE
  5
13BD
  8
0
 10
81.50233330323718
 20
4.1617874083276876
 30
0.0
 11
81.493627921137175
 21
4.2111133908276868
 31
0.0
  0
ARC
  5
13BE
  8
0
 10
81.481793227435872
 20
4.2088443491244858
 30
0.0
 40
0.0120502500079725
 50
10.853492106133849
 51
89.025265832025127
  0
ARC
  5
13BF
  8
0
 10
81.605133212831703
 20
4.208832807895285
 30
0.0
 40
0.012129452385711
 50
93.922982729367661
 51
169.16272799359541
  0
ARC
  5
13C0
  8
0
 10
81.543382173504995
 20
3.5304403840818441
 30
0.0
 40
0.6931757387914787
 50
84.957935598136316
 51
95.080464135493585
  0
ARC
  5
13C1
  8
0
 10
81.51451824666384
 20
4.164159012837275
 30
0.0
 40
0.0124135955412093
 50
191.01400658857821
 51
264.57272427665828
  0
ARC
  5
13C2
  8
0
 10
81.572411004517932
 20
4.1640612701001158
 30
0.0
 40
0.0123144521058995
 50
273.99413408302212
 51
349.36123832311381
  0
ARC
  5
13C3
  8
0
 10
81.543480362316103
 20
4.5799692151728939
 30
0.0
 40
0.4292273932451517
 50
265.9739287702854
 51
273.97952810547031
  0
LINE
  5
13C4
  8
0
 10
81.736697340137184
 20
4.1636716702276866
 30
0.0
 11
81.745403648037183
 21
4.2129972393276871
 31
0.0
  0
LINE
  5
13C5
  8
0
 10
81.654516863837173
 20
4.1636712568276879
 30
0.0
 11
81.645811481737184
 21
4.2129972393276871
 31
0.0
  0
ARC
  5
13C6
  8
0
 10
81.633976788035895
 20
4.210728197624487
 30
0.0
 40
0.0120502500079725
 50
10.853492106133849
 51
89.025265832025127
  0
ARC
  5
13C7
  8
0
 10
81.757316773431697
 20
4.2107166563952863
 30
0.0
 40
0.012129452385711
 50
93.922982729367661
 51
169.16272799359541
  0
ARC
  5
13C8
  8
0
 10
81.695565734105017
 20
3.532324232581844
 30
0.0
 40
0.6931757387914787
 50
84.957935598136316
 51
95.080464135493585
  0
ARC
  5
13C9
  8
0
 10
81.666701807263834
 20
4.1660428613372762
 30
0.0
 40
0.0124135955412093
 50
191.01400658857821
 51
264.57272427665828
  0
ARC
  5
13CA
  8
0
 10
81.724594565117926
 20
4.1659451186001171
 30
0.0
 40
0.0123144521058995
 50
273.99413408302212
 51
349.36123832311381
  0
ARC
  5
13CB
  8
0
 10
81.695663922916097
 20
4.5818530636728951
 30
0.0
 40
0.4292273932451517
 50
265.9739287702854
 51
273.97952810547031
  0
LINE
  5
13CC
  8
0
 10
81.847309055137174
 20
4.1586567271776866
 30
0.0
 11
81.856015363037187
 21
4.2079822962776881
 31
0.0
  0
LINE
  5
13CD
  8
0
 10
81.765128578837206
 20
4.158656313777688
 30
0.0
 11
81.756423196737174
 21
4.2079822962776881
 31
0.0
  0
ARC
  5
13CE
  8
0
 10
81.744588503035885
 20
4.2057132545744871
 30
0.0
 40
0.0120502500079725
 50
10.853492106133849
 51
77.28866285602156
  0
ARC
  5
13CF
  8
0
 10
81.867928488431716
 20
4.2057017133452863
 30
0.0
 40
0.012129452385711
 50
93.922982729367661
 51
169.16272799359541
  0
ARC
  5
13D0
  8
0
 10
81.806177449105007
 20
3.5273092895318441
 30
0.0
 40
0.6931757387914787
 50
84.957935598136316
 51
94.845698144313644
  0
ARC
  5
13D1
  8
0
 10
81.777313522263839
 20
4.1610279182872763
 30
0.0
 40
0.0124135955412093
 50
191.01400658857821
 51
264.57272427665828
  0
ARC
  5
13D2
  8
0
 10
81.835206280117944
 20
4.1609301755501171
 30
0.0
 40
0.0123144521058995
 50
273.99413408302212
 51
349.36123832311381
  0
ARC
  5
13D3
  8
0
 10
81.806275637916073
 20
4.5768381206228952
 30
0.0
 40
0.4292273932451517
 50
265.9739287702854
 51
273.97952810547031
  0
LINE
  5
13D4
  8
0
 10
82.000286999137188
 20
4.1569047054776869
 30
0.0
 11
82.008993307037187
 21
4.2062302745776883
 31
0.0
  0
LINE
  5
13D5
  8
0
 10
81.918106522837178
 20
4.1569042920776891
 30
0.0
 11
81.909401140737174
 21
4.2062302745776883
 31
0.0
  0
ARC
  5
13D6
  8
0
 10
81.897566447035871
 20
4.2039612328744873
 30
0.0
 40
0.0120502500079725
 50
10.853492106133849
 51
89.025265832025127
  0
ARC
  5
13D7
  8
0
 10
82.020906432431701
 20
4.2039496916452856
 30
0.0
 40
0.012129452385711
 50
93.922982729367661
 51
169.16272799359541
  0
ARC
  5
13D8
  8
0
 10
81.959155393104993
 20
3.5255572678318439
 30
0.0
 40
0.6931757387914787
 50
84.957935598136316
 51
95.080464135493585
  0
ARC
  5
13D9
  8
0
 10
81.930291466263839
 20
4.1592758965872756
 30
0.0
 40
0.0124135955412093
 50
191.01400658857821
 51
264.57272427665828
  0
ARC
  5
13DA
  8
0
 10
81.988184224117944
 20
4.1591781538501174
 30
0.0
 40
0.0123144521058995
 50
273.99413408302212
 51
349.36123832311381
  0
ARC
  5
13DB
  8
0
 10
81.959253581916101
 20
4.5750860989228954
 30
0.0
 40
0.4292273932451517
 50
265.9739287702854
 51
273.97952810547031
  0
LINE
  5
13DC
  8
0
 10
82.152470559737168
 20
4.1451839787276876
 30
0.0
 11
82.161176867637181
 21
4.194509547827689
 31
0.0
  0
LINE
  5
13DD
  8
0
 10
82.070290083437186
 20
4.1451835653276889
 30
0.0
 11
82.061584701337182
 21
4.194509547827689
 31
0.0
  0
ARC
  5
13DE
  8
0
 10
82.049750007635865
 20
4.1922405061244881
 30
0.0
 40
0.0120502500079725
 50
10.853492106133849
 51
86.487189111172697
  0
ARC
  5
13DF
  8
0
 10
82.173089993031695
 20
4.1922289648952873
 30
0.0
 40
0.012129452385711
 50
93.922982729367661
 51
169.16272799359541
  0
ARC
  5
13E0
  8
0
 10
82.111338953704987
 20
3.5138365410818451
 30
0.0
 40
0.6931757387914787
 50
84.957935598136316
 51
95.031792297654547
  0
ARC
  5
13E1
  8
0
 10
82.082475026863847
 20
4.1475551698372772
 30
0.0
 40
0.0124135955412093
 50
191.01400658857821
 51
264.57272427665828
  0
ARC
  5
13E2
  8
0
 10
82.140367784717924
 20
4.1474574271001181
 30
0.0
 40
0.0123144521058995
 50
273.99413408302212
 51
349.36123832311381
  0
ARC
  5
13E3
  8
0
 10
82.111437142516095
 20
4.5633653721728962
 30
0.0
 40
0.4292273932451517
 50
265.9739287702854
 51
273.97952810547031
  0
LINE
  5
13E4
  8
0
 10
80.934376523137189
 20
4.1316496358276904
 30
0.0
 11
80.925671141037185
 21
4.1809756183276887
 31
0.0
  0
ARC
  5
13E5
  8
0
 10
80.913836447335868
 20
4.1787065766244877
 30
0.0
 40
0.0120502500079725
 50
10.853492106133849
 51
89.025265832025127
  0
ARC
  5
13E6
  8
0
 10
80.975425393405004
 20
3.5003026115818461
 30
0.0
 40
0.6931757387914787
 50
94.075398592925367
 51
95.080464135493585
  0
ARC
  5
13E7
  8
0
 10
80.94656146656385
 20
4.1340212403372769
 30
0.0
 40
0.0124135955412093
 50
191.01400658857821
 51
264.57272427665828
  0
ARC
  5
13E8
  8
0
 10
81.004454224417941
 20
4.1339234976001178
 30
0.0
 40
0.0123144521058995
 50
273.99413408302212
 51
327.91371815052503
  0
ARC
  5
13E9
  8
0
 10
80.975523582216098
 20
4.5498314426728959
 30
0.0
 40
0.4292273932451517
 50
265.9739287702854
 51
273.97952810547031
  0
LINE
  5
13EA
  8
0
 10
81.047158533937179
 20
4.150102004427688
 30
0.0
 11
81.038453151837174
 21
4.199427986927688
 31
0.0
  0
ARC
  5
13EB
  8
0
 10
81.026618458135886
 20
4.1971589452244871
 30
0.0
 40
0.0120502500079725
 50
10.853492106133849
 51
89.025265832025127
  0
ARC
  5
13EC
  8
0
 10
81.088207404205008
 20
3.5187549801818441
 30
0.0
 40
0.6931757387914787
 50
91.078083145872085
 51
95.080464135493585
  0
ARC
  5
13ED
  8
0
 10
81.059343477363839
 20
4.1524736089372762
 30
0.0
 40
0.0124135955412093
 50
191.01400658857821
 51
264.57272427665828
  0
ARC
  5
13EE
  8
0
 10
81.117236235217945
 20
4.1523758662001171
 30
0.0
 40
0.0123144521058995
 50
273.99413408302212
 51
328.04665244229852
  0
ARC
  5
13EF
  8
0
 10
81.088305593016074
 20
4.5682838112728978
 30
0.0
 40
0.4292273932451517
 50
265.9739287702854
 51
273.97952810547031
  0
LINE
  5
13F0
  8
0
 10
81.059040744761234
 20
4.1384167755227423
 30
0.0
 11
81.059326512086074
 21
4.1400357897007254
 31
0.0
  0
ARC
  5
13F1
  8
0
 10
80.989045211887898
 20
4.1407879666323311
 30
0.0
 40
0.0124135955412093
 50
212.33409270840761
 51
264.57272427665828
  0
ARC
  5
13F2
  8
0
 10
81.046937969742004
 20
4.1406902238951711
 30
0.0
 40
0.0123144521058995
 50
273.99413408302212
 51
349.36123832311381
  0
ARC
  5
13F3
  8
0
 10
81.018007327540147
 20
4.5565981689679509
 30
0.0
 40
0.4292273932451517
 50
265.9739287702854
 51
273.97952810547031
  0
LINE
  5
13F4
  8
0
 10
81.129456947861229
 20
4.1267196800227408
 30
0.0
 11
81.132840538116213
 21
4.1458894034973532
 31
0.0
  0
LINE
  5
13F5
  8
0
 10
81.047276471561247
 20
4.126719266622743
 30
0.0
 11
81.046988616352948
 21
4.1283502968065386
 31
0.0
  0
ARC
  5
13F6
  8
0
 10
81.059461414987894
 20
4.1290908711323304
 30
0.0
 40
0.0124135955412093
 50
191.01400658857821
 51
264.57272427665828
  0
ARC
  5
13F7
  8
0
 10
81.117354172841985
 20
4.1289931283951713
 30
0.0
 40
0.0123144521058995
 50
273.99413408302212
 51
349.36123832311381
  0
ARC
  5
13F8
  8
0
 10
81.088423530640142
 20
4.5449010734679511
 30
0.0
 40
0.4292273932451517
 50
265.9739287702854
 51
273.97952810547031
  0
LINE
  5
13F9
  8
0
 10
82.152470096837206
 20
4.1316498425276871
 30
0.0
 11
82.161176404737176
 21
4.1809754116276876
 31
0.0
  0
ARC
  5
13FA
  8
0
 10
82.173089530131705
 20
4.1786948286952859
 30
0.0
 40
0.012129452385711
 50
93.922982729367661
 51
169.16272799359541
  0
ARC
  5
13FB
  8
0
 10
82.111338490804997
 20
3.5003024048818441
 30
0.0
 40
0.6931757387914787
 50
84.957935598136316
 51
85.91780029505567
  0
ARC
  5
13FC
  8
0
 10
82.082474563963828
 20
4.1340210336372758
 30
0.0
 40
0.0124135955412093
 50
212.3557496254077
 51
264.57272427665828
  0
ARC
  5
13FD
  8
0
 10
82.140367321817934
 20
4.1339232909001167
 30
0.0
 40
0.0123144521058995
 50
273.99413408302212
 51
349.36123832311381
  0
ARC
  5
13FE
  8
0
 10
82.111436679616105
 20
4.5498312359728947
 30
0.0
 40
0.4292273932451517
 50
265.9739287702854
 51
273.97952810547031
  0
LINE
  5
13FF
  8
0
 10
82.039688086037174
 20
4.1501022111276864
 30
0.0
 11
82.048394393937187
 21
4.199427780227686
 31
0.0
  0
ARC
  5
1400
  8
0
 10
82.060307519331701
 20
4.1971471972952852
 30
0.0
 40
0.012129452385711
 50
93.922982729367661
 51
169.16272799359541
  0
ARC
  5
1401
  8
0
 10
81.998556480004979
 20
3.518754773481843
 30
0.0
 40
0.6931757387914787
 50
84.957935598136316
 51
88.916378018222062
  0
ARC
  5
1402
  8
0
 10
81.969692553163839
 20
4.1524734022372751
 30
0.0
 40
0.0124135955412093
 50
212.19880548366751
 51
264.57272427665828
  0
ARC
  5
1403
  8
0
 10
82.027585311017916
 20
4.152375659500116
 30
0.0
 40
0.0123144521058995
 50
273.99413408302212
 51
349.36123832311381
  0
ARC
  5
1404
  8
0
 10
81.998654668816087
 20
4.5682836045728967
 30
0.0
 40
0.4292273932451517
 50
265.9739287702854
 51
273.97952810547031
  0
LINE
  5
1405
  8
0
 10
82.027571401358287
 20
4.138404634127629
 30
0.0
 11
82.027287668837914
 21
4.140012304551778
 31
0.0
  0
ARC
  5
1406
  8
0
 10
82.039756344784934
 20
4.1407762386372173
 30
0.0
 40
0.0124135955412093
 50
191.01400658857821
 51
264.57272427665828
  0
ARC
  5
1407
  8
0
 10
82.097649102639025
 20
4.1406784959000582
 30
0.0
 40
0.0123144521058995
 50
273.99413408302212
 51
327.99006764422938
  0
ARC
  5
1408
  8
0
 10
82.068718460437182
 20
4.5565864409728363
 30
0.0
 40
0.4292273932451517
 50
265.9739287702854
 51
273.97952810547031
  0
LINE
  5
1409
  8
0
 10
82.039673721258296
 20
4.1267103173276301
 30
0.0
 11
82.039958485587235
 21
4.1283236490346873
 31
0.0
  0
LINE
  5
140A
  8
0
 10
81.957493244958258
 20
4.1267099039276314
 30
0.0
 11
81.954108292370535
 21
4.1458895459223859
 31
0.0
  0
ARC
  5
140B
  8
0
 10
81.969678188384918
 20
4.1290815084372179
 30
0.0
 40
0.0124135955412093
 50
191.01400658857821
 51
264.57272427665828
  0
ARC
  5
140C
  8
0
 10
82.027570946239024
 20
4.1289837657000588
 30
0.0
 40
0.0123144521058995
 50
273.99413408302212
 51
349.36123832311381
  0
ARC
  5
140D
  8
0
 10
81.998640304037181
 20
4.5448917107728368
 30
0.0
 40
0.4292273932451517
 50
265.9739287702854
 51
273.97952810547031
  0
ARC
  5
140E
  8
0
 10
81.987831771039026
 20
4.1221908044000592
 30
0.0
 40
0.0123144521058995
 50
273.99413408302212
 51
327.9963477200692
  0
ARC
  5
140F
  8
0
 10
81.958901128837184
 20
4.5380987494728373
 30
0.0
 40
0.4292273932451517
 50
267.09185702248101
 51
273.97952810547031
  0
ARC
  5
1410
  8
0
 10
80.973053289782484
 20
5.9773351720055672
 30
0.0
 40
1.8072407691179919
 50
261.0866733218021
 51
268.55532860752197
  0
ARC
  5
1411
  8
0
 10
82.122914444342285
 20
5.8596206794041299
 30
0.0
 40
1.6895020346722629
 50
271.23502900359972
 51
279.50451804389883
  0
ARC
  5
1412
  8
0
 10
81.532030139906354
 20
-5.415259980273178
 30
0.0
 40
9.6826115062883318
 50
84.672821751197347
 51
95.172059924985078
  0
ARC
  5
1413
  8
0
 10
81.574623028250315
 20
-10.90064750131935
 30
0.0
 40
16.836462553060091
 50
90.0
 51
92.590628046482053
  0
ARC
  5
1414
  8
0
 10
81.574623148998654
 20
-10.900641274583901
 30
0.0
 40
16.83645632632464
 50
87.778133062322397
 51
90.000000410915874
  0
LINE
  5
1416
  8
0
 10
84.30707668896946
 20
1.108972444723157
 30
0.0
 11
84.780171500336934
 21
1.108972444723159
 31
0.0
  0
ENDSEC
  0
EOF
