  0
SECTION
  2
HEADER
  9
$ACADVER
  1
AC1009
  9
$INSBASE
 10
-8.3186715139488552
 20
-1.215529077799175
 30
0.0
  9
$EXTMIN
 10
-13.3192964044875399
 20
-8.609383428804783
 30
-0.0000000000112498
  9
$EXTMAX
 10
-3.3175422052989698
 20
-1.2148043162745801
 30
0.0000000000002956
  9
$LIMMIN
 10
0.0
 20
0.0
  9
$LIMMAX
 10
11.6929133858000007
 20
8.2677165353999982
  9
$ORTHOMODE
 70
     1
  9
$REGENMODE
 70
     1
  9
$FILLMODE
 70
     1
  9
$QTEXTMODE
 70
     0
  9
$MIRRTEXT
 70
     0
  9
$DRAGMODE
 70
     2
  9
$LTSCALE
 40
0.6431102362
  9
$OSMODE
 70
  4095
  9
$ATTMODE
 70
     1
  9
$TEXTSIZE
 40
0.2
  9
$TRACEWID
 40
0.05
  9
$TEXTSTYLE
  7
STANDARD
  9
$CLAYER
  8
0
  9
$CELTYPE
  6
BYLAYER
  9
$CECOLOR
 62
   256
  9
$DIMSCALE
 40
1.0
  9
$DIMASZ
 40
0.1875
  9
$DIMEXO
 40
0.0625
  9
$DIMDLI
 40
0.4443307087
  9
$DIMRND
 40
0.0
  9
$DIMDLE
 40
0.0
  9
$DIMEXE
 40
0.125
  9
$DIMTP
 40
0.01
  9
$DIMTM
 40
0.01
  9
$DIMTXT
 40
1.0
  9
$DIMCEN
 40
0.1052362205
  9
$DIMTSZ
 40
0.0
  9
$DIMTOL
 70
     1
  9
$DIMLIM
 70
     0
  9
$DIMTIH
 70
     1
  9
$DIMTOH
 70
     1
  9
$DIMSE1
 70
     0
  9
$DIMSE2
 70
     0
  9
$DIMTAD
 70
     0
  9
$DIMZIN
 70
     0
  9
$DIMBLK
  1

  9
$DIMASO
 70
     1
  9
$DIMSHO
 70
     1
  9
$DIMPOST
  1
\X
  9
$DIMAPOST
  1

  9
$DIMALT
 70
     1
  9
$DIMALTD
 70
     2
  9
$DIMALTF
 40
25.3999999999999986
  9
$DIMLFAC
 40
1.0
  9
$DIMTOFL
 70
     0
  9
$DIMTVP
 40
0.0
  9
$DIMTIX
 70
     0
  9
$DIMSOXD
 70
     0
  9
$DIMSAH
 70
     0
  9
$DIMBLK1
  1

  9
$DIMBLK2
  1

  9
$DIMSTYLE
  2
STANDARD
  9
$DIMCLRD
 70
     0
  9
$DIMCLRE
 70
     0
  9
$DIMCLRT
 70
     0
  9
$DIMTFAC
 40
1.0
  9
$DIMGAP
 40
0.09
  9
$LUNITS
 70
     2
  9
$LUPREC
 70
     4
  9
$SKETCHINC
 40
0.1
  9
$FILLETRAD
 40
0.0
  9
$AUNITS
 70
     0
  9
$AUPREC
 70
     0
  9
$MENU
  1
.
  9
$ELEVATION
 40
0.0
  9
$PELEVATION
 40
0.0
  9
$THICKNESS
 40
0.0
  9
$LIMCHECK
 70
     0
  9
$BLIPMODE
 70
     0
  9
$CHAMFERA
 40
0.0
  9
$CHAMFERB
 40
0.0
  9
$SKPOLY
 70
     0
  9
$TDCREATE
 40
2457704.4687268519774079
  9
$TDUPDATE
 40
2459621.6390277780592442
  9
$TDINDWG
 40
0.0467331481
  9
$TDUSRTIMER
 40
0.0467331481
  9
$USRTIMER
 70
     1
  9
$ANGBASE
 50
0.0
  9
$ANGDIR
 70
     0
  9
$PDMODE
 70
     0
  9
$PDSIZE
 40
0.3125
  9
$PLINEWID
 40
0.0
  9
$COORDS
 70
     1
  9
$SPLFRAME
 70
     0
  9
$SPLINETYPE
 70
     6
  9
$SPLINESEGS
 70
     8
  9
$ATTDIA
 70
     1
  9
$ATTREQ
 70
     1
  9
$HANDLING
 70
     1
  9
$HANDSEED
  5
5599
  9
$SURFTAB1
 70
     6
  9
$SURFTAB2
 70
     6
  9
$SURFTYPE
 70
     6
  9
$SURFU
 70
     6
  9
$SURFV
 70
     6
  9
$UCSNAME
  2

  9
$UCSORG
 10
0.0
 20
0.0
 30
0.0
  9
$UCSXDIR
 10
1.0
 20
0.0
 30
0.0
  9
$UCSYDIR
 10
0.0
 20
1.0
 30
0.0
  9
$PUCSNAME
  2

  9
$PUCSORG
 10
0.0
 20
0.0
 30
0.0
  9
$PUCSXDIR
 10
1.0
 20
0.0
 30
0.0
  9
$PUCSYDIR
 10
0.0
 20
1.0
 30
0.0
  9
$USERI1
 70
     0
  9
$USERI2
 70
     0
  9
$USERI3
 70
     0
  9
$USERI4
 70
     0
  9
$USERI5
 70
     0
  9
$USERR1
 40
0.0
  9
$USERR2
 40
0.0
  9
$USERR3
 40
0.0
  9
$USERR4
 40
0.0
  9
$USERR5
 40
0.0
  9
$WORLDVIEW
 70
     1
  9
$SHADEDGE
 70
     3
  9
$SHADEDIF
 70
    70
  9
$TILEMODE
 70
     1
  9
$MAXACTVP
 70
    64
  9
$PLIMCHECK
 70
     0
  9
$PEXTMIN
 10
1.0000000000000000E+20
 20
1.0000000000000000E+20
 30
1.0000000000000000E+20
  9
$PEXTMAX
 10
-1.0000000000000000E+20
 20
-1.0000000000000000E+20
 30
-1.0000000000000000E+20
  9
$PLIMMIN
 10
0.0
 20
0.0
  9
$PLIMMAX
 10
12.0
 20
9.0
  9
$UNITMODE
 70
     0
  9
$VISRETAIN
 70
     1
  9
$PLINEGEN
 70
     0
  9
$PSLTSCALE
 70
     1
  0
ENDSEC
  0
SECTION
  2
TABLES
  0
TABLE
  2
VPORT
 70
     1
  0
VPORT
  2
*ACTIVE
 70
     0
 10
0.0
 20
0.0
 11
1.0
 21
1.0
 12
-11.4996281538464995
 22
-0.8234334278990268
 13
0.0
 23
0.0
 14
1.0
 24
1.0
 15
0.0
 25
0.0
 16
-0.0000000000000067
 26
0.0
 36
29.7687812281221298
 17
3.1812088489532471
 27
-4.088660444640654
 37
0.0
 40
7.4475235930495121
 41
2.2831541218637992
 42
50.0
 43
0.0
 44
0.0
 50
0.0
 51
0.0
 71
     0
 72
   100
 73
     1
 74
     1
 75
     0
 76
     0
 77
     0
 78
     0
  0
ENDTAB
  0
TABLE
  2
LTYPE
 70
     2
  0
LTYPE
  2
CONTINUOUS
 70
     0
  3
Solid line
 72
    65
 73
     0
 40
0.0
  0
LTYPE
  2
PHANTOM2
 70
     0
  3
___ _ _ ___ _ _ ___ _ _ ___ _ _
 72
    65
 73
     6
 40
1.25
 49
0.625
 49
-0.125
 49
0.125
 49
-0.125
 49
0.125
 49
-0.125
  0
ENDTAB
  0
TABLE
  2
LAYER
 70
     2
  0
LAYER
  2
0
 70
     0
 62
     7
  6
CONTINUOUS
  0
LAYER
  2
DEFPOINTS
 70
     0
 62
     7
  6
CONTINUOUS
  0
ENDTAB
  0
TABLE
  2
STYLE
 70
     1
  0
STYLE
  2
STANDARD
 70
     0
 40
0.0
 41
0.8
 50
0.0
 71
     0
 42
0.2
  3
txt
  4

  0
ENDTAB
  0
TABLE
  2
VIEW
 70
     0
  0
ENDTAB
  0
TABLE
  2
UCS
 70
     0
  0
ENDTAB
  0
TABLE
  2
APPID
 70
     8
  0
APPID
  2
ACAD
 70
     0
  0
APPID
  2
ACAD_DSTYLE_DIMJAG
 70
     0
  0
APPID
  2
ACAD_DSTYLE_DIMTALN
 70
     0
  0
APPID
  2
ACAD_NAV_VCDISPLAY
 70
     0
  0
APPID
  2
ACAD_EXEMPT_FROM_CAD_STANDARDS
 70
     0
  0
APPID
  2
ACAD_MLEADERVER
 70
     0
  0
APPID
  2
ACDBATTR
 70
     0
  0
APPID
  2
ACAD_DSTYLE_DIMRADIAL_EXTENSION
 70
     0
  0
ENDTAB
  0
TABLE
  2
DIMSTYLE
 70
     1
  0
DIMSTYLE
  2
STANDARD
 70
     0
  3

  4

  5

  6

  7

 40
1.0
 41
0.1875
 42
0.0625
 43
0.38
 44
0.125
 45
0.0
 46
0.0
 47
0.01
 48
0.01
140
0.15625
141
0.09
142
0.0
143
25.3999999999999986
144
1.0
145
0.0
146
1.0
147
0.09
 71
     1
 72
     0
 73
     1
 74
     1
 75
     0
 76
     0
 77
     0
 78
     4
170
     0
171
     2
172
     0
173
     0
174
     0
175
     0
176
     0
177
     0
178
     0
  0
ENDTAB
  0
ENDSEC
  0
SECTION
  2
BLOCKS
  0
BLOCK
  8
0
  2
$MODEL_SPACE
 70
     0
 10
0.0
 20
0.0
 30
0.0
  3
$MODEL_SPACE
  1

  0
ENDBLK
  5
21
  8
0
  0
BLOCK
 67
     1
  8
0
  2
$PAPER_SPACE
 70
     0
 10
0.0
 20
0.0
 30
0.0
  3
$PAPER_SPACE
  1

  0
ENDBLK
  5
1D
 67
     1
  8
0
  0
BLOCK
  8
0
  2
_FILLED
 70
     0
 10
0.0
 20
0.0
 30
0.0
  3
_FILLED
  1

  0
SOLID
  5
3F54
  8
0
  6
BYBLOCK
 62
     0
 10
0.0
 20
0.0
 30
0.0
 11
-1.0
 21
0.1666666667
 31
0.0
 12
-1.0
 22
-0.1666666667
 32
0.0
 13
-1.0
 23
-0.1666666667
 33
0.0
  0
ENDBLK
  5
3F55
  8
0
  6
BYBLOCK
 62
     0
  0
ENDSEC
  0
SECTION
  2
ENTITIES
  0
ATTDEF
  5
3EC5
  8
DEFPOINTS
 10
-8.3176460891604922
 20
-1.2202448190360431
 30
0.0
 40
0.001
  1
K-13696
  3

  2
MODELNUMBER
 70
     0
1001
ACDBATTR
1070
     0
1070
     1
  0
ATTDEF
  5
3EC6
  8
DEFPOINTS
 10
-8.3176460891604922
 20
-1.221911485702708
 30
0.0
 40
0.001
  1
RADIANT
  3

  2
TRADENAME
 70
     0
1001
ACDBATTR
1070
     0
1070
     1
  0
ATTDEF
  5
3EC7
  8
DEFPOINTS
 10
-8.3176460891604922
 20
-1.223578152369373
 30
0.0
 40
0.001
  1
SHOWERHEAD
  3

  2
PRODUCT
 70
     0
1001
ACDBATTR
1070
     0
1070
     1
  0
LINE
  5
4841
  8
0
 10
-13.3186715139488605
 20
-1.215529077799175
 30
0.0
 11
-3.3186715139488561
 21
-1.215529077799175
 31
0.0
  0
LINE
  5
4842
  8
0
 10
-13.3186715139488605
 20
-8.6082692937121141
 30
0.0
 11
-3.3186715139488561
 21
-8.6082692937121141
 31
0.0
  0
LINE
  5
4843
  8
0
 10
-13.3186715139488605
 20
-1.2155290777991761
 30
0.0
 11
-13.3186715139488605
 21
-8.6082692937121141
 31
0.0
  0
LINE
  5
4844
  8
0
 10
-3.3186715139488561
 20
-1.2155290777991761
 30
0.0
 11
-3.3186715139488561
 21
-8.6082692937121141
 31
0.0
  0
LINE
  5
4845
  8
0
 10
-3.3186715139488561
 20
-1.5284377478929529
 30
0.0
 11
-13.3186715139488498
 21
-1.5284377478929529
 31
0.0
  0
LINE
  5
4846
  8
0
 10
-3.3485927737299921
 20
-1.570752799285871
 30
0.0
 11
-13.28875025406772
 21
-1.570752799285871
 31
0.0
  0
ARC
  5
4847
  8
0
 10
-3.3865620805044681
 20
-1.512168156452105
 30
0.0
 40
0.0698128113808209
 50
302.9476855271009867
 51
346.5235351165126758
  0
ARC
  5
4848
  8
0
 10
-13.2507847023008907
 20
-1.5121708114637149
 30
0.0
 40
0.0698085411444939
 50
193.4750639877705964
 51
237.053715591199591
  0
ARC
  5
4849
  8
0
 10
-12.4953390661990102
 20
-2.1771283723436672
 30
0.0
 40
0.0262174629962694
 50
97.8569376147588628
 51
141.649035104387309
  0
ARC
  5
484A
  8
0
 10
-12.4919347523342203
 20
-2.1862789913367058
 30
0.0
 40
0.0358104449869578
 50
60.7874222569299505
 51
101.2532159677120944
  0
ARC
  5
484B
  8
0
 10
-12.4818540079403597
 20
-2.1703125766801672
 30
0.0
 40
0.0169846297549829
 50
15.5783125429725207
 51
64.1837006098832887
  0
ARC
  5
484C
  8
0
 10
-12.4792691919136001
 20
-2.1695919376363131
 30
0.0
 40
0.0143012374013211
 50
327.7979882057106238
 51
15.5783125429716698
  0
ARC
  5
484D
  8
0
 10
-12.4847226618470408
 20
-2.1661574369092911
 30
0.0
 40
0.0207460903522246
 50
294.5421888526400949
 51
327.7979882057106806
  0
ARC
  5
484E
  8
0
 10
-12.4917723260252895
 20
-2.1507184969011282
 30
0.0
 40
0.0377183805218454
 50
241.4464821965669046
 51
294.5421888526399812
  0
ARC
  5
484F
  8
0
 10
-12.5012803372937302
 20
-2.1681911354883008
 30
0.0
 40
0.017826287181054
 50
201.0840122144792019
 51
241.4464821965675867
  0
ARC
  5
4850
  8
0
 10
-12.5047216507043508
 20
-2.169517924697808
 30
0.0
 40
0.0141380616461162
 50
142.2432570289163039
 51
201.0840122144786903
  0
ARC
  5
4851
  8
0
 10
-12.5078889599762597
 20
-2.161499040302941
 30
0.0
 40
0.0383798599857378
 50
191.1660939523314937
 51
237.0857252520384861
  0
ARC
  5
4852
  8
0
 10
-12.4925484162854197
 20
-2.1382948278732892
 30
0.0
 40
0.0661957850697034
 50
236.8525800400466039
 51
270.5612916271606991
  0
ARC
  5
4853
  8
0
 10
-12.4926055769146203
 20
-2.1324601460791688
 30
0.0
 40
0.0720307468498838
 50
270.5612916271604149
 51
298.4556179892563819
  0
ARC
  5
4854
  8
0
 10
-12.4776361081319997
 20
-2.1600814796087171
 30
0.0
 40
0.0406138236780565
 50
298.4556179892567229
 51
332.9437741911260105
  0
ARC
  5
4855
  8
0
 10
-12.4683352410103403
 20
-2.1648320106057231
 30
0.0
 40
0.0301699894219883
 50
332.9437741911266926
 51
19.715712542526969
  0
ARC
  5
4856
  8
0
 10
-12.4692111246350006
 20
-2.1651458933656769
 30
0.0
 40
0.0311004164803505
 50
19.7157125425269193
 51
54.8331801483434305
  0
ARC
  5
4857
  8
0
 10
-12.4924452235893995
 20
-2.1981228549514471
 30
0.0
 40
0.0714402646413492
 50
54.8331801483434305
 51
104.294939247249701
  0
ARC
  5
4858
  8
0
 10
-12.49860240391879
 20
-2.1806169651555658
 30
0.0
 40
0.0529816253121694
 50
102.5166793028133014
 51
141.0664828003309026
  0
ARC
  5
4859
  8
0
 10
-12.5165676987810404
 20
-2.1650467937963498
 30
0.0
 40
0.029233837479575
 50
142.6776240063616967
 51
187.636168006965903
  0
ARC
  5
485A
  8
0
 10
-12.5137384057744505
 20
-2.126776372779501
 30
0.0
 40
0.0528902266416446
 50
207.4387534367899946
 51
233.0688354146961103
  0
ARC
  5
485B
  8
0
 10
-12.5283555846136903
 20
-2.1343657461528411
 30
0.0
 40
0.0364202386204419
 50
164.4484521359381972
 51
207.4387534367903925
  0
ARC
  5
485C
  8
0
 10
-12.5212780194909392
 20
-2.1363353876509672
 30
0.0
 40
0.0437667626759333
 50
137.0346300022756054
 51
164.448452135937913
  0
ARC
  5
485D
  8
0
 10
-12.4973065793627907
 20
-2.1621166104442109
 30
0.0
 40
0.0789200915161391
 50
96.4644944651972338
 51
135.1990434438525881
  0
ARC
  5
485E
  8
0
 10
-12.4918888759189706
 20
-2.1792807461315582
 30
0.0
 40
0.0966466853071577
 50
61.6197181887614533
 51
98.5106869862444512
  0
ARC
  5
485F
  8
0
 10
-12.4766680862766801
 20
-2.1488286489761719
 30
0.0
 40
0.0626291568741701
 50
40.9102408543890306
 51
60.6288048219719471
  0
ARC
  5
4860
  8
0
 10
-12.4617334229451995
 20
-2.1358054056440361
 30
0.0
 40
0.042813924073279
 50
8.5372227153911826
 51
40.8275525468781382
  0
ARC
  5
4861
  8
0
 10
-12.45789240613
 20
-2.1340910752824338
 30
0.0
 40
0.038777297864841
 50
324.0143525887010014
 51
6.8745443542275169
  0
ARC
  5
4862
  8
0
 10
-12.4705240803549593
 20
-2.1260546226732342
 30
0.0
 40
0.0537283420409773
 50
306.6125708400751932
 51
324.9947844543247015
  0
LINE
  5
4863
  8
0
 10
-12.5575110708386806
 20
-2.1117855301123991
 30
0.0
 11
-12.5455457397017796
 21
-2.1689056016664421
 31
0.0
  0
LINE
  5
4864
  8
0
 10
-12.4382931086124007
 20
-2.1676066353925521
 30
0.0
 11
-12.4262621673987006
 21
-2.1118299572747699
 31
0.0
  0
ARC
  5
4865
  8
0
 10
-11.4462273804020693
 20
-2.1771283723436672
 30
0.0
 40
0.0262174629962694
 50
97.8569376147588628
 51
141.649035104387309
  0
ARC
  5
4866
  8
0
 10
-11.4428230665372705
 20
-2.1862789913367058
 30
0.0
 40
0.0358104449869578
 50
60.7874222569299505
 51
101.2532159677120944
  0
ARC
  5
4867
  8
0
 10
-11.4327423221434099
 20
-2.1703125766801672
 30
0.0
 40
0.0169846297549829
 50
15.5783125429725207
 51
64.1837006098832887
  0
ARC
  5
4868
  8
0
 10
-11.4301575061166591
 20
-2.1695919376363131
 30
0.0
 40
0.0143012374013211
 50
327.7979882057106238
 51
15.5783125429716698
  0
ARC
  5
4869
  8
0
 10
-11.4356109760500892
 20
-2.1661574369092911
 30
0.0
 40
0.0207460903522246
 50
294.5421888526400949
 51
327.7979882057106806
  0
ARC
  5
486A
  8
0
 10
-11.4426606402283504
 20
-2.1507184969011282
 30
0.0
 40
0.0377183805218454
 50
241.4464821965669046
 51
294.5421888526399812
  0
ARC
  5
486B
  8
0
 10
-11.4521686514967893
 20
-2.1681911354883008
 30
0.0
 40
0.017826287181054
 50
201.0840122144792019
 51
241.4464821965675867
  0
ARC
  5
486C
  8
0
 10
-11.4556099649073992
 20
-2.169517924697808
 30
0.0
 40
0.0141380616461162
 50
142.2432570289163039
 51
201.0840122144786051
  0
ARC
  5
486D
  8
0
 10
-11.4587772741793206
 20
-2.161499040302941
 30
0.0
 40
0.0383798599857378
 50
191.1660939523314937
 51
237.0857252520384861
  0
ARC
  5
486E
  8
0
 10
-11.4434367304884805
 20
-2.1382948278732892
 30
0.0
 40
0.0661957850697034
 50
236.8525800400466039
 51
270.5612916271606991
  0
ARC
  5
486F
  8
0
 10
-11.4434938911176793
 20
-2.1324601460791688
 30
0.0
 40
0.0720307468498838
 50
270.5612916271604149
 51
298.4556179892563819
  0
ARC
  5
4870
  8
0
 10
-11.4285244223350499
 20
-2.1600814796087171
 30
0.0
 40
0.0406138236780565
 50
298.4556179892567229
 51
332.9437741911260105
  0
ARC
  5
4871
  8
0
 10
-11.4192235552133994
 20
-2.1648320106057231
 30
0.0
 40
0.0301699894219883
 50
332.9437741911266926
 51
19.715712542526969
  0
ARC
  5
4872
  8
0
 10
-11.4200994388380508
 20
-2.1651458933656769
 30
0.0
 40
0.0311004164803505
 50
19.7157125425269193
 51
54.8331801483434305
  0
ARC
  5
4873
  8
0
 10
-11.4433335377924497
 20
-2.1981228549514471
 30
0.0
 40
0.0714402646413492
 50
54.8331801483434305
 51
104.294939247249701
  0
ARC
  5
4874
  8
0
 10
-11.4494907181218508
 20
-2.1806169651555658
 30
0.0
 40
0.0529816253121694
 50
102.5166793028133014
 51
141.0664828003309026
  0
ARC
  5
4875
  8
0
 10
-11.4674560129840994
 20
-2.1650467937963498
 30
0.0
 40
0.029233837479575
 50
142.6776240063616967
 51
187.636168006965903
  0
ARC
  5
4876
  8
0
 10
-11.4646267199775007
 20
-2.126776372779501
 30
0.0
 40
0.0528902266416446
 50
207.4387534367899946
 51
233.0688354146961103
  0
ARC
  5
4877
  8
0
 10
-11.4792438988167493
 20
-2.1343657461528411
 30
0.0
 40
0.0364202386204419
 50
164.4484521359381972
 51
207.4387534367903925
  0
ARC
  5
4878
  8
0
 10
-11.4721663336940001
 20
-2.1363353876509672
 30
0.0
 40
0.0437667626759333
 50
137.0346300022756054
 51
164.448452135937913
  0
ARC
  5
4879
  8
0
 10
-11.4481948935658497
 20
-2.1621166104442109
 30
0.0
 40
0.0789200915161391
 50
96.4644944651972338
 51
135.1990434438525881
  0
ARC
  5
487A
  8
0
 10
-11.4427771901220297
 20
-2.1792807461315582
 30
0.0
 40
0.0966466853071577
 50
61.6197181887614533
 51
98.5106869862444512
  0
ARC
  5
487B
  8
0
 10
-11.4275564004797392
 20
-2.1488286489761719
 30
0.0
 40
0.0626291568741701
 50
40.9102408543890306
 51
60.6288048219719471
  0
ARC
  5
487C
  8
0
 10
-11.4126217371482497
 20
-2.1358054056440361
 30
0.0
 40
0.042813924073279
 50
8.5372227153911826
 51
40.8275525468781382
  0
ARC
  5
487D
  8
0
 10
-11.4087807203330502
 20
-2.1340910752824338
 30
0.0
 40
0.038777297864841
 50
324.0143525887010014
 51
6.8745443542275169
  0
ARC
  5
487E
  8
0
 10
-11.4214123945580095
 20
-2.1260546226732342
 30
0.0
 40
0.0537283420409773
 50
306.6125708400751932
 51
324.9947844543247015
  0
LINE
  5
487F
  8
0
 10
-11.5083993850417308
 20
-2.1117855301123991
 30
0.0
 11
-11.4964340539048298
 21
-2.1689056016664421
 31
0.0
  0
LINE
  5
4880
  8
0
 10
-11.3891814228154598
 20
-2.1676066353925521
 30
0.0
 11
-11.3771504816017508
 21
-2.1118299572747699
 31
0.0
  0
ARC
  5
4881
  8
0
 10
-10.4076086603453408
 20
-2.1771283723436672
 30
0.0
 40
0.0262174629962694
 50
97.8569376147588628
 51
141.649035104387309
  0
ARC
  5
4882
  8
0
 10
-10.4042043464805403
 20
-2.1862789913367058
 30
0.0
 40
0.0358104449869578
 50
60.7874222569299505
 51
101.2532159677120944
  0
ARC
  5
4883
  8
0
 10
-10.3941236020866796
 20
-2.1703125766801672
 30
0.0
 40
0.0169846297549829
 50
15.5783125429725207
 51
64.1837006098832887
  0
ARC
  5
4884
  8
0
 10
-10.3915387860599306
 20
-2.1695919376363131
 30
0.0
 40
0.0143012374013211
 50
327.7979882057106238
 51
15.5783125429716698
  0
ARC
  5
4885
  8
0
 10
-10.3969922559933607
 20
-2.1661574369092911
 30
0.0
 40
0.0207460903522246
 50
294.5421888526400949
 51
327.7979882057106806
  0
ARC
  5
4886
  8
0
 10
-10.4040419201716094
 20
-2.1507184969011282
 30
0.0
 40
0.0377183805218454
 50
241.4464821965669046
 51
294.5421888526399812
  0
ARC
  5
4887
  8
0
 10
-10.4135499314400501
 20
-2.1681911354883008
 30
0.0
 40
0.017826287181054
 50
201.0840122144792019
 51
241.4464821965675867
  0
ARC
  5
4888
  8
0
 10
-10.4169912448506707
 20
-2.169517924697808
 30
0.0
 40
0.0141380616461162
 50
142.2432570289163039
 51
201.0840122144786051
  0
ARC
  5
4889
  8
0
 10
-10.4201585541225796
 20
-2.161499040302941
 30
0.0
 40
0.0383798599857378
 50
191.1660939523314937
 51
237.0857252520384861
  0
ARC
  5
488A
  8
0
 10
-10.4048180104317503
 20
-2.1382948278732892
 30
0.0
 40
0.0661957850697034
 50
236.8525800400466039
 51
270.5612916271606991
  0
ARC
  5
488B
  8
0
 10
-10.4048751710609402
 20
-2.1324601460791688
 30
0.0
 40
0.0720307468498838
 50
270.5612916271604149
 51
298.4556179892563819
  0
ARC
  5
488C
  8
0
 10
-10.3899057022783197
 20
-2.1600814796087171
 30
0.0
 40
0.0406138236780565
 50
298.4556179892567229
 51
332.9437741911260105
  0
ARC
  5
488D
  8
0
 10
-10.3806048351566709
 20
-2.1648320106057231
 30
0.0
 40
0.0301699894219883
 50
332.9437741911266926
 51
19.715712542526969
  0
ARC
  5
488E
  8
0
 10
-10.3814807187813205
 20
-2.1651458933656769
 30
0.0
 40
0.0311004164803505
 50
19.7157125425269193
 51
54.8331801483434305
  0
ARC
  5
488F
  8
0
 10
-10.4047148177357194
 20
-2.1981228549514471
 30
0.0
 40
0.0714402646413492
 50
54.8331801483434305
 51
104.294939247249701
  0
ARC
  5
4890
  8
0
 10
-10.4108719980651205
 20
-2.1806169651555658
 30
0.0
 40
0.0529816253121694
 50
102.5166793028133014
 51
141.0664828003309026
  0
ARC
  5
4891
  8
0
 10
-10.4288372929273603
 20
-2.1650467937963498
 30
0.0
 40
0.029233837479575
 50
142.6776240063616967
 51
187.636168006965903
  0
ARC
  5
4892
  8
0
 10
-10.4260079999207704
 20
-2.126776372779501
 30
0.0
 40
0.0528902266416446
 50
207.4387534367899946
 51
233.0688354146961103
  0
ARC
  5
4893
  8
0
 10
-10.4406251787600208
 20
-2.1343657461528411
 30
0.0
 40
0.0364202386204419
 50
164.4484521359381972
 51
207.4387534367903925
  0
ARC
  5
4894
  8
0
 10
-10.4335476136372698
 20
-2.1363353876509672
 30
0.0
 40
0.0437667626759333
 50
137.0346300022756054
 51
164.448452135937913
  0
ARC
  5
4895
  8
0
 10
-10.4095761735091106
 20
-2.1621166104442109
 30
0.0
 40
0.0789200915161391
 50
96.4644944651972338
 51
135.1990434438525881
  0
ARC
  5
4896
  8
0
 10
-10.4041584700652905
 20
-2.1792807461315582
 30
0.0
 40
0.0966466853071577
 50
61.6197181887614533
 51
98.5106869862444512
  0
ARC
  5
4897
  8
0
 10
-10.3889376804230107
 20
-2.1488286489761719
 30
0.0
 40
0.0626291568741701
 50
40.9102408543890306
 51
60.628804821972011
  0
ARC
  5
4898
  8
0
 10
-10.3740030170915194
 20
-2.1358054056440361
 30
0.0
 40
0.042813924073279
 50
8.5372227153911826
 51
40.8275525468781382
  0
ARC
  5
4899
  8
0
 10
-10.37016200027632
 20
-2.1340910752824338
 30
0.0
 40
0.038777297864841
 50
324.0143525887010014
 51
6.8745443542275169
  0
ARC
  5
489A
  8
0
 10
-10.3827936745012792
 20
-2.1260546226732342
 30
0.0
 40
0.0537283420409773
 50
306.6125708400751932
 51
324.9947844543247015
  0
LINE
  5
489B
  8
0
 10
-10.4697806649850005
 20
-2.1117855301123991
 30
0.0
 11
-10.4578153338480995
 21
-2.1689056016664421
 31
0.0
  0
LINE
  5
489C
  8
0
 10
-10.3505627027587295
 20
-2.1676066353925521
 30
0.0
 11
-10.3385317615450205
 21
-2.1118299572747699
 31
0.0
  0
ARC
  5
489D
  8
0
 10
-9.3633092280730281
 20
-2.1771283723436672
 30
0.0
 40
0.0262174629962694
 50
97.8569376147588628
 51
141.649035104387309
  0
ARC
  5
489E
  8
0
 10
-9.3599049142082347
 20
-2.1862789913367058
 30
0.0
 40
0.0358104449869578
 50
60.7874222569299505
 51
101.2532159677120944
  0
ARC
  5
489F
  8
0
 10
-9.3498241698143723
 20
-2.1703125766801672
 30
0.0
 40
0.0169846297549829
 50
15.5783125429725207
 51
64.1837006098832887
  0
ARC
  5
48A0
  8
0
 10
-9.3472393537876162
 20
-2.1695919376363131
 30
0.0
 40
0.0143012374013211
 50
327.7979882057106238
 51
15.5783125429716698
  0
ARC
  5
48A1
  8
0
 10
-9.3526928237210498
 20
-2.1661574369092911
 30
0.0
 40
0.0207460903522246
 50
294.5421888526400949
 51
327.7979882057106806
  0
ARC
  5
48A2
  8
0
 10
-9.3597424878993039
 20
-2.1507184969011282
 30
0.0
 40
0.0377183805218454
 50
241.4464821965669046
 51
294.5421888526399812
  0
ARC
  5
48A3
  8
0
 10
-9.3692504991677446
 20
-2.1681911354883008
 30
0.0
 40
0.017826287181054
 50
201.0840122144792019
 51
241.4464821965675867
  0
ARC
  5
48A4
  8
0
 10
-9.3726918125783634
 20
-2.169517924697808
 30
0.0
 40
0.0141380616461162
 50
142.2432570289163039
 51
201.0840122144786051
  0
ARC
  5
48A5
  8
0
 10
-9.3758591218502758
 20
-2.161499040302941
 30
0.0
 40
0.0383798599857378
 50
191.1660939523314937
 51
237.0857252520384861
  0
ARC
  5
48A6
  8
0
 10
-9.3605185781594393
 20
-2.1382948278732892
 30
0.0
 40
0.0661957850697034
 50
236.8525800400466039
 51
270.5612916271606991
  0
ARC
  5
48A7
  8
0
 10
-9.3605757387886364
 20
-2.1324601460791688
 30
0.0
 40
0.0720307468498838
 50
270.5612916271604149
 51
298.4556179892563819
  0
ARC
  5
48A8
  8
0
 10
-9.3456062700060123
 20
-2.1600814796087171
 30
0.0
 40
0.0406138236780565
 50
298.4556179892567229
 51
332.9437741911260105
  0
ARC
  5
48A9
  8
0
 10
-9.3363054028843564
 20
-2.1648320106057231
 30
0.0
 40
0.0301699894219883
 50
332.9437741911266926
 51
19.715712542526969
  0
ARC
  5
48AA
  8
0
 10
-9.3371812865090096
 20
-2.1651458933656769
 30
0.0
 40
0.0311004164803505
 50
19.7157125425268589
 51
54.8331801483434305
  0
ARC
  5
48AB
  8
0
 10
-9.3604153854634138
 20
-2.1981228549514471
 30
0.0
 40
0.0714402646413492
 50
54.8331801483434305
 51
104.2949392472498005
  0
ARC
  5
48AC
  8
0
 10
-9.3665725657928096
 20
-2.1806169651555658
 30
0.0
 40
0.0529816253121694
 50
102.5166793028133014
 51
141.0664828003309026
  0
ARC
  5
48AD
  8
0
 10
-9.3845378606550547
 20
-2.1650467937963498
 30
0.0
 40
0.029233837479575
 50
142.6776240063616967
 51
187.636168006965903
  0
ARC
  5
48AE
  8
0
 10
-9.3817085676484595
 20
-2.126776372779501
 30
0.0
 40
0.0528902266416446
 50
207.4387534367899946
 51
233.0688354146961103
  0
ARC
  5
48AF
  8
0
 10
-9.3963257464877081
 20
-2.1343657461528411
 30
0.0
 40
0.0364202386204419
 50
164.4484521359381972
 51
207.4387534367903925
  0
ARC
  5
48B0
  8
0
 10
-9.3892481813649589
 20
-2.1363353876509672
 30
0.0
 40
0.0437667626759333
 50
137.0346300022756054
 51
164.448452135937913
  0
ARC
  5
48B1
  8
0
 10
-9.3652767412368032
 20
-2.1621166104442109
 30
0.0
 40
0.0789200915161391
 50
96.4644944651972338
 51
135.1990434438525881
  0
ARC
  5
48B2
  8
0
 10
-9.3598590377929831
 20
-2.1792807461315582
 30
0.0
 40
0.0966466853071577
 50
61.6197181887614533
 51
98.5106869862444512
  0
ARC
  5
48B3
  8
0
 10
-9.3446382481506998
 20
-2.1488286489761719
 30
0.0
 40
0.0626291568741701
 50
40.9102408543890306
 51
60.628804821972011
  0
ARC
  5
48B4
  8
0
 10
-9.329703584819212
 20
-2.1358054056440361
 30
0.0
 40
0.042813924073279
 50
8.5372227153911826
 51
40.8275525468781382
  0
ARC
  5
48B5
  8
0
 10
-9.3258625680040108
 20
-2.1340910752824338
 30
0.0
 40
0.038777297864841
 50
324.0143525887010014
 51
6.8745443542275169
  0
ARC
  5
48B6
  8
0
 10
-9.3384942422289718
 20
-2.1260546226732342
 30
0.0
 40
0.0537283420409773
 50
306.6125708400751932
 51
324.9947844543247015
  0
LINE
  5
48B7
  8
0
 10
-9.4254812327126931
 20
-2.1117855301123991
 30
0.0
 11
-9.4135159015757921
 21
-2.1689056016664421
 31
0.0
  0
LINE
  5
48B8
  8
0
 10
-9.3062632704864185
 20
-2.1676066353925521
 30
0.0
 11
-9.2942323292727114
 21
-2.1118299572747699
 31
0.0
  0
ARC
  5
48B9
  8
0
 10
-8.3226511478959182
 20
-2.1771283723436672
 30
0.0
 40
0.0262174629962694
 50
97.8569376147588628
 51
141.649035104387309
  0
ARC
  5
48BA
  8
0
 10
-8.3192468340311247
 20
-2.1862789913367058
 30
0.0
 40
0.0358104449869578
 50
60.7874222569299505
 51
101.2532159677120944
  0
ARC
  5
48BB
  8
0
 10
-8.3091660896372623
 20
-2.1703125766801672
 30
0.0
 40
0.0169846297549829
 50
15.5783125429725207
 51
64.1837006098832887
  0
ARC
  5
48BC
  8
0
 10
-8.306581273610508
 20
-2.1695919376363131
 30
0.0
 40
0.0143012374013211
 50
327.7979882057106238
 51
15.5783125429716698
  0
ARC
  5
48BD
  8
0
 10
-8.3120347435439381
 20
-2.1661574369092911
 30
0.0
 40
0.0207460903522246
 50
294.5421888526400949
 51
327.7979882057106806
  0
ARC
  5
48BE
  8
0
 10
-8.3190844077221922
 20
-2.1507184969011282
 30
0.0
 40
0.0377183805218454
 50
241.4464821965669046
 51
294.5421888526399812
  0
ARC
  5
48BF
  8
0
 10
-8.3285924189906346
 20
-2.1681911354883008
 30
0.0
 40
0.017826287181054
 50
201.0840122144792019
 51
241.4464821965675867
  0
ARC
  5
48C0
  8
0
 10
-8.3320337324012534
 20
-2.169517924697808
 30
0.0
 40
0.0141380616461162
 50
142.2432570289163039
 51
201.0840122144786051
  0
ARC
  5
48C1
  8
0
 10
-8.3352010416731641
 20
-2.161499040302941
 30
0.0
 40
0.0383798599857378
 50
191.1660939523314937
 51
237.0857252520384861
  0
ARC
  5
48C2
  8
0
 10
-8.3198604979823294
 20
-2.1382948278732892
 30
0.0
 40
0.0661957850697034
 50
236.8525800400466039
 51
270.5612916271606991
  0
ARC
  5
48C3
  8
0
 10
-8.3199176586115264
 20
-2.1324601460791688
 30
0.0
 40
0.0720307468498838
 50
270.5612916271604149
 51
298.4556179892563819
  0
ARC
  5
48C4
  8
0
 10
-8.3049481898289024
 20
-2.1600814796087171
 30
0.0
 40
0.0406138236780565
 50
298.4556179892567229
 51
332.9437741911260105
  0
ARC
  5
48C5
  8
0
 10
-8.2956473227072465
 20
-2.1648320106057231
 30
0.0
 40
0.0301699894219883
 50
332.9437741911266926
 51
19.715712542526969
  0
ARC
  5
48C6
  8
0
 10
-8.2965232063318997
 20
-2.1651458933656769
 30
0.0
 40
0.0311004164803505
 50
19.7157125425268589
 51
54.8331801483434305
  0
ARC
  5
48C7
  8
0
 10
-8.3197573052863039
 20
-2.1981228549514471
 30
0.0
 40
0.0714402646413492
 50
54.8331801483434305
 51
104.2949392472498005
  0
ARC
  5
48C8
  8
0
 10
-8.3259144856156997
 20
-2.1806169651555658
 30
0.0
 40
0.0529816253121694
 50
102.5166793028133014
 51
141.0664828003309026
  0
ARC
  5
48C9
  8
0
 10
-8.3438797804779448
 20
-2.1650467937963498
 30
0.0
 40
0.029233837479575
 50
142.6776240063616967
 51
187.636168006965903
  0
ARC
  5
48CA
  8
0
 10
-8.3410504874713496
 20
-2.126776372779501
 30
0.0
 40
0.0528902266416446
 50
207.4387534367899946
 51
233.0688354146961103
  0
ARC
  5
48CB
  8
0
 10
-8.3556676663105982
 20
-2.1343657461528411
 30
0.0
 40
0.0364202386204419
 50
164.4484521359381972
 51
207.4387534367903925
  0
ARC
  5
48CC
  8
0
 10
-8.3485901011878472
 20
-2.1363353876509672
 30
0.0
 40
0.0437667626759333
 50
137.0346300022756054
 51
164.448452135937913
  0
ARC
  5
48CD
  8
0
 10
-8.3246186610596951
 20
-2.1621166104442109
 30
0.0
 40
0.0789200915161391
 50
96.4644944651972338
 51
135.1990434438525881
  0
ARC
  5
48CE
  8
0
 10
-8.3192009576158732
 20
-2.1792807461315582
 30
0.0
 40
0.0966466853071577
 50
61.6197181887614533
 51
98.5106869862444512
  0
ARC
  5
48CF
  8
0
 10
-8.3039801679735898
 20
-2.1488286489761719
 30
0.0
 40
0.0626291568741701
 50
40.9102408543890306
 51
60.6288048219719471
  0
ARC
  5
48D0
  8
0
 10
-8.2890455046421021
 20
-2.1358054056440361
 30
0.0
 40
0.042813924073279
 50
8.5372227153911826
 51
40.8275525468781382
  0
ARC
  5
48D1
  8
0
 10
-8.2852044878269009
 20
-2.1340910752824338
 30
0.0
 40
0.038777297864841
 50
324.0143525887010014
 51
6.8745443542275169
  0
ARC
  5
48D2
  8
0
 10
-8.2978361620518601
 20
-2.1260546226732342
 30
0.0
 40
0.0537283420409773
 50
306.6125708400751932
 51
324.9947844543247015
  0
LINE
  5
48D3
  8
0
 10
-8.3848231525355832
 20
-2.1117855301123991
 30
0.0
 11
-8.3728578213986822
 21
-2.1689056016664421
 31
0.0
  0
LINE
  5
48D4
  8
0
 10
-8.2656051903093086
 20
-2.1676066353925521
 30
0.0
 11
-8.2535742490956014
 21
-2.1118299572747699
 31
0.0
  0
ARC
  5
48D5
  8
0
 10
-7.276439025436054
 20
-2.1771283723436672
 30
0.0
 40
0.0262174629962694
 50
97.8569376147588628
 51
141.649035104387309
  0
ARC
  5
48D6
  8
0
 10
-7.2730347115712606
 20
-2.1862789913367058
 30
0.0
 40
0.0358104449869578
 50
60.7874222569299505
 51
101.2532159677120944
  0
ARC
  5
48D7
  8
0
 10
-7.2629539671773991
 20
-2.1703125766801672
 30
0.0
 40
0.0169846297549829
 50
15.5783125429725207
 51
64.1837006098832887
  0
ARC
  5
48D8
  8
0
 10
-7.2603691511506439
 20
-2.1695919376363131
 30
0.0
 40
0.0143012374013211
 50
327.7979882057106238
 51
15.5783125429716698
  0
ARC
  5
48D9
  8
0
 10
-7.2658226210840766
 20
-2.1661574369092911
 30
0.0
 40
0.0207460903522246
 50
294.5421888526400949
 51
327.7979882057106806
  0
ARC
  5
48DA
  8
0
 10
-7.2728722852623298
 20
-2.1507184969011282
 30
0.0
 40
0.0377183805218454
 50
241.4464821965669046
 51
294.5421888526399812
  0
ARC
  5
48DB
  8
0
 10
-7.2823802965307696
 20
-2.1681911354883008
 30
0.0
 40
0.017826287181054
 50
201.0840122144792019
 51
241.4464821965675867
  0
ARC
  5
48DC
  8
0
 10
-7.2858216099413893
 20
-2.169517924697808
 30
0.0
 40
0.0141380616461162
 50
142.2432570289163039
 51
201.0840122144786051
  0
ARC
  5
48DD
  8
0
 10
-7.2889889192133008
 20
-2.161499040302941
 30
0.0
 40
0.0383798599857378
 50
191.1660939523314937
 51
237.0857252520384861
  0
ARC
  5
48DE
  8
0
 10
-7.273648375522467
 20
-2.1382948278732892
 30
0.0
 40
0.0661957850697034
 50
236.8525800400466039
 51
270.5612916271606991
  0
ARC
  5
48DF
  8
0
 10
-7.2737055361516632
 20
-2.1324601460791688
 30
0.0
 40
0.0720307468498838
 50
270.5612916271604149
 51
298.4556179892563819
  0
ARC
  5
48E0
  8
0
 10
-7.2587360673690391
 20
-2.1600814796087171
 30
0.0
 40
0.0406138236780565
 50
298.4556179892567229
 51
332.9437741911260105
  0
ARC
  5
48E1
  8
0
 10
-7.2494352002473832
 20
-2.1648320106057231
 30
0.0
 40
0.0301699894219883
 50
332.9437741911266926
 51
19.715712542526969
  0
ARC
  5
48E2
  8
0
 10
-7.2503110838720364
 20
-2.1651458933656769
 30
0.0
 40
0.0311004164803505
 50
19.7157125425268589
 51
54.8331801483434305
  0
ARC
  5
48E3
  8
0
 10
-7.2735451828264397
 20
-2.1981228549514471
 30
0.0
 40
0.0714402646413492
 50
54.8331801483434305
 51
104.294939247249701
  0
ARC
  5
48E4
  8
0
 10
-7.2797023631558364
 20
-2.1806169651555658
 30
0.0
 40
0.0529816253121694
 50
102.5166793028133014
 51
141.0664828003309026
  0
ARC
  5
48E5
  8
0
 10
-7.2976676580180806
 20
-2.1650467937963498
 30
0.0
 40
0.029233837479575
 50
142.6776240063616967
 51
187.636168006965903
  0
ARC
  5
48E6
  8
0
 10
-7.2948383650114872
 20
-2.126776372779501
 30
0.0
 40
0.0528902266416446
 50
207.4387534367899946
 51
233.0688354146961103
  0
ARC
  5
48E7
  8
0
 10
-7.3094555438507358
 20
-2.1343657461528411
 30
0.0
 40
0.0364202386204419
 50
164.4484521359381972
 51
207.4387534367903925
  0
ARC
  5
48E8
  8
0
 10
-7.3023779787279848
 20
-2.1363353876509672
 30
0.0
 40
0.0437667626759333
 50
137.0346300022756054
 51
164.448452135937913
  0
ARC
  5
48E9
  8
0
 10
-7.2784065385998318
 20
-2.1621166104442109
 30
0.0
 40
0.0789200915161391
 50
96.4644944651972338
 51
135.1990434438525881
  0
ARC
  5
48EA
  8
0
 10
-7.2729888351560108
 20
-2.1792807461315582
 30
0.0
 40
0.0966466853071577
 50
61.6197181887614533
 51
98.5106869862444512
  0
ARC
  5
48EB
  8
0
 10
-7.2577680455137257
 20
-2.1488286489761719
 30
0.0
 40
0.0626291568741701
 50
40.9102408543890306
 51
60.6288048219719471
  0
ARC
  5
48EC
  8
0
 10
-7.2428333821822379
 20
-2.1358054056440361
 30
0.0
 40
0.042813924073279
 50
8.5372227153911826
 51
40.8275525468781382
  0
ARC
  5
48ED
  8
0
 10
-7.2389923653670367
 20
-2.1340910752824338
 30
0.0
 40
0.038777297864841
 50
324.0143525887010014
 51
6.8745443542275169
  0
ARC
  5
48EE
  8
0
 10
-7.2516240395919978
 20
-2.1260546226732342
 30
0.0
 40
0.0537283420409773
 50
306.6125708400751932
 51
324.9947844543247015
  0
LINE
  5
48EF
  8
0
 10
-7.338611030075719
 20
-2.1117855301123991
 30
0.0
 11
-7.326645698938818
 21
-2.1689056016664421
 31
0.0
  0
LINE
  5
48F0
  8
0
 10
-7.2193930678494453
 20
-2.1676066353925521
 30
0.0
 11
-7.2073621266357382
 21
-2.1118299572747699
 31
0.0
  0
ARC
  5
48F1
  8
0
 10
-6.2338759945785034
 20
-2.1771283723436672
 30
0.0
 40
0.0262174629962694
 50
97.8569376147588628
 51
141.649035104387309
  0
ARC
  5
48F2
  8
0
 10
-6.2304716807137099
 20
-2.1862789913367058
 30
0.0
 40
0.0358104449869578
 50
60.7874222569299505
 51
101.2532159677120944
  0
ARC
  5
48F3
  8
0
 10
-6.2203909363198484
 20
-2.1703125766801672
 30
0.0
 40
0.0169846297549829
 50
15.5783125429725207
 51
64.1837006098832887
  0
ARC
  5
48F4
  8
0
 10
-6.2178061202930941
 20
-2.1695919376363131
 30
0.0
 40
0.0143012374013211
 50
327.7979882057106238
 51
15.5783125429716698
  0
ARC
  5
48F5
  8
0
 10
-6.223259590226526
 20
-2.1661574369092911
 30
0.0
 40
0.0207460903522246
 50
294.5421888526400949
 51
327.7979882057106806
  0
ARC
  5
48F6
  8
0
 10
-6.23030925440478
 20
-2.1507184969011282
 30
0.0
 40
0.0377183805218454
 50
241.4464821965669046
 51
294.5421888526399812
  0
ARC
  5
48F7
  8
0
 10
-6.2398172656732189
 20
-2.1681911354883008
 30
0.0
 40
0.017826287181054
 50
201.0840122144792019
 51
241.4464821965675867
  0
ARC
  5
48F8
  8
0
 10
-6.2432585790838377
 20
-2.169517924697808
 30
0.0
 40
0.0141380616461162
 50
142.2432570289163039
 51
201.0840122144786051
  0
ARC
  5
48F9
  8
0
 10
-6.2464258883557511
 20
-2.161499040302941
 30
0.0
 40
0.0383798599857378
 50
191.1660939523314937
 51
237.0857252520384861
  0
ARC
  5
48FA
  8
0
 10
-6.2310853446649164
 20
-2.1382948278732892
 30
0.0
 40
0.0661957850697034
 50
236.8525800400466039
 51
270.5612916271606991
  0
ARC
  5
48FB
  8
0
 10
-6.2311425052941116
 20
-2.1324601460791688
 30
0.0
 40
0.0720307468498838
 50
270.5612916271604149
 51
298.4556179892563819
  0
ARC
  5
48FC
  8
0
 10
-6.2161730365114893
 20
-2.1600814796087171
 30
0.0
 40
0.0406138236780565
 50
298.4556179892567229
 51
332.9437741911260105
  0
ARC
  5
48FD
  8
0
 10
-6.2068721693898317
 20
-2.1648320106057231
 30
0.0
 40
0.0301699894219883
 50
332.9437741911266926
 51
19.715712542526969
  0
ARC
  5
48FE
  8
0
 10
-6.2077480530144848
 20
-2.1651458933656769
 30
0.0
 40
0.0311004164803505
 50
19.7157125425268589
 51
54.8331801483434305
  0
ARC
  5
48FF
  8
0
 10
-6.230982151968889
 20
-2.1981228549514471
 30
0.0
 40
0.0714402646413492
 50
54.8331801483434305
 51
104.294939247249701
  0
ARC
  5
4900
  8
0
 10
-6.2371393322982849
 20
-2.1806169651555658
 30
0.0
 40
0.0529816253121694
 50
102.5166793028133014
 51
141.0664828003309026
  0
ARC
  5
4901
  8
0
 10
-6.25510462716053
 20
-2.1650467937963498
 30
0.0
 40
0.029233837479575
 50
142.6776240063616967
 51
187.636168006965903
  0
ARC
  5
4902
  8
0
 10
-6.2522753341539357
 20
-2.126776372779501
 30
0.0
 40
0.0528902266416446
 50
207.4387534367899946
 51
233.0688354146961103
  0
ARC
  5
4903
  8
0
 10
-6.2668925129931861
 20
-2.1343657461528411
 30
0.0
 40
0.0364202386204419
 50
164.4484521359381972
 51
207.4387534367903925
  0
ARC
  5
4904
  8
0
 10
-6.259814947870435
 20
-2.1363353876509672
 30
0.0
 40
0.0437667626759333
 50
137.0346300022756054
 51
164.448452135937913
  0
ARC
  5
4905
  8
0
 10
-6.235843507742282
 20
-2.1621166104442109
 30
0.0
 40
0.0789200915161391
 50
96.4644944651972338
 51
135.1990434438525881
  0
ARC
  5
4906
  8
0
 10
-6.230425804298461
 20
-2.1792807461315582
 30
0.0
 40
0.0966466853071577
 50
61.6197181887614533
 51
98.5106869862444512
  0
ARC
  5
4907
  8
0
 10
-6.215205014656175
 20
-2.1488286489761719
 30
0.0
 40
0.0626291568741701
 50
40.9102408543890306
 51
60.6288048219719471
  0
ARC
  5
4908
  8
0
 10
-6.2002703513246882
 20
-2.1358054056440361
 30
0.0
 40
0.042813924073279
 50
8.5372227153911826
 51
40.8275525468781382
  0
ARC
  5
4909
  8
0
 10
-6.1964293345094861
 20
-2.1340910752824338
 30
0.0
 40
0.038777297864841
 50
324.0143525887010014
 51
6.8745443542275169
  0
ARC
  5
490A
  8
0
 10
-6.2090610087344471
 20
-2.1260546226732342
 30
0.0
 40
0.0537283420409773
 50
306.6125708400751932
 51
324.9947844543247015
  0
LINE
  5
490B
  8
0
 10
-6.2960479992181693
 20
-2.1117855301123991
 30
0.0
 11
-6.2840826680812674
 21
-2.1689056016664421
 31
0.0
  0
LINE
  5
490C
  8
0
 10
-6.1768300369918938
 20
-2.1676066353925521
 30
0.0
 11
-6.1647990957781866
 21
-2.1118299572747699
 31
0.0
  0
ARC
  5
490D
  8
0
 10
-5.1914504689637146
 20
-2.1771283723436672
 30
0.0
 40
0.0262174629962694
 50
97.8569376147588628
 51
141.649035104387309
  0
ARC
  5
490E
  8
0
 10
-5.1880461550989221
 20
-2.1862789913367058
 30
0.0
 40
0.0358104449869578
 50
60.7874222569299505
 51
101.2532159677120944
  0
ARC
  5
490F
  8
0
 10
-5.1779654107050588
 20
-2.1703125766801672
 30
0.0
 40
0.0169846297549829
 50
15.5783125429725207
 51
64.1837006098832887
  0
ARC
  5
4910
  8
0
 10
-5.1753805946783054
 20
-2.1695919376363131
 30
0.0
 40
0.0143012374013211
 50
327.7979882057106238
 51
15.5783125429716698
  0
ARC
  5
4911
  8
0
 10
-5.1808340646117372
 20
-2.1661574369092911
 30
0.0
 40
0.0207460903522246
 50
294.5421888526400949
 51
327.7979882057106806
  0
ARC
  5
4912
  8
0
 10
-5.1878837287899913
 20
-2.1507184969011282
 30
0.0
 40
0.0377183805218454
 50
241.4464821965669046
 51
294.5421888526399812
  0
ARC
  5
4913
  8
0
 10
-5.1973917400584311
 20
-2.1681911354883008
 30
0.0
 40
0.017826287181054
 50
201.0840122144792019
 51
241.4464821965675867
  0
ARC
  5
4914
  8
0
 10
-5.2008330534690499
 20
-2.169517924697808
 30
0.0
 40
0.0141380616461162
 50
142.2432570289163039
 51
201.0840122144786051
  0
ARC
  5
4915
  8
0
 10
-5.2040003627409632
 20
-2.161499040302941
 30
0.0
 40
0.0383798599857378
 50
191.1660939523314937
 51
237.0857252520384861
  0
ARC
  5
4916
  8
0
 10
-5.1886598190501259
 20
-2.1382948278732892
 30
0.0
 40
0.0661957850697034
 50
236.8525800400466039
 51
270.5612916271606991
  0
ARC
  5
4917
  8
0
 10
-5.1887169796793229
 20
-2.1324601460791688
 30
0.0
 40
0.0720307468498838
 50
270.5612916271604149
 51
298.4556179892563819
  0
ARC
  5
4918
  8
0
 10
-5.1737475108966988
 20
-2.1600814796087171
 30
0.0
 40
0.0406138236780565
 50
298.4556179892567229
 51
332.9437741911260105
  0
ARC
  5
4919
  8
0
 10
-5.1644466437750429
 20
-2.1648320106057231
 30
0.0
 40
0.0301699894219883
 50
332.9437741911266926
 51
19.7157125425269193
  0
ARC
  5
491A
  8
0
 10
-5.1653225273996961
 20
-2.1651458933656769
 30
0.0
 40
0.0311004164803505
 50
19.7157125425268589
 51
54.8331801483434305
  0
ARC
  5
491B
  8
0
 10
-5.1885566263541012
 20
-2.1981228549514471
 30
0.0
 40
0.0714402646413492
 50
54.8331801483434305
 51
104.294939247249701
  0
ARC
  5
491C
  8
0
 10
-5.194713806683497
 20
-2.1806169651555658
 30
0.0
 40
0.0529816253121694
 50
102.5166793028133014
 51
141.0664828003309026
  0
ARC
  5
491D
  8
0
 10
-5.2126791015457421
 20
-2.1650467937963498
 30
0.0
 40
0.029233837479575
 50
142.6776240063616967
 51
187.636168006965903
  0
ARC
  5
491E
  8
0
 10
-5.209849808539146
 20
-2.126776372779501
 30
0.0
 40
0.0528902266416446
 50
207.4387534367899946
 51
233.0688354146961103
  0
ARC
  5
491F
  8
0
 10
-5.2244669873783973
 20
-2.1343657461528411
 30
0.0
 40
0.0364202386204419
 50
164.4484521359381972
 51
207.4387534367903925
  0
ARC
  5
4920
  8
0
 10
-5.2173894222556463
 20
-2.1363353876509672
 30
0.0
 40
0.0437667626759333
 50
137.0346300022756054
 51
164.448452135937913
  0
ARC
  5
4921
  8
0
 10
-5.1934179821274924
 20
-2.1621166104442109
 30
0.0
 40
0.0789200915161391
 50
96.4644944651972338
 51
135.1990434438525881
  0
ARC
  5
4922
  8
0
 10
-5.1880002786836723
 20
-2.1792807461315582
 30
0.0
 40
0.0966466853071577
 50
61.6197181887614533
 51
98.5106869862444512
  0
ARC
  5
4923
  8
0
 10
-5.1727794890413872
 20
-2.1488286489761719
 30
0.0
 40
0.0626291568741701
 50
40.9102408543890306
 51
60.6288048219719471
  0
ARC
  5
4924
  8
0
 10
-5.1578448257098994
 20
-2.1358054056440361
 30
0.0
 40
0.042813924073279
 50
8.5372227153911826
 51
40.8275525468781382
  0
ARC
  5
4925
  8
0
 10
-5.1540038088946982
 20
-2.1340910752824338
 30
0.0
 40
0.038777297864841
 50
324.0143525887010014
 51
6.8745443542275169
  0
ARC
  5
4926
  8
0
 10
-5.1666354831196593
 20
-2.1260546226732342
 30
0.0
 40
0.0537283420409773
 50
306.6125708400751932
 51
324.9947844543247015
  0
LINE
  5
4927
  8
0
 10
-5.2536224736033796
 20
-2.1117855301123991
 30
0.0
 11
-5.2416571424664786
 21
-2.1689056016664421
 31
0.0
  0
LINE
  5
4928
  8
0
 10
-5.1344045113771051
 20
-2.1676066353925521
 30
0.0
 11
-5.1223735701633979
 21
-2.1118299572747699
 31
0.0
  0
ARC
  5
4929
  8
0
 10
-4.1490645868241884
 20
-2.1771283723436672
 30
0.0
 40
0.0262174629962694
 50
97.8569376147588628
 51
141.649035104387309
  0
ARC
  5
492A
  8
0
 10
-4.1456602729593941
 20
-2.1862789913367058
 30
0.0
 40
0.0358104449869578
 50
60.7874222569300073
 51
101.2532159677120944
  0
ARC
  5
492B
  8
0
 10
-4.1355795285655317
 20
-2.1703125766801672
 30
0.0
 40
0.0169846297549829
 50
15.5783125429725207
 51
64.1837006098832177
  0
ARC
  5
492C
  8
0
 10
-4.1329947125387783
 20
-2.1695919376363131
 30
0.0
 40
0.0143012374013211
 50
327.7979882057106238
 51
15.5783125429716698
  0
ARC
  5
492D
  8
0
 10
-4.1384481824722101
 20
-2.1661574369092911
 30
0.0
 40
0.0207460903522246
 50
294.5421888526400949
 51
327.7979882057106806
  0
ARC
  5
492E
  8
0
 10
-4.1454978466504642
 20
-2.1507184969011282
 30
0.0
 40
0.0377183805218454
 50
241.4464821965669046
 51
294.5421888526399812
  0
ARC
  5
492F
  8
0
 10
-4.155005857918904
 20
-2.1681911354883008
 30
0.0
 40
0.017826287181054
 50
201.0840122144792019
 51
241.4464821965675867
  0
ARC
  5
4930
  8
0
 10
-4.1584471713295228
 20
-2.169517924697808
 30
0.0
 40
0.0141380616461162
 50
142.2432570289163039
 51
201.0840122144786051
  0
ARC
  5
4931
  8
0
 10
-4.1616144806014361
 20
-2.161499040302941
 30
0.0
 40
0.0383798599857378
 50
191.1660939523314937
 51
237.0857252520384861
  0
ARC
  5
4932
  8
0
 10
-4.1462739369105988
 20
-2.1382948278732892
 30
0.0
 40
0.0661957850697034
 50
236.8525800400466039
 51
270.5612916271606991
  0
ARC
  5
4933
  8
0
 10
-4.1463310975397958
 20
-2.1324601460791688
 30
0.0
 40
0.0720307468498838
 50
270.5612916271604149
 51
298.4556179892563819
  0
ARC
  5
4934
  8
0
 10
-4.1313616287571717
 20
-2.1600814796087171
 30
0.0
 40
0.0406138236780565
 50
298.4556179892566092
 51
332.9437741911260105
  0
ARC
  5
4935
  8
0
 10
-4.1220607616355158
 20
-2.1648320106057231
 30
0.0
 40
0.0301699894219883
 50
332.9437741911266926
 51
19.7157125425269193
  0
ARC
  5
4936
  8
0
 10
-4.122936645260169
 20
-2.1651458933656769
 30
0.0
 40
0.0311004164803505
 50
19.7157125425268589
 51
54.8331801483434305
  0
ARC
  5
4937
  8
0
 10
-4.1461707442145741
 20
-2.1981228549514471
 30
0.0
 40
0.0714402646413492
 50
54.8331801483434305
 51
104.294939247249701
  0
ARC
  5
4938
  8
0
 10
-4.152327924543969
 20
-2.1806169651555658
 30
0.0
 40
0.0529816253121694
 50
102.516679302813202
 51
141.0664828003309026
  0
ARC
  5
4939
  8
0
 10
-4.170293219406215
 20
-2.1650467937963498
 30
0.0
 40
0.029233837479575
 50
142.6776240063616967
 51
187.636168006965903
  0
ARC
  5
493A
  8
0
 10
-4.1674639263996189
 20
-2.126776372779501
 30
0.0
 40
0.0528902266416446
 50
207.4387534367899946
 51
233.0688354146961103
  0
ARC
  5
493B
  8
0
 10
-4.1820811052388702
 20
-2.1343657461528411
 30
0.0
 40
0.0364202386204419
 50
164.4484521359381972
 51
207.4387534367903925
  0
ARC
  5
493C
  8
0
 10
-4.1750035401161192
 20
-2.1363353876509672
 30
0.0
 40
0.0437667626759333
 50
137.0346300022756054
 51
164.448452135937913
  0
ARC
  5
493D
  8
0
 10
-4.1510320999879653
 20
-2.1621166104442109
 30
0.0
 40
0.0789200915161391
 50
96.4644944651972338
 51
135.1990434438525881
  0
ARC
  5
493E
  8
0
 10
-4.1456143965441452
 20
-2.1792807461315582
 30
0.0
 40
0.0966466853071577
 50
61.6197181887615102
 51
98.5106869862444512
  0
ARC
  5
493F
  8
0
 10
-4.1303936069018601
 20
-2.1488286489761719
 30
0.0
 40
0.0626291568741701
 50
40.9102408543890306
 51
60.6288048219719471
  0
ARC
  5
4940
  8
0
 10
-4.1154589435703723
 20
-2.1358054056440361
 30
0.0
 40
0.042813924073279
 50
8.5372227153911826
 51
40.8275525468781382
  0
ARC
  5
4941
  8
0
 10
-4.1116179267551711
 20
-2.1340910752824338
 30
0.0
 40
0.038777297864841
 50
324.0143525887010014
 51
6.8745443542275169
  0
ARC
  5
4942
  8
0
 10
-4.1242496009801322
 20
-2.1260546226732342
 30
0.0
 40
0.0537283420409773
 50
306.6125708400751932
 51
324.9947844543247015
  0
LINE
  5
4943
  8
0
 10
-4.2112365914638534
 20
-2.1117855301123991
 30
0.0
 11
-4.1992712603269524
 21
-2.1689056016664421
 31
0.0
  0
LINE
  5
4944
  8
0
 10
-4.092018629237578
 20
-2.1676066353925521
 30
0.0
 11
-4.0799876880238708
 21
-2.1118299572747699
 31
0.0
  0
ARC
  5
4945
  8
0
 10
-12.4953390661990102
 20
-2.9156742058743248
 30
0.0
 40
0.0262174629962694
 50
97.8569376147588628
 51
141.649035104387309
  0
ARC
  5
4946
  8
0
 10
-12.4919347523342203
 20
-2.9248248248673638
 30
0.0
 40
0.0358104449869578
 50
60.7874222569299505
 51
101.2532159677120944
  0
ARC
  5
4947
  8
0
 10
-12.4818540079403597
 20
-2.9088584102108248
 30
0.0
 40
0.0169846297549829
 50
15.5783125429725207
 51
64.1837006098832887
  0
ARC
  5
4948
  8
0
 10
-12.4792691919136001
 20
-2.908137771166972
 30
0.0
 40
0.0143012374013211
 50
327.7979882057106238
 51
15.5783125429716698
  0
ARC
  5
4949
  8
0
 10
-12.4847226618470408
 20
-2.90470327043995
 30
0.0
 40
0.0207460903522246
 50
294.5421888526400949
 51
327.7979882057106806
  0
ARC
  5
494A
  8
0
 10
-12.4917723260252895
 20
-2.8892643304317862
 30
0.0
 40
0.0377183805218454
 50
241.4464821965669046
 51
294.5421888526399812
  0
ARC
  5
494B
  8
0
 10
-12.5012803372937302
 20
-2.9067369690189588
 30
0.0
 40
0.017826287181054
 50
201.0840122144792019
 51
241.4464821965675867
  0
ARC
  5
494C
  8
0
 10
-12.5047216507043508
 20
-2.9080637582284661
 30
0.0
 40
0.0141380616461162
 50
142.2432570289163039
 51
201.0840122144786051
  0
ARC
  5
494D
  8
0
 10
-12.5078889599762597
 20
-2.9000448738335991
 30
0.0
 40
0.0383798599857378
 50
191.1660939523314937
 51
237.0857252520384861
  0
ARC
  5
494E
  8
0
 10
-12.4925484162854197
 20
-2.8768406614039468
 30
0.0
 40
0.0661957850697034
 50
236.8525800400466039
 51
270.5612916271606991
  0
ARC
  5
494F
  8
0
 10
-12.4926055769146203
 20
-2.8710059796098268
 30
0.0
 40
0.0720307468498838
 50
270.5612916271604149
 51
298.4556179892563819
  0
ARC
  5
4950
  8
0
 10
-12.4776361081319997
 20
-2.898627313139376
 30
0.0
 40
0.0406138236780565
 50
298.4556179892567229
 51
332.9437741911260105
  0
ARC
  5
4951
  8
0
 10
-12.4683352410103403
 20
-2.9033778441363811
 30
0.0
 40
0.0301699894219883
 50
332.9437741911266926
 51
19.715712542526969
  0
ARC
  5
4952
  8
0
 10
-12.4692111246350006
 20
-2.9036917268963349
 30
0.0
 40
0.0311004164803505
 50
19.7157125425269193
 51
54.8331801483434305
  0
ARC
  5
4953
  8
0
 10
-12.4924452235893995
 20
-2.936668688482106
 30
0.0
 40
0.0714402646413492
 50
54.8331801483434305
 51
104.294939247249701
  0
ARC
  5
4954
  8
0
 10
-12.49860240391879
 20
-2.9191627986862239
 30
0.0
 40
0.0529816253121694
 50
102.5166793028133014
 51
141.0664828003309026
  0
ARC
  5
4955
  8
0
 10
-12.5165676987810404
 20
-2.9035926273270078
 30
0.0
 40
0.029233837479575
 50
142.6776240063616967
 51
187.636168006965903
  0
ARC
  5
4956
  8
0
 10
-12.5137384057744505
 20
-2.8653222063101591
 30
0.0
 40
0.0528902266416446
 50
207.4387534367899946
 51
233.0688354146961103
  0
ARC
  5
4957
  8
0
 10
-12.5283555846136903
 20
-2.8729115796834992
 30
0.0
 40
0.0364202386204419
 50
164.4484521359381972
 51
207.4387534367903925
  0
ARC
  5
4958
  8
0
 10
-12.5212780194909392
 20
-2.8748812211816248
 30
0.0
 40
0.0437667626759333
 50
137.0346300022756054
 51
164.448452135937913
  0
ARC
  5
4959
  8
0
 10
-12.4973065793627907
 20
-2.9006624439748689
 30
0.0
 40
0.0789200915161391
 50
96.4644944651972338
 51
135.1990434438525881
  0
ARC
  5
495A
  8
0
 10
-12.4918888759189706
 20
-2.9178265796622158
 30
0.0
 40
0.0966466853071577
 50
61.6197181887614533
 51
98.5106869862444512
  0
ARC
  5
495B
  8
0
 10
-12.4766680862766801
 20
-2.8873744825068299
 30
0.0
 40
0.0626291568741701
 50
40.9102408543890306
 51
60.6288048219719471
  0
ARC
  5
495C
  8
0
 10
-12.4617334229451995
 20
-2.874351239174695
 30
0.0
 40
0.042813924073279
 50
8.5372227153911826
 51
40.8275525468781382
  0
ARC
  5
495D
  8
0
 10
-12.45789240613
 20
-2.8726369088130919
 30
0.0
 40
0.038777297864841
 50
324.0143525887010014
 51
6.8745443542275169
  0
ARC
  5
495E
  8
0
 10
-12.4705240803549593
 20
-2.8646004562038918
 30
0.0
 40
0.0537283420409773
 50
306.6125708400751932
 51
324.9947844543247015
  0
LINE
  5
495F
  8
0
 10
-12.5575110708386806
 20
-2.8503313636430572
 30
0.0
 11
-12.5455457397017796
 21
-2.9074514351971001
 31
0.0
  0
LINE
  5
4960
  8
0
 10
-12.4382931086124007
 20
-2.9061524689232101
 30
0.0
 11
-12.4262621673987006
 21
-2.8503757908054279
 31
0.0
  0
ARC
  5
4961
  8
0
 10
-11.4462273804020693
 20
-2.9156742058743248
 30
0.0
 40
0.0262174629962694
 50
97.8569376147588628
 51
141.649035104387309
  0
ARC
  5
4962
  8
0
 10
-11.4428230665372705
 20
-2.9248248248673638
 30
0.0
 40
0.0358104449869578
 50
60.7874222569299505
 51
101.2532159677120944
  0
ARC
  5
4963
  8
0
 10
-11.4327423221434099
 20
-2.9088584102108248
 30
0.0
 40
0.0169846297549829
 50
15.5783125429725207
 51
64.1837006098832887
  0
ARC
  5
4964
  8
0
 10
-11.4301575061166591
 20
-2.908137771166972
 30
0.0
 40
0.0143012374013211
 50
327.7979882057106238
 51
15.5783125429716698
  0
ARC
  5
4965
  8
0
 10
-11.4356109760500892
 20
-2.90470327043995
 30
0.0
 40
0.0207460903522246
 50
294.5421888526400949
 51
327.7979882057106806
  0
ARC
  5
4966
  8
0
 10
-11.4426606402283504
 20
-2.8892643304317862
 30
0.0
 40
0.0377183805218454
 50
241.4464821965669046
 51
294.5421888526399812
  0
ARC
  5
4967
  8
0
 10
-11.4521686514967893
 20
-2.9067369690189588
 30
0.0
 40
0.017826287181054
 50
201.0840122144792019
 51
241.4464821965675867
  0
ARC
  5
4968
  8
0
 10
-11.4556099649073992
 20
-2.9080637582284661
 30
0.0
 40
0.0141380616461162
 50
142.2432570289163039
 51
201.0840122144786051
  0
ARC
  5
4969
  8
0
 10
-11.4587772741793206
 20
-2.9000448738335991
 30
0.0
 40
0.0383798599857378
 50
191.1660939523314937
 51
237.0857252520384861
  0
ARC
  5
496A
  8
0
 10
-11.4434367304884805
 20
-2.8768406614039468
 30
0.0
 40
0.0661957850697034
 50
236.8525800400466039
 51
270.5612916271606991
  0
ARC
  5
496B
  8
0
 10
-11.4434938911176793
 20
-2.8710059796098268
 30
0.0
 40
0.0720307468498838
 50
270.5612916271604149
 51
298.4556179892563819
  0
ARC
  5
496C
  8
0
 10
-11.4285244223350499
 20
-2.898627313139376
 30
0.0
 40
0.0406138236780565
 50
298.4556179892567229
 51
332.9437741911260105
  0
ARC
  5
496D
  8
0
 10
-11.4192235552133994
 20
-2.9033778441363811
 30
0.0
 40
0.0301699894219883
 50
332.9437741911266926
 51
19.715712542526969
  0
ARC
  5
496E
  8
0
 10
-11.4200994388380508
 20
-2.9036917268963349
 30
0.0
 40
0.0311004164803505
 50
19.7157125425269193
 51
54.8331801483434305
  0
ARC
  5
496F
  8
0
 10
-11.4433335377924497
 20
-2.936668688482106
 30
0.0
 40
0.0714402646413492
 50
54.8331801483434305
 51
104.294939247249701
  0
ARC
  5
4970
  8
0
 10
-11.4494907181218508
 20
-2.9191627986862239
 30
0.0
 40
0.0529816253121694
 50
102.5166793028133014
 51
141.0664828003309026
  0
ARC
  5
4971
  8
0
 10
-11.4674560129840994
 20
-2.9035926273270078
 30
0.0
 40
0.029233837479575
 50
142.6776240063616967
 51
187.6361680069657893
  0
ARC
  5
4972
  8
0
 10
-11.4646267199775007
 20
-2.8653222063101591
 30
0.0
 40
0.0528902266416446
 50
207.4387534367899946
 51
233.0688354146961103
  0
ARC
  5
4973
  8
0
 10
-11.4792438988167493
 20
-2.8729115796834992
 30
0.0
 40
0.0364202386204419
 50
164.4484521359381972
 51
207.4387534367903925
  0
ARC
  5
4974
  8
0
 10
-11.4721663336940001
 20
-2.8748812211816248
 30
0.0
 40
0.0437667626759333
 50
137.0346300022756054
 51
164.448452135937913
  0
ARC
  5
4975
  8
0
 10
-11.4481948935658497
 20
-2.9006624439748689
 30
0.0
 40
0.0789200915161391
 50
96.4644944651972338
 51
135.1990434438525881
  0
ARC
  5
4976
  8
0
 10
-11.4427771901220297
 20
-2.9178265796622158
 30
0.0
 40
0.0966466853071577
 50
61.6197181887614533
 51
98.5106869862444512
  0
ARC
  5
4977
  8
0
 10
-11.4275564004797392
 20
-2.8873744825068299
 30
0.0
 40
0.0626291568741701
 50
40.9102408543890306
 51
60.6288048219719471
  0
ARC
  5
4978
  8
0
 10
-11.4126217371482497
 20
-2.874351239174695
 30
0.0
 40
0.042813924073279
 50
8.5372227153911826
 51
40.8275525468781382
  0
ARC
  5
4979
  8
0
 10
-11.4087807203330502
 20
-2.8726369088130919
 30
0.0
 40
0.038777297864841
 50
324.0143525887010014
 51
6.8745443542275169
  0
ARC
  5
497A
  8
0
 10
-11.4214123945580095
 20
-2.8646004562038918
 30
0.0
 40
0.0537283420409773
 50
306.6125708400751932
 51
324.9947844543247015
  0
LINE
  5
497B
  8
0
 10
-11.5083993850417308
 20
-2.8503313636430572
 30
0.0
 11
-11.4964340539048298
 21
-2.9074514351971001
 31
0.0
  0
LINE
  5
497C
  8
0
 10
-11.3891814228154598
 20
-2.9061524689232101
 30
0.0
 11
-11.3771504816017508
 21
-2.8503757908054279
 31
0.0
  0
ARC
  5
497D
  8
0
 10
-10.4076086603453408
 20
-2.9156742058743248
 30
0.0
 40
0.0262174629962694
 50
97.8569376147588628
 51
141.649035104387309
  0
ARC
  5
497E
  8
0
 10
-10.4042043464805403
 20
-2.9248248248673638
 30
0.0
 40
0.0358104449869578
 50
60.7874222569299505
 51
101.2532159677120944
  0
ARC
  5
497F
  8
0
 10
-10.3941236020866796
 20
-2.9088584102108248
 30
0.0
 40
0.0169846297549829
 50
15.5783125429725207
 51
64.1837006098832887
  0
ARC
  5
4980
  8
0
 10
-10.3915387860599306
 20
-2.908137771166972
 30
0.0
 40
0.0143012374013211
 50
327.7979882057106238
 51
15.5783125429716698
  0
ARC
  5
4981
  8
0
 10
-10.3969922559933607
 20
-2.90470327043995
 30
0.0
 40
0.0207460903522246
 50
294.5421888526400949
 51
327.7979882057106806
  0
ARC
  5
4982
  8
0
 10
-10.4040419201716094
 20
-2.8892643304317862
 30
0.0
 40
0.0377183805218454
 50
241.4464821965669046
 51
294.5421888526399812
  0
ARC
  5
4983
  8
0
 10
-10.4135499314400501
 20
-2.9067369690189588
 30
0.0
 40
0.017826287181054
 50
201.0840122144792019
 51
241.4464821965675867
  0
ARC
  5
4984
  8
0
 10
-10.4169912448506707
 20
-2.9080637582284661
 30
0.0
 40
0.0141380616461162
 50
142.2432570289163039
 51
201.0840122144786051
  0
ARC
  5
4985
  8
0
 10
-10.4201585541225796
 20
-2.9000448738335991
 30
0.0
 40
0.0383798599857378
 50
191.1660939523314937
 51
237.0857252520384861
  0
ARC
  5
4986
  8
0
 10
-10.4048180104317503
 20
-2.8768406614039468
 30
0.0
 40
0.0661957850697034
 50
236.8525800400466039
 51
270.5612916271606991
  0
ARC
  5
4987
  8
0
 10
-10.4048751710609402
 20
-2.8710059796098268
 30
0.0
 40
0.0720307468498838
 50
270.5612916271604149
 51
298.4556179892563819
  0
ARC
  5
4988
  8
0
 10
-10.3899057022783197
 20
-2.898627313139376
 30
0.0
 40
0.0406138236780565
 50
298.4556179892567229
 51
332.9437741911260105
  0
ARC
  5
4989
  8
0
 10
-10.3806048351566709
 20
-2.9033778441363811
 30
0.0
 40
0.0301699894219883
 50
332.9437741911266926
 51
19.715712542526969
  0
ARC
  5
498A
  8
0
 10
-10.3814807187813205
 20
-2.9036917268963349
 30
0.0
 40
0.0311004164803505
 50
19.7157125425269193
 51
54.8331801483434305
  0
ARC
  5
498B
  8
0
 10
-10.4047148177357194
 20
-2.936668688482106
 30
0.0
 40
0.0714402646413492
 50
54.8331801483434305
 51
104.294939247249701
  0
ARC
  5
498C
  8
0
 10
-10.4108719980651205
 20
-2.9191627986862239
 30
0.0
 40
0.0529816253121694
 50
102.5166793028133014
 51
141.0664828003309026
  0
ARC
  5
498D
  8
0
 10
-10.4288372929273603
 20
-2.9035926273270078
 30
0.0
 40
0.029233837479575
 50
142.6776240063616967
 51
187.6361680069657893
  0
ARC
  5
498E
  8
0
 10
-10.4260079999207704
 20
-2.8653222063101591
 30
0.0
 40
0.0528902266416446
 50
207.4387534367899946
 51
233.0688354146961103
  0
ARC
  5
498F
  8
0
 10
-10.4406251787600208
 20
-2.8729115796834992
 30
0.0
 40
0.0364202386204419
 50
164.4484521359381972
 51
207.4387534367903925
  0
ARC
  5
4990
  8
0
 10
-10.4335476136372698
 20
-2.8748812211816248
 30
0.0
 40
0.0437667626759333
 50
137.0346300022756054
 51
164.448452135937913
  0
ARC
  5
4991
  8
0
 10
-10.4095761735091106
 20
-2.9006624439748689
 30
0.0
 40
0.0789200915161391
 50
96.4644944651972338
 51
135.1990434438525881
  0
ARC
  5
4992
  8
0
 10
-10.4041584700652905
 20
-2.9178265796622158
 30
0.0
 40
0.0966466853071577
 50
61.6197181887614533
 51
98.5106869862444512
  0
ARC
  5
4993
  8
0
 10
-10.3889376804230107
 20
-2.8873744825068299
 30
0.0
 40
0.0626291568741701
 50
40.9102408543890306
 51
60.628804821972011
  0
ARC
  5
4994
  8
0
 10
-10.3740030170915194
 20
-2.874351239174695
 30
0.0
 40
0.042813924073279
 50
8.5372227153911826
 51
40.8275525468781382
  0
ARC
  5
4995
  8
0
 10
-10.37016200027632
 20
-2.8726369088130919
 30
0.0
 40
0.038777297864841
 50
324.0143525887010014
 51
6.8745443542275169
  0
ARC
  5
4996
  8
0
 10
-10.3827936745012792
 20
-2.8646004562038918
 30
0.0
 40
0.0537283420409773
 50
306.6125708400751932
 51
324.9947844543247015
  0
LINE
  5
4997
  8
0
 10
-10.4697806649850005
 20
-2.8503313636430572
 30
0.0
 11
-10.4578153338480995
 21
-2.9074514351971001
 31
0.0
  0
LINE
  5
4998
  8
0
 10
-10.3505627027587295
 20
-2.9061524689232101
 30
0.0
 11
-10.3385317615450205
 21
-2.8503757908054279
 31
0.0
  0
ARC
  5
4999
  8
0
 10
-9.3633092280730281
 20
-2.9156742058743248
 30
0.0
 40
0.0262174629962694
 50
97.8569376147588628
 51
141.649035104387309
  0
ARC
  5
499A
  8
0
 10
-9.3599049142082347
 20
-2.9248248248673638
 30
0.0
 40
0.0358104449869578
 50
60.7874222569299505
 51
101.2532159677120944
  0
ARC
  5
499B
  8
0
 10
-9.3498241698143723
 20
-2.9088584102108248
 30
0.0
 40
0.0169846297549829
 50
15.5783125429725207
 51
64.1837006098832887
  0
ARC
  5
499C
  8
0
 10
-9.3472393537876162
 20
-2.908137771166972
 30
0.0
 40
0.0143012374013211
 50
327.7979882057106238
 51
15.5783125429716698
  0
ARC
  5
499D
  8
0
 10
-9.3526928237210498
 20
-2.90470327043995
 30
0.0
 40
0.0207460903522246
 50
294.5421888526400949
 51
327.7979882057106806
  0
ARC
  5
499E
  8
0
 10
-9.3597424878993039
 20
-2.8892643304317862
 30
0.0
 40
0.0377183805218454
 50
241.4464821965669046
 51
294.5421888526399812
  0
ARC
  5
499F
  8
0
 10
-9.3692504991677446
 20
-2.9067369690189588
 30
0.0
 40
0.017826287181054
 50
201.0840122144792019
 51
241.4464821965675867
  0
ARC
  5
49A0
  8
0
 10
-9.3726918125783634
 20
-2.9080637582284661
 30
0.0
 40
0.0141380616461162
 50
142.2432570289163039
 51
201.0840122144786051
  0
ARC
  5
49A1
  8
0
 10
-9.3758591218502758
 20
-2.9000448738335991
 30
0.0
 40
0.0383798599857378
 50
191.1660939523314937
 51
237.0857252520384861
  0
ARC
  5
49A2
  8
0
 10
-9.3605185781594393
 20
-2.8768406614039468
 30
0.0
 40
0.0661957850697034
 50
236.8525800400466039
 51
270.5612916271606991
  0
ARC
  5
49A3
  8
0
 10
-9.3605757387886364
 20
-2.8710059796098268
 30
0.0
 40
0.0720307468498838
 50
270.5612916271604149
 51
298.4556179892563819
  0
ARC
  5
49A4
  8
0
 10
-9.3456062700060123
 20
-2.898627313139376
 30
0.0
 40
0.0406138236780565
 50
298.4556179892567229
 51
332.9437741911260105
  0
ARC
  5
49A5
  8
0
 10
-9.3363054028843564
 20
-2.9033778441363811
 30
0.0
 40
0.0301699894219883
 50
332.9437741911266926
 51
19.715712542526969
  0
ARC
  5
49A6
  8
0
 10
-9.3371812865090096
 20
-2.9036917268963349
 30
0.0
 40
0.0311004164803505
 50
19.7157125425268589
 51
54.8331801483434305
  0
ARC
  5
49A7
  8
0
 10
-9.3604153854634138
 20
-2.936668688482106
 30
0.0
 40
0.0714402646413492
 50
54.8331801483434305
 51
104.2949392472498005
  0
ARC
  5
49A8
  8
0
 10
-9.3665725657928096
 20
-2.9191627986862239
 30
0.0
 40
0.0529816253121694
 50
102.5166793028133014
 51
141.0664828003309026
  0
ARC
  5
49A9
  8
0
 10
-9.3845378606550547
 20
-2.9035926273270078
 30
0.0
 40
0.029233837479575
 50
142.6776240063616967
 51
187.636168006965903
  0
ARC
  5
49AA
  8
0
 10
-9.3817085676484595
 20
-2.8653222063101591
 30
0.0
 40
0.0528902266416446
 50
207.4387534367899946
 51
233.0688354146961103
  0
ARC
  5
49AB
  8
0
 10
-9.3963257464877081
 20
-2.8729115796834992
 30
0.0
 40
0.0364202386204419
 50
164.4484521359381972
 51
207.4387534367903925
  0
ARC
  5
49AC
  8
0
 10
-9.3892481813649589
 20
-2.8748812211816248
 30
0.0
 40
0.0437667626759333
 50
137.0346300022756054
 51
164.448452135937913
  0
ARC
  5
49AD
  8
0
 10
-9.3652767412368032
 20
-2.9006624439748689
 30
0.0
 40
0.0789200915161391
 50
96.4644944651972338
 51
135.1990434438525881
  0
ARC
  5
49AE
  8
0
 10
-9.3598590377929831
 20
-2.9178265796622158
 30
0.0
 40
0.0966466853071577
 50
61.6197181887614533
 51
98.5106869862444512
  0
ARC
  5
49AF
  8
0
 10
-9.3446382481506998
 20
-2.8873744825068299
 30
0.0
 40
0.0626291568741701
 50
40.9102408543890306
 51
60.628804821972011
  0
ARC
  5
49B0
  8
0
 10
-9.329703584819212
 20
-2.874351239174695
 30
0.0
 40
0.042813924073279
 50
8.5372227153911826
 51
40.8275525468781382
  0
ARC
  5
49B1
  8
0
 10
-9.3258625680040108
 20
-2.8726369088130919
 30
0.0
 40
0.038777297864841
 50
324.0143525887010014
 51
6.8745443542275169
  0
ARC
  5
49B2
  8
0
 10
-9.3384942422289718
 20
-2.8646004562038918
 30
0.0
 40
0.0537283420409773
 50
306.6125708400751932
 51
324.9947844543247015
  0
LINE
  5
49B3
  8
0
 10
-9.4254812327126931
 20
-2.8503313636430572
 30
0.0
 11
-9.4135159015757921
 21
-2.9074514351971001
 31
0.0
  0
LINE
  5
49B4
  8
0
 10
-9.3062632704864185
 20
-2.9061524689232101
 30
0.0
 11
-9.2942323292727114
 21
-2.8503757908054279
 31
0.0
  0
ARC
  5
49B5
  8
0
 10
-8.3226511478959182
 20
-2.9156742058743248
 30
0.0
 40
0.0262174629962694
 50
97.8569376147588628
 51
141.649035104387309
  0
ARC
  5
49B6
  8
0
 10
-8.3192468340311247
 20
-2.9248248248673638
 30
0.0
 40
0.0358104449869578
 50
60.7874222569299505
 51
101.2532159677120944
  0
ARC
  5
49B7
  8
0
 10
-8.3091660896372623
 20
-2.9088584102108248
 30
0.0
 40
0.0169846297549829
 50
15.5783125429725207
 51
64.1837006098832887
  0
ARC
  5
49B8
  8
0
 10
-8.306581273610508
 20
-2.908137771166972
 30
0.0
 40
0.0143012374013211
 50
327.7979882057106238
 51
15.5783125429716698
  0
ARC
  5
49B9
  8
0
 10
-8.3120347435439381
 20
-2.90470327043995
 30
0.0
 40
0.0207460903522246
 50
294.5421888526400949
 51
327.7979882057106806
  0
ARC
  5
49BA
  8
0
 10
-8.3190844077221922
 20
-2.8892643304317862
 30
0.0
 40
0.0377183805218454
 50
241.4464821965669046
 51
294.5421888526399812
  0
ARC
  5
49BB
  8
0
 10
-8.3285924189906346
 20
-2.9067369690189588
 30
0.0
 40
0.017826287181054
 50
201.0840122144792019
 51
241.4464821965675867
  0
ARC
  5
49BC
  8
0
 10
-8.3320337324012534
 20
-2.9080637582284661
 30
0.0
 40
0.0141380616461162
 50
142.2432570289163039
 51
201.0840122144786051
  0
ARC
  5
49BD
  8
0
 10
-8.3352010416731641
 20
-2.9000448738335991
 30
0.0
 40
0.0383798599857378
 50
191.1660939523314937
 51
237.0857252520384861
  0
ARC
  5
49BE
  8
0
 10
-8.3198604979823294
 20
-2.8768406614039468
 30
0.0
 40
0.0661957850697034
 50
236.8525800400466039
 51
270.5612916271606991
  0
ARC
  5
49BF
  8
0
 10
-8.3199176586115264
 20
-2.8710059796098268
 30
0.0
 40
0.0720307468498838
 50
270.5612916271604149
 51
298.4556179892563819
  0
ARC
  5
49C0
  8
0
 10
-8.3049481898289024
 20
-2.898627313139376
 30
0.0
 40
0.0406138236780565
 50
298.4556179892567229
 51
332.9437741911260105
  0
ARC
  5
49C1
  8
0
 10
-8.2956473227072465
 20
-2.9033778441363811
 30
0.0
 40
0.0301699894219883
 50
332.9437741911266926
 51
19.715712542526969
  0
ARC
  5
49C2
  8
0
 10
-8.2965232063318997
 20
-2.9036917268963349
 30
0.0
 40
0.0311004164803505
 50
19.7157125425268589
 51
54.8331801483434305
  0
ARC
  5
49C3
  8
0
 10
-8.3197573052863039
 20
-2.936668688482106
 30
0.0
 40
0.0714402646413492
 50
54.8331801483434305
 51
104.2949392472498005
  0
ARC
  5
49C4
  8
0
 10
-8.3259144856156997
 20
-2.9191627986862239
 30
0.0
 40
0.0529816253121694
 50
102.5166793028133014
 51
141.0664828003309026
  0
ARC
  5
49C5
  8
0
 10
-8.3438797804779448
 20
-2.9035926273270078
 30
0.0
 40
0.029233837479575
 50
142.6776240063616967
 51
187.636168006965903
  0
ARC
  5
49C6
  8
0
 10
-8.3410504874713496
 20
-2.8653222063101591
 30
0.0
 40
0.0528902266416446
 50
207.4387534367899946
 51
233.0688354146961103
  0
ARC
  5
49C7
  8
0
 10
-8.3556676663105982
 20
-2.8729115796834992
 30
0.0
 40
0.0364202386204419
 50
164.4484521359381972
 51
207.4387534367903925
  0
ARC
  5
49C8
  8
0
 10
-8.3485901011878472
 20
-2.8748812211816248
 30
0.0
 40
0.0437667626759333
 50
137.0346300022756054
 51
164.448452135937913
  0
ARC
  5
49C9
  8
0
 10
-8.3246186610596951
 20
-2.9006624439748689
 30
0.0
 40
0.0789200915161391
 50
96.4644944651972338
 51
135.1990434438525881
  0
ARC
  5
49CA
  8
0
 10
-8.3192009576158732
 20
-2.9178265796622158
 30
0.0
 40
0.0966466853071577
 50
61.6197181887614533
 51
98.5106869862444512
  0
ARC
  5
49CB
  8
0
 10
-8.3039801679735898
 20
-2.8873744825068299
 30
0.0
 40
0.0626291568741701
 50
40.9102408543890306
 51
60.6288048219719471
  0
ARC
  5
49CC
  8
0
 10
-8.2890455046421021
 20
-2.874351239174695
 30
0.0
 40
0.042813924073279
 50
8.5372227153911826
 51
40.8275525468781382
  0
ARC
  5
49CD
  8
0
 10
-8.2852044878269009
 20
-2.8726369088130919
 30
0.0
 40
0.038777297864841
 50
324.0143525887010014
 51
6.8745443542275169
  0
ARC
  5
49CE
  8
0
 10
-8.2978361620518601
 20
-2.8646004562038918
 30
0.0
 40
0.0537283420409773
 50
306.6125708400751932
 51
324.9947844543247015
  0
LINE
  5
49CF
  8
0
 10
-8.3848231525355832
 20
-2.8503313636430572
 30
0.0
 11
-8.3728578213986822
 21
-2.9074514351971001
 31
0.0
  0
LINE
  5
49D0
  8
0
 10
-8.2656051903093086
 20
-2.9061524689232101
 30
0.0
 11
-8.2535742490956014
 21
-2.8503757908054279
 31
0.0
  0
ARC
  5
49D1
  8
0
 10
-7.276439025436054
 20
-2.9156742058743248
 30
0.0
 40
0.0262174629962694
 50
97.8569376147588628
 51
141.649035104387309
  0
ARC
  5
49D2
  8
0
 10
-7.2730347115712606
 20
-2.9248248248673638
 30
0.0
 40
0.0358104449869578
 50
60.7874222569299505
 51
101.2532159677120944
  0
ARC
  5
49D3
  8
0
 10
-7.2629539671773991
 20
-2.9088584102108248
 30
0.0
 40
0.0169846297549829
 50
15.5783125429725207
 51
64.1837006098832887
  0
ARC
  5
49D4
  8
0
 10
-7.2603691511506439
 20
-2.908137771166972
 30
0.0
 40
0.0143012374013211
 50
327.7979882057106238
 51
15.5783125429716698
  0
ARC
  5
49D5
  8
0
 10
-7.2658226210840766
 20
-2.90470327043995
 30
0.0
 40
0.0207460903522246
 50
294.5421888526400949
 51
327.7979882057106806
  0
ARC
  5
49D6
  8
0
 10
-7.2728722852623298
 20
-2.8892643304317862
 30
0.0
 40
0.0377183805218454
 50
241.4464821965669046
 51
294.5421888526399812
  0
ARC
  5
49D7
  8
0
 10
-7.2823802965307696
 20
-2.9067369690189588
 30
0.0
 40
0.017826287181054
 50
201.0840122144792019
 51
241.4464821965675867
  0
ARC
  5
49D8
  8
0
 10
-7.2858216099413893
 20
-2.9080637582284661
 30
0.0
 40
0.0141380616461162
 50
142.2432570289163039
 51
201.0840122144786051
  0
ARC
  5
49D9
  8
0
 10
-7.2889889192133008
 20
-2.9000448738335991
 30
0.0
 40
0.0383798599857378
 50
191.1660939523314937
 51
237.0857252520384861
  0
ARC
  5
49DA
  8
0
 10
-7.273648375522467
 20
-2.8768406614039468
 30
0.0
 40
0.0661957850697034
 50
236.8525800400466039
 51
270.5612916271606991
  0
ARC
  5
49DB
  8
0
 10
-7.2737055361516632
 20
-2.8710059796098268
 30
0.0
 40
0.0720307468498838
 50
270.5612916271604149
 51
298.4556179892563819
  0
ARC
  5
49DC
  8
0
 10
-7.2587360673690391
 20
-2.898627313139376
 30
0.0
 40
0.0406138236780565
 50
298.4556179892567229
 51
332.9437741911260105
  0
ARC
  5
49DD
  8
0
 10
-7.2494352002473832
 20
-2.9033778441363811
 30
0.0
 40
0.0301699894219883
 50
332.9437741911266926
 51
19.715712542526969
  0
ARC
  5
49DE
  8
0
 10
-7.2503110838720364
 20
-2.9036917268963349
 30
0.0
 40
0.0311004164803505
 50
19.7157125425268589
 51
54.8331801483434305
  0
ARC
  5
49DF
  8
0
 10
-7.2735451828264397
 20
-2.936668688482106
 30
0.0
 40
0.0714402646413492
 50
54.8331801483434305
 51
104.294939247249701
  0
ARC
  5
49E0
  8
0
 10
-7.2797023631558364
 20
-2.9191627986862239
 30
0.0
 40
0.0529816253121694
 50
102.5166793028133014
 51
141.0664828003309026
  0
ARC
  5
49E1
  8
0
 10
-7.2976676580180806
 20
-2.9035926273270078
 30
0.0
 40
0.029233837479575
 50
142.6776240063616967
 51
187.636168006965903
  0
ARC
  5
49E2
  8
0
 10
-7.2948383650114872
 20
-2.8653222063101591
 30
0.0
 40
0.0528902266416446
 50
207.4387534367899946
 51
233.0688354146961103
  0
ARC
  5
49E3
  8
0
 10
-7.3094555438507358
 20
-2.8729115796834992
 30
0.0
 40
0.0364202386204419
 50
164.4484521359381972
 51
207.4387534367903925
  0
ARC
  5
49E4
  8
0
 10
-7.3023779787279848
 20
-2.8748812211816248
 30
0.0
 40
0.0437667626759333
 50
137.0346300022756054
 51
164.448452135937913
  0
ARC
  5
49E5
  8
0
 10
-7.2784065385998318
 20
-2.9006624439748689
 30
0.0
 40
0.0789200915161391
 50
96.4644944651972338
 51
135.1990434438525881
  0
ARC
  5
49E6
  8
0
 10
-7.2729888351560108
 20
-2.9178265796622158
 30
0.0
 40
0.0966466853071577
 50
61.6197181887614533
 51
98.5106869862444512
  0
ARC
  5
49E7
  8
0
 10
-7.2577680455137257
 20
-2.8873744825068299
 30
0.0
 40
0.0626291568741701
 50
40.9102408543890306
 51
60.6288048219719471
  0
ARC
  5
49E8
  8
0
 10
-7.2428333821822379
 20
-2.874351239174695
 30
0.0
 40
0.042813924073279
 50
8.5372227153911826
 51
40.8275525468781382
  0
ARC
  5
49E9
  8
0
 10
-7.2389923653670367
 20
-2.8726369088130919
 30
0.0
 40
0.038777297864841
 50
324.0143525887010014
 51
6.8745443542275169
  0
ARC
  5
49EA
  8
0
 10
-7.2516240395919978
 20
-2.8646004562038918
 30
0.0
 40
0.0537283420409773
 50
306.6125708400751932
 51
324.9947844543247015
  0
LINE
  5
49EB
  8
0
 10
-7.338611030075719
 20
-2.8503313636430572
 30
0.0
 11
-7.326645698938818
 21
-2.9074514351971001
 31
0.0
  0
LINE
  5
49EC
  8
0
 10
-7.2193930678494453
 20
-2.9061524689232101
 30
0.0
 11
-7.2073621266357382
 21
-2.8503757908054279
 31
0.0
  0
ARC
  5
49ED
  8
0
 10
-6.2338759945785034
 20
-2.9156742058743248
 30
0.0
 40
0.0262174629962694
 50
97.8569376147588628
 51
141.649035104387309
  0
ARC
  5
49EE
  8
0
 10
-6.2304716807137099
 20
-2.9248248248673638
 30
0.0
 40
0.0358104449869578
 50
60.7874222569299505
 51
101.2532159677120944
  0
ARC
  5
49EF
  8
0
 10
-6.2203909363198484
 20
-2.9088584102108248
 30
0.0
 40
0.0169846297549829
 50
15.5783125429725207
 51
64.1837006098832887
  0
ARC
  5
49F0
  8
0
 10
-6.2178061202930941
 20
-2.908137771166972
 30
0.0
 40
0.0143012374013211
 50
327.7979882057106238
 51
15.5783125429716698
  0
ARC
  5
49F1
  8
0
 10
-6.223259590226526
 20
-2.90470327043995
 30
0.0
 40
0.0207460903522246
 50
294.5421888526400949
 51
327.7979882057106806
  0
ARC
  5
49F2
  8
0
 10
-6.23030925440478
 20
-2.8892643304317862
 30
0.0
 40
0.0377183805218454
 50
241.4464821965669046
 51
294.5421888526399812
  0
ARC
  5
49F3
  8
0
 10
-6.2398172656732189
 20
-2.9067369690189588
 30
0.0
 40
0.017826287181054
 50
201.0840122144792019
 51
241.4464821965675867
  0
ARC
  5
49F4
  8
0
 10
-6.2432585790838377
 20
-2.9080637582284661
 30
0.0
 40
0.0141380616461162
 50
142.2432570289163039
 51
201.0840122144786051
  0
ARC
  5
49F5
  8
0
 10
-6.2464258883557511
 20
-2.9000448738335991
 30
0.0
 40
0.0383798599857378
 50
191.1660939523314937
 51
237.0857252520384861
  0
ARC
  5
49F6
  8
0
 10
-6.2310853446649164
 20
-2.8768406614039468
 30
0.0
 40
0.0661957850697034
 50
236.8525800400466039
 51
270.5612916271606991
  0
ARC
  5
49F7
  8
0
 10
-6.2311425052941116
 20
-2.8710059796098268
 30
0.0
 40
0.0720307468498838
 50
270.5612916271604149
 51
298.4556179892563819
  0
ARC
  5
49F8
  8
0
 10
-6.2161730365114893
 20
-2.898627313139376
 30
0.0
 40
0.0406138236780565
 50
298.4556179892567229
 51
332.9437741911260105
  0
ARC
  5
49F9
  8
0
 10
-6.2068721693898317
 20
-2.9033778441363811
 30
0.0
 40
0.0301699894219883
 50
332.9437741911266926
 51
19.715712542526969
  0
ARC
  5
49FA
  8
0
 10
-6.2077480530144848
 20
-2.9036917268963349
 30
0.0
 40
0.0311004164803505
 50
19.7157125425268589
 51
54.8331801483434305
  0
ARC
  5
49FB
  8
0
 10
-6.230982151968889
 20
-2.936668688482106
 30
0.0
 40
0.0714402646413492
 50
54.8331801483434305
 51
104.294939247249701
  0
ARC
  5
49FC
  8
0
 10
-6.2371393322982849
 20
-2.9191627986862239
 30
0.0
 40
0.0529816253121694
 50
102.5166793028133014
 51
141.0664828003309026
  0
ARC
  5
49FD
  8
0
 10
-6.25510462716053
 20
-2.9035926273270078
 30
0.0
 40
0.029233837479575
 50
142.6776240063616967
 51
187.636168006965903
  0
ARC
  5
49FE
  8
0
 10
-6.2522753341539357
 20
-2.8653222063101591
 30
0.0
 40
0.0528902266416446
 50
207.4387534367899946
 51
233.0688354146961103
  0
ARC
  5
49FF
  8
0
 10
-6.2668925129931861
 20
-2.8729115796834992
 30
0.0
 40
0.0364202386204419
 50
164.4484521359381972
 51
207.4387534367903925
  0
ARC
  5
4A00
  8
0
 10
-6.259814947870435
 20
-2.8748812211816248
 30
0.0
 40
0.0437667626759333
 50
137.0346300022756054
 51
164.448452135937913
  0
ARC
  5
4A01
  8
0
 10
-6.235843507742282
 20
-2.9006624439748689
 30
0.0
 40
0.0789200915161391
 50
96.4644944651972338
 51
135.1990434438525881
  0
ARC
  5
4A02
  8
0
 10
-6.230425804298461
 20
-2.9178265796622158
 30
0.0
 40
0.0966466853071577
 50
61.6197181887614533
 51
98.5106869862444512
  0
ARC
  5
4A03
  8
0
 10
-6.215205014656175
 20
-2.8873744825068299
 30
0.0
 40
0.0626291568741701
 50
40.9102408543890306
 51
60.6288048219719471
  0
ARC
  5
4A04
  8
0
 10
-6.2002703513246882
 20
-2.874351239174695
 30
0.0
 40
0.042813924073279
 50
8.5372227153911826
 51
40.8275525468781382
  0
ARC
  5
4A05
  8
0
 10
-6.1964293345094861
 20
-2.8726369088130919
 30
0.0
 40
0.038777297864841
 50
324.0143525887010014
 51
6.8745443542275169
  0
ARC
  5
4A06
  8
0
 10
-6.2090610087344471
 20
-2.8646004562038918
 30
0.0
 40
0.0537283420409773
 50
306.6125708400751932
 51
324.9947844543247015
  0
LINE
  5
4A07
  8
0
 10
-6.2960479992181693
 20
-2.8503313636430572
 30
0.0
 11
-6.2840826680812674
 21
-2.9074514351971001
 31
0.0
  0
LINE
  5
4A08
  8
0
 10
-6.1768300369918938
 20
-2.9061524689232101
 30
0.0
 11
-6.1647990957781866
 21
-2.8503757908054279
 31
0.0
  0
ARC
  5
4A09
  8
0
 10
-5.1914504689637146
 20
-2.9156742058743248
 30
0.0
 40
0.0262174629962694
 50
97.8569376147588628
 51
141.649035104387309
  0
ARC
  5
4A0A
  8
0
 10
-5.1880461550989221
 20
-2.9248248248673638
 30
0.0
 40
0.0358104449869578
 50
60.7874222569299505
 51
101.2532159677120944
  0
ARC
  5
4A0B
  8
0
 10
-5.1779654107050588
 20
-2.9088584102108248
 30
0.0
 40
0.0169846297549829
 50
15.5783125429725207
 51
64.1837006098832887
  0
ARC
  5
4A0C
  8
0
 10
-5.1753805946783054
 20
-2.908137771166972
 30
0.0
 40
0.0143012374013211
 50
327.7979882057106238
 51
15.5783125429716698
  0
ARC
  5
4A0D
  8
0
 10
-5.1808340646117372
 20
-2.90470327043995
 30
0.0
 40
0.0207460903522246
 50
294.5421888526400949
 51
327.7979882057106806
  0
ARC
  5
4A0E
  8
0
 10
-5.1878837287899913
 20
-2.8892643304317862
 30
0.0
 40
0.0377183805218454
 50
241.4464821965669046
 51
294.5421888526399812
  0
ARC
  5
4A0F
  8
0
 10
-5.1973917400584311
 20
-2.9067369690189588
 30
0.0
 40
0.017826287181054
 50
201.0840122144792019
 51
241.4464821965675867
  0
ARC
  5
4A10
  8
0
 10
-5.2008330534690499
 20
-2.9080637582284661
 30
0.0
 40
0.0141380616461162
 50
142.2432570289163039
 51
201.0840122144786051
  0
ARC
  5
4A11
  8
0
 10
-5.2040003627409632
 20
-2.9000448738335991
 30
0.0
 40
0.0383798599857378
 50
191.1660939523314937
 51
237.0857252520384861
  0
ARC
  5
4A12
  8
0
 10
-5.1886598190501259
 20
-2.8768406614039468
 30
0.0
 40
0.0661957850697034
 50
236.8525800400466039
 51
270.5612916271606991
  0
ARC
  5
4A13
  8
0
 10
-5.1887169796793229
 20
-2.8710059796098268
 30
0.0
 40
0.0720307468498838
 50
270.5612916271604149
 51
298.4556179892563819
  0
ARC
  5
4A14
  8
0
 10
-5.1737475108966988
 20
-2.898627313139376
 30
0.0
 40
0.0406138236780565
 50
298.4556179892567229
 51
332.9437741911260105
  0
ARC
  5
4A15
  8
0
 10
-5.1644466437750429
 20
-2.9033778441363811
 30
0.0
 40
0.0301699894219883
 50
332.9437741911266926
 51
19.7157125425269193
  0
ARC
  5
4A16
  8
0
 10
-5.1653225273996961
 20
-2.9036917268963349
 30
0.0
 40
0.0311004164803505
 50
19.7157125425268589
 51
54.8331801483434305
  0
ARC
  5
4A17
  8
0
 10
-5.1885566263541012
 20
-2.936668688482106
 30
0.0
 40
0.0714402646413492
 50
54.8331801483434305
 51
104.294939247249701
  0
ARC
  5
4A18
  8
0
 10
-5.194713806683497
 20
-2.9191627986862239
 30
0.0
 40
0.0529816253121694
 50
102.5166793028133014
 51
141.0664828003309026
  0
ARC
  5
4A19
  8
0
 10
-5.2126791015457421
 20
-2.9035926273270078
 30
0.0
 40
0.029233837479575
 50
142.6776240063616967
 51
187.636168006965903
  0
ARC
  5
4A1A
  8
0
 10
-5.209849808539146
 20
-2.8653222063101591
 30
0.0
 40
0.0528902266416446
 50
207.4387534367899946
 51
233.0688354146961103
  0
ARC
  5
4A1B
  8
0
 10
-5.2244669873783973
 20
-2.8729115796834992
 30
0.0
 40
0.0364202386204419
 50
164.4484521359381972
 51
207.4387534367903925
  0
ARC
  5
4A1C
  8
0
 10
-5.2173894222556463
 20
-2.8748812211816248
 30
0.0
 40
0.0437667626759333
 50
137.0346300022756054
 51
164.448452135937913
  0
ARC
  5
4A1D
  8
0
 10
-5.1934179821274924
 20
-2.9006624439748689
 30
0.0
 40
0.0789200915161391
 50
96.4644944651972338
 51
135.1990434438525881
  0
ARC
  5
4A1E
  8
0
 10
-5.1880002786836723
 20
-2.9178265796622158
 30
0.0
 40
0.0966466853071577
 50
61.6197181887614533
 51
98.5106869862444512
  0
ARC
  5
4A1F
  8
0
 10
-5.1727794890413872
 20
-2.8873744825068299
 30
0.0
 40
0.0626291568741701
 50
40.9102408543890306
 51
60.6288048219719471
  0
ARC
  5
4A20
  8
0
 10
-5.1578448257098994
 20
-2.874351239174695
 30
0.0
 40
0.042813924073279
 50
8.5372227153911826
 51
40.8275525468781382
  0
ARC
  5
4A21
  8
0
 10
-5.1540038088946982
 20
-2.8726369088130919
 30
0.0
 40
0.038777297864841
 50
324.0143525887010014
 51
6.8745443542275169
  0
ARC
  5
4A22
  8
0
 10
-5.1666354831196593
 20
-2.8646004562038918
 30
0.0
 40
0.0537283420409773
 50
306.6125708400751932
 51
324.9947844543247015
  0
LINE
  5
4A23
  8
0
 10
-5.2536224736033796
 20
-2.8503313636430572
 30
0.0
 11
-5.2416571424664786
 21
-2.9074514351971001
 31
0.0
  0
LINE
  5
4A24
  8
0
 10
-5.1344045113771051
 20
-2.9061524689232101
 30
0.0
 11
-5.1223735701633979
 21
-2.8503757908054279
 31
0.0
  0
ARC
  5
4A25
  8
0
 10
-4.1490645868241884
 20
-2.9156742058743248
 30
0.0
 40
0.0262174629962694
 50
97.8569376147588628
 51
141.649035104387309
  0
ARC
  5
4A26
  8
0
 10
-4.1456602729593941
 20
-2.9248248248673638
 30
0.0
 40
0.0358104449869578
 50
60.7874222569300073
 51
101.2532159677120944
  0
ARC
  5
4A27
  8
0
 10
-4.1355795285655317
 20
-2.9088584102108248
 30
0.0
 40
0.0169846297549829
 50
15.5783125429725207
 51
64.1837006098832177
  0
ARC
  5
4A28
  8
0
 10
-4.1329947125387783
 20
-2.908137771166972
 30
0.0
 40
0.0143012374013211
 50
327.7979882057106238
 51
15.5783125429716698
  0
ARC
  5
4A29
  8
0
 10
-4.1384481824722101
 20
-2.90470327043995
 30
0.0
 40
0.0207460903522246
 50
294.5421888526400949
 51
327.7979882057106806
  0
ARC
  5
4A2A
  8
0
 10
-4.1454978466504642
 20
-2.8892643304317862
 30
0.0
 40
0.0377183805218454
 50
241.4464821965669046
 51
294.5421888526399812
  0
ARC
  5
4A2B
  8
0
 10
-4.155005857918904
 20
-2.9067369690189588
 30
0.0
 40
0.017826287181054
 50
201.0840122144792019
 51
241.4464821965675867
  0
ARC
  5
4A2C
  8
0
 10
-4.1584471713295228
 20
-2.9080637582284661
 30
0.0
 40
0.0141380616461162
 50
142.2432570289163039
 51
201.0840122144786051
  0
ARC
  5
4A2D
  8
0
 10
-4.1616144806014361
 20
-2.9000448738335991
 30
0.0
 40
0.0383798599857378
 50
191.1660939523314937
 51
237.0857252520384861
  0
ARC
  5
4A2E
  8
0
 10
-4.1462739369105988
 20
-2.8768406614039468
 30
0.0
 40
0.0661957850697034
 50
236.8525800400466039
 51
270.5612916271606991
  0
ARC
  5
4A2F
  8
0
 10
-4.1463310975397958
 20
-2.8710059796098268
 30
0.0
 40
0.0720307468498838
 50
270.5612916271604149
 51
298.4556179892563819
  0
ARC
  5
4A30
  8
0
 10
-4.1313616287571717
 20
-2.898627313139376
 30
0.0
 40
0.0406138236780565
 50
298.4556179892566092
 51
332.9437741911260105
  0
ARC
  5
4A31
  8
0
 10
-4.1220607616355158
 20
-2.9033778441363811
 30
0.0
 40
0.0301699894219883
 50
332.9437741911266926
 51
19.7157125425269193
  0
ARC
  5
4A32
  8
0
 10
-4.122936645260169
 20
-2.9036917268963349
 30
0.0
 40
0.0311004164803505
 50
19.7157125425268589
 51
54.8331801483434305
  0
ARC
  5
4A33
  8
0
 10
-4.1461707442145741
 20
-2.936668688482106
 30
0.0
 40
0.0714402646413492
 50
54.8331801483434305
 51
104.294939247249701
  0
ARC
  5
4A34
  8
0
 10
-4.152327924543969
 20
-2.9191627986862239
 30
0.0
 40
0.0529816253121694
 50
102.516679302813202
 51
141.0664828003309026
  0
ARC
  5
4A35
  8
0
 10
-4.170293219406215
 20
-2.9035926273270078
 30
0.0
 40
0.029233837479575
 50
142.6776240063616967
 51
187.636168006965903
  0
ARC
  5
4A36
  8
0
 10
-4.1674639263996189
 20
-2.8653222063101591
 30
0.0
 40
0.0528902266416446
 50
207.4387534367899946
 51
233.0688354146961103
  0
ARC
  5
4A37
  8
0
 10
-4.1820811052388702
 20
-2.8729115796834992
 30
0.0
 40
0.0364202386204419
 50
164.4484521359381972
 51
207.4387534367903925
  0
ARC
  5
4A38
  8
0
 10
-4.1750035401161192
 20
-2.8748812211816248
 30
0.0
 40
0.0437667626759333
 50
137.0346300022756054
 51
164.448452135937913
  0
ARC
  5
4A39
  8
0
 10
-4.1510320999879653
 20
-2.9006624439748689
 30
0.0
 40
0.0789200915161391
 50
96.4644944651972338
 51
135.1990434438525881
  0
ARC
  5
4A3A
  8
0
 10
-4.1456143965441452
 20
-2.9178265796622158
 30
0.0
 40
0.0966466853071577
 50
61.6197181887615102
 51
98.5106869862444512
  0
ARC
  5
4A3B
  8
0
 10
-4.1303936069018601
 20
-2.8873744825068299
 30
0.0
 40
0.0626291568741701
 50
40.9102408543890306
 51
60.6288048219719471
  0
ARC
  5
4A3C
  8
0
 10
-4.1154589435703723
 20
-2.874351239174695
 30
0.0
 40
0.042813924073279
 50
8.5372227153911826
 51
40.8275525468781382
  0
ARC
  5
4A3D
  8
0
 10
-4.1116179267551711
 20
-2.8726369088130919
 30
0.0
 40
0.038777297864841
 50
324.0143525887010014
 51
6.8745443542275169
  0
ARC
  5
4A3E
  8
0
 10
-4.1242496009801322
 20
-2.8646004562038918
 30
0.0
 40
0.0537283420409773
 50
306.6125708400751932
 51
324.9947844543247015
  0
LINE
  5
4A3F
  8
0
 10
-4.2112365914638534
 20
-2.8503313636430572
 30
0.0
 11
-4.1992712603269524
 21
-2.9074514351971001
 31
0.0
  0
LINE
  5
4A40
  8
0
 10
-4.092018629237578
 20
-2.9061524689232101
 30
0.0
 11
-4.0799876880238708
 21
-2.8503757908054279
 31
0.0
  0
ARC
  5
4A41
  8
0
 10
-12.4953390661990102
 20
-3.6543332911772031
 30
0.0
 40
0.0262174629962694
 50
97.8569376147588628
 51
141.649035104387309
  0
ARC
  5
4A42
  8
0
 10
-12.4919347523342203
 20
-3.6634839101702421
 30
0.0
 40
0.0358104449869578
 50
60.7874222569299505
 51
101.2532159677120944
  0
ARC
  5
4A43
  8
0
 10
-12.4818540079403597
 20
-3.6475174955137031
 30
0.0
 40
0.0169846297549829
 50
15.5783125429725207
 51
64.1837006098832887
  0
ARC
  5
4A44
  8
0
 10
-12.4792691919136001
 20
-3.646796856469849
 30
0.0
 40
0.0143012374013211
 50
327.7979882057106238
 51
15.5783125429716698
  0
ARC
  5
4A45
  8
0
 10
-12.4847226618470408
 20
-3.643362355742827
 30
0.0
 40
0.0207460903522246
 50
294.5421888526400949
 51
327.7979882057106806
  0
ARC
  5
4A46
  8
0
 10
-12.4917723260252895
 20
-3.627923415734664
 30
0.0
 40
0.0377183805218454
 50
241.4464821965669046
 51
294.5421888526399812
  0
ARC
  5
4A47
  8
0
 10
-12.5012803372937302
 20
-3.6453960543218371
 30
0.0
 40
0.017826287181054
 50
201.0840122144792019
 51
241.4464821965675867
  0
ARC
  5
4A48
  8
0
 10
-12.5047216507043508
 20
-3.646722843531343
 30
0.0
 40
0.0141380616461162
 50
142.2432570289163039
 51
201.0840122144786051
  0
ARC
  5
4A49
  8
0
 10
-12.5078889599762597
 20
-3.6387039591364769
 30
0.0
 40
0.0383798599857378
 50
191.1660939523314937
 51
237.0857252520384861
  0
ARC
  5
4A4A
  8
0
 10
-12.4925484162854197
 20
-3.6154997467068251
 30
0.0
 40
0.0661957850697034
 50
236.8525800400466039
 51
270.5612916271606991
  0
ARC
  5
4A4B
  8
0
 10
-12.4926055769146203
 20
-3.6096650649127051
 30
0.0
 40
0.0720307468498838
 50
270.5612916271604149
 51
298.4556179892563819
  0
ARC
  5
4A4C
  8
0
 10
-12.4776361081319997
 20
-3.637286398442253
 30
0.0
 40
0.0406138236780565
 50
298.4556179892567229
 51
332.9437741911260105
  0
ARC
  5
4A4D
  8
0
 10
-12.4683352410103403
 20
-3.6420369294392581
 30
0.0
 40
0.0301699894219883
 50
332.9437741911266926
 51
19.715712542526969
  0
ARC
  5
4A4E
  8
0
 10
-12.4692111246350006
 20
-3.6423508121992132
 30
0.0
 40
0.0311004164803505
 50
19.7157125425269193
 51
54.8331801483434305
  0
ARC
  5
4A4F
  8
0
 10
-12.4924452235893995
 20
-3.675327773784983
 30
0.0
 40
0.0714402646413492
 50
54.8331801483434305
 51
104.294939247249701
  0
ARC
  5
4A50
  8
0
 10
-12.49860240391879
 20
-3.6578218839891021
 30
0.0
 40
0.0529816253121694
 50
102.5166793028133014
 51
141.0664828003309026
  0
ARC
  5
4A51
  8
0
 10
-12.5165676987810404
 20
-3.6422517126298861
 30
0.0
 40
0.029233837479575
 50
142.6776240063616967
 51
187.636168006965903
  0
ARC
  5
4A52
  8
0
 10
-12.5137384057744505
 20
-3.6039812916130369
 30
0.0
 40
0.0528902266416446
 50
207.4387534367899946
 51
233.0688354146961103
  0
ARC
  5
4A53
  8
0
 10
-12.5283555846136903
 20
-3.611570664986377
 30
0.0
 40
0.0364202386204419
 50
164.4484521359381972
 51
207.4387534367903925
  0
ARC
  5
4A54
  8
0
 10
-12.5212780194909392
 20
-3.6135403064845031
 30
0.0
 40
0.0437667626759333
 50
137.0346300022756054
 51
164.448452135937913
  0
ARC
  5
4A55
  8
0
 10
-12.4973065793627907
 20
-3.6393215292777472
 30
0.0
 40
0.0789200915161391
 50
96.4644944651972338
 51
135.1990434438525881
  0
ARC
  5
4A56
  8
0
 10
-12.4918888759189706
 20
-3.6564856649650941
 30
0.0
 40
0.0966466853071577
 50
61.6197181887614533
 51
98.5106869862444512
  0
ARC
  5
4A57
  8
0
 10
-12.4766680862766801
 20
-3.6260335678097082
 30
0.0
 40
0.0626291568741701
 50
40.9102408543890306
 51
60.6288048219719471
  0
ARC
  5
4A58
  8
0
 10
-12.4617334229451995
 20
-3.613010324477572
 30
0.0
 40
0.042813924073279
 50
8.5372227153911826
 51
40.8275525468781382
  0
ARC
  5
4A59
  8
0
 10
-12.45789240613
 20
-3.6112959941159701
 30
0.0
 40
0.038777297864841
 50
324.0143525887010014
 51
6.8745443542275169
  0
ARC
  5
4A5A
  8
0
 10
-12.4705240803549593
 20
-3.6032595415067701
 30
0.0
 40
0.0537283420409773
 50
306.6125708400751932
 51
324.9947844543247015
  0
LINE
  5
4A5B
  8
0
 10
-12.5575110708386806
 20
-3.588990448945935
 30
0.0
 11
-12.5455457397017796
 21
-3.646110520499978
 31
0.0
  0
LINE
  5
4A5C
  8
0
 10
-12.4382931086124007
 20
-3.644811554226087
 30
0.0
 11
-12.4262621673987006
 21
-3.5890348761083062
 31
0.0
  0
ARC
  5
4A5D
  8
0
 10
-11.4462273804020693
 20
-3.6543332911772031
 30
0.0
 40
0.0262174629962694
 50
97.8569376147588628
 51
141.649035104387309
  0
ARC
  5
4A5E
  8
0
 10
-11.4428230665372705
 20
-3.6634839101702421
 30
0.0
 40
0.0358104449869578
 50
60.7874222569299505
 51
101.2532159677120944
  0
ARC
  5
4A5F
  8
0
 10
-11.4327423221434099
 20
-3.6475174955137031
 30
0.0
 40
0.0169846297549829
 50
15.5783125429725207
 51
64.1837006098832887
  0
ARC
  5
4A60
  8
0
 10
-11.4301575061166591
 20
-3.646796856469849
 30
0.0
 40
0.0143012374013211
 50
327.7979882057106238
 51
15.5783125429716698
  0
ARC
  5
4A61
  8
0
 10
-11.4356109760500892
 20
-3.643362355742827
 30
0.0
 40
0.0207460903522246
 50
294.5421888526400949
 51
327.7979882057106806
  0
ARC
  5
4A62
  8
0
 10
-11.4426606402283504
 20
-3.627923415734664
 30
0.0
 40
0.0377183805218454
 50
241.4464821965669046
 51
294.5421888526399812
  0
ARC
  5
4A63
  8
0
 10
-11.4521686514967893
 20
-3.6453960543218371
 30
0.0
 40
0.017826287181054
 50
201.0840122144792019
 51
241.4464821965675867
  0
ARC
  5
4A64
  8
0
 10
-11.4556099649073992
 20
-3.646722843531343
 30
0.0
 40
0.0141380616461162
 50
142.2432570289163039
 51
201.0840122144786051
  0
ARC
  5
4A65
  8
0
 10
-11.4587772741793206
 20
-3.6387039591364769
 30
0.0
 40
0.0383798599857378
 50
191.1660939523314937
 51
237.0857252520384861
  0
ARC
  5
4A66
  8
0
 10
-11.4434367304884805
 20
-3.6154997467068251
 30
0.0
 40
0.0661957850697034
 50
236.8525800400466039
 51
270.5612916271606991
  0
ARC
  5
4A67
  8
0
 10
-11.4434938911176793
 20
-3.6096650649127051
 30
0.0
 40
0.0720307468498838
 50
270.5612916271604149
 51
298.4556179892563819
  0
ARC
  5
4A68
  8
0
 10
-11.4285244223350499
 20
-3.637286398442253
 30
0.0
 40
0.0406138236780565
 50
298.4556179892567229
 51
332.9437741911260105
  0
ARC
  5
4A69
  8
0
 10
-11.4192235552133994
 20
-3.6420369294392581
 30
0.0
 40
0.0301699894219883
 50
332.9437741911266926
 51
19.715712542526969
  0
ARC
  5
4A6A
  8
0
 10
-11.4200994388380508
 20
-3.6423508121992132
 30
0.0
 40
0.0311004164803505
 50
19.7157125425269193
 51
54.8331801483434305
  0
ARC
  5
4A6B
  8
0
 10
-11.4433335377924497
 20
-3.675327773784983
 30
0.0
 40
0.0714402646413492
 50
54.8331801483434305
 51
104.294939247249701
  0
ARC
  5
4A6C
  8
0
 10
-11.4494907181218508
 20
-3.6578218839891021
 30
0.0
 40
0.0529816253121694
 50
102.5166793028133014
 51
141.0664828003309026
  0
ARC
  5
4A6D
  8
0
 10
-11.4674560129840994
 20
-3.6422517126298861
 30
0.0
 40
0.029233837479575
 50
142.6776240063616967
 51
187.6361680069657893
  0
ARC
  5
4A6E
  8
0
 10
-11.4646267199775007
 20
-3.6039812916130369
 30
0.0
 40
0.0528902266416446
 50
207.4387534367899946
 51
233.0688354146961103
  0
ARC
  5
4A6F
  8
0
 10
-11.4792438988167493
 20
-3.611570664986377
 30
0.0
 40
0.0364202386204419
 50
164.4484521359381972
 51
207.4387534367903925
  0
ARC
  5
4A70
  8
0
 10
-11.4721663336940001
 20
-3.6135403064845031
 30
0.0
 40
0.0437667626759333
 50
137.0346300022756054
 51
164.448452135937913
  0
ARC
  5
4A71
  8
0
 10
-11.4481948935658497
 20
-3.6393215292777472
 30
0.0
 40
0.0789200915161391
 50
96.4644944651972338
 51
135.1990434438525881
  0
ARC
  5
4A72
  8
0
 10
-11.4427771901220297
 20
-3.6564856649650941
 30
0.0
 40
0.0966466853071577
 50
61.6197181887614533
 51
98.5106869862444512
  0
ARC
  5
4A73
  8
0
 10
-11.4275564004797392
 20
-3.6260335678097082
 30
0.0
 40
0.0626291568741701
 50
40.9102408543890306
 51
60.6288048219719471
  0
ARC
  5
4A74
  8
0
 10
-11.4126217371482497
 20
-3.613010324477572
 30
0.0
 40
0.042813924073279
 50
8.5372227153911826
 51
40.8275525468781382
  0
ARC
  5
4A75
  8
0
 10
-11.4087807203330502
 20
-3.6112959941159701
 30
0.0
 40
0.038777297864841
 50
324.0143525887010014
 51
6.8745443542275169
  0
ARC
  5
4A76
  8
0
 10
-11.4214123945580095
 20
-3.6032595415067701
 30
0.0
 40
0.0537283420409773
 50
306.6125708400751932
 51
324.9947844543247015
  0
LINE
  5
4A77
  8
0
 10
-11.5083993850417308
 20
-3.588990448945935
 30
0.0
 11
-11.4964340539048298
 21
-3.646110520499978
 31
0.0
  0
LINE
  5
4A78
  8
0
 10
-11.3891814228154598
 20
-3.644811554226087
 30
0.0
 11
-11.3771504816017508
 21
-3.5890348761083062
 31
0.0
  0
ARC
  5
4A79
  8
0
 10
-10.4076086603453408
 20
-3.6543332911772031
 30
0.0
 40
0.0262174629962694
 50
97.8569376147588628
 51
141.649035104387309
  0
ARC
  5
4A7A
  8
0
 10
-10.4042043464805403
 20
-3.6634839101702421
 30
0.0
 40
0.0358104449869578
 50
60.7874222569299505
 51
101.2532159677120944
  0
ARC
  5
4A7B
  8
0
 10
-10.3941236020866796
 20
-3.6475174955137031
 30
0.0
 40
0.0169846297549829
 50
15.5783125429725207
 51
64.1837006098832887
  0
ARC
  5
4A7C
  8
0
 10
-10.3915387860599306
 20
-3.646796856469849
 30
0.0
 40
0.0143012374013211
 50
327.7979882057106238
 51
15.5783125429716698
  0
ARC
  5
4A7D
  8
0
 10
-10.3969922559933607
 20
-3.643362355742827
 30
0.0
 40
0.0207460903522246
 50
294.5421888526400949
 51
327.7979882057106806
  0
ARC
  5
4A7E
  8
0
 10
-10.4040419201716094
 20
-3.627923415734664
 30
0.0
 40
0.0377183805218454
 50
241.4464821965669046
 51
294.5421888526399812
  0
ARC
  5
4A7F
  8
0
 10
-10.4135499314400501
 20
-3.6453960543218371
 30
0.0
 40
0.017826287181054
 50
201.0840122144792019
 51
241.4464821965675867
  0
ARC
  5
4A80
  8
0
 10
-10.4169912448506707
 20
-3.646722843531343
 30
0.0
 40
0.0141380616461162
 50
142.2432570289163039
 51
201.0840122144786051
  0
ARC
  5
4A81
  8
0
 10
-10.4201585541225796
 20
-3.6387039591364769
 30
0.0
 40
0.0383798599857378
 50
191.1660939523314937
 51
237.0857252520384861
  0
ARC
  5
4A82
  8
0
 10
-10.4048180104317503
 20
-3.6154997467068251
 30
0.0
 40
0.0661957850697034
 50
236.8525800400466039
 51
270.5612916271606991
  0
ARC
  5
4A83
  8
0
 10
-10.4048751710609402
 20
-3.6096650649127051
 30
0.0
 40
0.0720307468498838
 50
270.5612916271604149
 51
298.4556179892563819
  0
ARC
  5
4A84
  8
0
 10
-10.3899057022783197
 20
-3.637286398442253
 30
0.0
 40
0.0406138236780565
 50
298.4556179892567229
 51
332.9437741911260105
  0
ARC
  5
4A85
  8
0
 10
-10.3806048351566709
 20
-3.6420369294392581
 30
0.0
 40
0.0301699894219883
 50
332.9437741911266926
 51
19.715712542526969
  0
ARC
  5
4A86
  8
0
 10
-10.3814807187813205
 20
-3.6423508121992132
 30
0.0
 40
0.0311004164803505
 50
19.7157125425269193
 51
54.8331801483434305
  0
ARC
  5
4A87
  8
0
 10
-10.4047148177357194
 20
-3.675327773784983
 30
0.0
 40
0.0714402646413492
 50
54.8331801483434305
 51
104.294939247249701
  0
ARC
  5
4A88
  8
0
 10
-10.4108719980651205
 20
-3.6578218839891021
 30
0.0
 40
0.0529816253121694
 50
102.5166793028133014
 51
141.0664828003309026
  0
ARC
  5
4A89
  8
0
 10
-10.4288372929273603
 20
-3.6422517126298861
 30
0.0
 40
0.029233837479575
 50
142.6776240063616967
 51
187.6361680069657893
  0
ARC
  5
4A8A
  8
0
 10
-10.4260079999207704
 20
-3.6039812916130369
 30
0.0
 40
0.0528902266416446
 50
207.4387534367899946
 51
233.0688354146961103
  0
ARC
  5
4A8B
  8
0
 10
-10.4406251787600208
 20
-3.611570664986377
 30
0.0
 40
0.0364202386204419
 50
164.4484521359381972
 51
207.4387534367903925
  0
ARC
  5
4A8C
  8
0
 10
-10.4335476136372698
 20
-3.6135403064845031
 30
0.0
 40
0.0437667626759333
 50
137.0346300022756054
 51
164.448452135937913
  0
ARC
  5
4A8D
  8
0
 10
-10.4095761735091106
 20
-3.6393215292777472
 30
0.0
 40
0.0789200915161391
 50
96.4644944651972338
 51
135.1990434438525881
  0
ARC
  5
4A8E
  8
0
 10
-10.4041584700652905
 20
-3.6564856649650941
 30
0.0
 40
0.0966466853071577
 50
61.6197181887614533
 51
98.5106869862444512
  0
ARC
  5
4A8F
  8
0
 10
-10.3889376804230107
 20
-3.6260335678097082
 30
0.0
 40
0.0626291568741701
 50
40.9102408543890306
 51
60.628804821972011
  0
ARC
  5
4A90
  8
0
 10
-10.3740030170915194
 20
-3.613010324477572
 30
0.0
 40
0.042813924073279
 50
8.5372227153911826
 51
40.8275525468781382
  0
ARC
  5
4A91
  8
0
 10
-10.37016200027632
 20
-3.6112959941159701
 30
0.0
 40
0.038777297864841
 50
324.0143525887010014
 51
6.8745443542275169
  0
ARC
  5
4A92
  8
0
 10
-10.3827936745012792
 20
-3.6032595415067701
 30
0.0
 40
0.0537283420409773
 50
306.6125708400751932
 51
324.9947844543247015
  0
LINE
  5
4A93
  8
0
 10
-10.4697806649850005
 20
-3.588990448945935
 30
0.0
 11
-10.4578153338480995
 21
-3.646110520499978
 31
0.0
  0
LINE
  5
4A94
  8
0
 10
-10.3505627027587295
 20
-3.644811554226087
 30
0.0
 11
-10.3385317615450205
 21
-3.5890348761083062
 31
0.0
  0
ARC
  5
4A95
  8
0
 10
-9.3633092280730281
 20
-3.6543332911772031
 30
0.0
 40
0.0262174629962694
 50
97.8569376147588628
 51
141.649035104387309
  0
ARC
  5
4A96
  8
0
 10
-9.3599049142082347
 20
-3.6634839101702421
 30
0.0
 40
0.0358104449869578
 50
60.7874222569299505
 51
101.2532159677120944
  0
ARC
  5
4A97
  8
0
 10
-9.3498241698143723
 20
-3.6475174955137031
 30
0.0
 40
0.0169846297549829
 50
15.5783125429725207
 51
64.1837006098832887
  0
ARC
  5
4A98
  8
0
 10
-9.3472393537876162
 20
-3.646796856469849
 30
0.0
 40
0.0143012374013211
 50
327.7979882057106238
 51
15.5783125429716698
  0
ARC
  5
4A99
  8
0
 10
-9.3526928237210498
 20
-3.643362355742827
 30
0.0
 40
0.0207460903522246
 50
294.5421888526400949
 51
327.7979882057106806
  0
ARC
  5
4A9A
  8
0
 10
-9.3597424878993039
 20
-3.627923415734664
 30
0.0
 40
0.0377183805218454
 50
241.4464821965669046
 51
294.5421888526399812
  0
ARC
  5
4A9B
  8
0
 10
-9.3692504991677446
 20
-3.6453960543218371
 30
0.0
 40
0.017826287181054
 50
201.0840122144792019
 51
241.4464821965675867
  0
ARC
  5
4A9C
  8
0
 10
-9.3726918125783634
 20
-3.646722843531343
 30
0.0
 40
0.0141380616461162
 50
142.2432570289163039
 51
201.0840122144786051
  0
ARC
  5
4A9D
  8
0
 10
-9.3758591218502758
 20
-3.6387039591364769
 30
0.0
 40
0.0383798599857378
 50
191.1660939523314937
 51
237.0857252520384861
  0
ARC
  5
4A9E
  8
0
 10
-9.3605185781594393
 20
-3.6154997467068251
 30
0.0
 40
0.0661957850697034
 50
236.8525800400466039
 51
270.5612916271606991
  0
ARC
  5
4A9F
  8
0
 10
-9.3605757387886364
 20
-3.6096650649127051
 30
0.0
 40
0.0720307468498838
 50
270.5612916271604149
 51
298.4556179892563819
  0
ARC
  5
4AA0
  8
0
 10
-9.3456062700060123
 20
-3.637286398442253
 30
0.0
 40
0.0406138236780565
 50
298.4556179892567229
 51
332.9437741911260105
  0
ARC
  5
4AA1
  8
0
 10
-9.3363054028843564
 20
-3.6420369294392581
 30
0.0
 40
0.0301699894219883
 50
332.9437741911266926
 51
19.715712542526969
  0
ARC
  5
4AA2
  8
0
 10
-9.3371812865090096
 20
-3.6423508121992132
 30
0.0
 40
0.0311004164803505
 50
19.7157125425268589
 51
54.8331801483434305
  0
ARC
  5
4AA3
  8
0
 10
-9.3604153854634138
 20
-3.675327773784983
 30
0.0
 40
0.0714402646413492
 50
54.8331801483434305
 51
104.2949392472498005
  0
ARC
  5
4AA4
  8
0
 10
-9.3665725657928096
 20
-3.6578218839891021
 30
0.0
 40
0.0529816253121694
 50
102.5166793028133014
 51
141.0664828003309026
  0
ARC
  5
4AA5
  8
0
 10
-9.3845378606550547
 20
-3.6422517126298861
 30
0.0
 40
0.029233837479575
 50
142.6776240063616967
 51
187.636168006965903
  0
ARC
  5
4AA6
  8
0
 10
-9.3817085676484595
 20
-3.6039812916130369
 30
0.0
 40
0.0528902266416446
 50
207.4387534367899946
 51
233.0688354146961103
  0
ARC
  5
4AA7
  8
0
 10
-9.3963257464877081
 20
-3.611570664986377
 30
0.0
 40
0.0364202386204419
 50
164.4484521359381972
 51
207.4387534367903925
  0
ARC
  5
4AA8
  8
0
 10
-9.3892481813649589
 20
-3.6135403064845031
 30
0.0
 40
0.0437667626759333
 50
137.0346300022756054
 51
164.448452135937913
  0
ARC
  5
4AA9
  8
0
 10
-9.3652767412368032
 20
-3.6393215292777472
 30
0.0
 40
0.0789200915161391
 50
96.4644944651972338
 51
135.1990434438525881
  0
ARC
  5
4AAA
  8
0
 10
-9.3598590377929831
 20
-3.6564856649650941
 30
0.0
 40
0.0966466853071577
 50
61.6197181887614533
 51
98.5106869862444512
  0
ARC
  5
4AAB
  8
0
 10
-9.3446382481506998
 20
-3.6260335678097082
 30
0.0
 40
0.0626291568741701
 50
40.9102408543890306
 51
60.628804821972011
  0
ARC
  5
4AAC
  8
0
 10
-9.329703584819212
 20
-3.613010324477572
 30
0.0
 40
0.042813924073279
 50
8.5372227153911826
 51
40.8275525468781382
  0
ARC
  5
4AAD
  8
0
 10
-9.3258625680040108
 20
-3.6112959941159701
 30
0.0
 40
0.038777297864841
 50
324.0143525887010014
 51
6.8745443542275169
  0
ARC
  5
4AAE
  8
0
 10
-9.3384942422289718
 20
-3.6032595415067701
 30
0.0
 40
0.0537283420409773
 50
306.6125708400751932
 51
324.9947844543247015
  0
LINE
  5
4AAF
  8
0
 10
-9.4254812327126931
 20
-3.588990448945935
 30
0.0
 11
-9.4135159015757921
 21
-3.646110520499978
 31
0.0
  0
LINE
  5
4AB0
  8
0
 10
-9.3062632704864185
 20
-3.644811554226087
 30
0.0
 11
-9.2942323292727114
 21
-3.5890348761083062
 31
0.0
  0
ARC
  5
4AB1
  8
0
 10
-8.3226511478959182
 20
-3.6543332911772031
 30
0.0
 40
0.0262174629962694
 50
97.8569376147588628
 51
141.649035104387309
  0
ARC
  5
4AB2
  8
0
 10
-8.3192468340311247
 20
-3.6634839101702421
 30
0.0
 40
0.0358104449869578
 50
60.7874222569299505
 51
101.2532159677120944
  0
ARC
  5
4AB3
  8
0
 10
-8.3091660896372623
 20
-3.6475174955137031
 30
0.0
 40
0.0169846297549829
 50
15.5783125429725207
 51
64.1837006098832887
  0
ARC
  5
4AB4
  8
0
 10
-8.306581273610508
 20
-3.646796856469849
 30
0.0
 40
0.0143012374013211
 50
327.7979882057106238
 51
15.5783125429716698
  0
ARC
  5
4AB5
  8
0
 10
-8.3120347435439381
 20
-3.643362355742827
 30
0.0
 40
0.0207460903522246
 50
294.5421888526400949
 51
327.7979882057106806
  0
ARC
  5
4AB6
  8
0
 10
-8.3190844077221922
 20
-3.627923415734664
 30
0.0
 40
0.0377183805218454
 50
241.4464821965669046
 51
294.5421888526399812
  0
ARC
  5
4AB7
  8
0
 10
-8.3285924189906346
 20
-3.6453960543218371
 30
0.0
 40
0.017826287181054
 50
201.0840122144792019
 51
241.4464821965675867
  0
ARC
  5
4AB8
  8
0
 10
-8.3320337324012534
 20
-3.646722843531343
 30
0.0
 40
0.0141380616461162
 50
142.2432570289163039
 51
201.0840122144786051
  0
ARC
  5
4AB9
  8
0
 10
-8.3352010416731641
 20
-3.6387039591364769
 30
0.0
 40
0.0383798599857378
 50
191.1660939523314937
 51
237.0857252520384861
  0
ARC
  5
4ABA
  8
0
 10
-8.3198604979823294
 20
-3.6154997467068251
 30
0.0
 40
0.0661957850697034
 50
236.8525800400466039
 51
270.5612916271606991
  0
ARC
  5
4ABB
  8
0
 10
-8.3199176586115264
 20
-3.6096650649127051
 30
0.0
 40
0.0720307468498838
 50
270.5612916271604149
 51
298.4556179892563819
  0
ARC
  5
4ABC
  8
0
 10
-8.3049481898289024
 20
-3.637286398442253
 30
0.0
 40
0.0406138236780565
 50
298.4556179892567229
 51
332.9437741911260105
  0
ARC
  5
4ABD
  8
0
 10
-8.2956473227072465
 20
-3.6420369294392581
 30
0.0
 40
0.0301699894219883
 50
332.9437741911266926
 51
19.715712542526969
  0
ARC
  5
4ABE
  8
0
 10
-8.2965232063318997
 20
-3.6423508121992132
 30
0.0
 40
0.0311004164803505
 50
19.7157125425268589
 51
54.8331801483434305
  0
ARC
  5
4ABF
  8
0
 10
-8.3197573052863039
 20
-3.675327773784983
 30
0.0
 40
0.0714402646413492
 50
54.8331801483434305
 51
104.2949392472498005
  0
ARC
  5
4AC0
  8
0
 10
-8.3259144856156997
 20
-3.6578218839891021
 30
0.0
 40
0.0529816253121694
 50
102.5166793028133014
 51
141.0664828003309026
  0
ARC
  5
4AC1
  8
0
 10
-8.3438797804779448
 20
-3.6422517126298861
 30
0.0
 40
0.029233837479575
 50
142.6776240063616967
 51
187.636168006965903
  0
ARC
  5
4AC2
  8
0
 10
-8.3410504874713496
 20
-3.6039812916130369
 30
0.0
 40
0.0528902266416446
 50
207.4387534367899946
 51
233.0688354146961103
  0
ARC
  5
4AC3
  8
0
 10
-8.3556676663105982
 20
-3.611570664986377
 30
0.0
 40
0.0364202386204419
 50
164.4484521359381972
 51
207.4387534367903925
  0
ARC
  5
4AC4
  8
0
 10
-8.3485901011878472
 20
-3.6135403064845031
 30
0.0
 40
0.0437667626759333
 50
137.0346300022756054
 51
164.448452135937913
  0
ARC
  5
4AC5
  8
0
 10
-8.3246186610596951
 20
-3.6393215292777472
 30
0.0
 40
0.0789200915161391
 50
96.4644944651972338
 51
135.1990434438525881
  0
ARC
  5
4AC6
  8
0
 10
-8.3192009576158732
 20
-3.6564856649650941
 30
0.0
 40
0.0966466853071577
 50
61.6197181887614533
 51
98.5106869862444512
  0
ARC
  5
4AC7
  8
0
 10
-8.3039801679735898
 20
-3.6260335678097082
 30
0.0
 40
0.0626291568741701
 50
40.9102408543890306
 51
60.6288048219719471
  0
ARC
  5
4AC8
  8
0
 10
-8.2890455046421021
 20
-3.613010324477572
 30
0.0
 40
0.042813924073279
 50
8.5372227153911826
 51
40.8275525468781382
  0
ARC
  5
4AC9
  8
0
 10
-8.2852044878269009
 20
-3.6112959941159701
 30
0.0
 40
0.038777297864841
 50
324.0143525887010014
 51
6.8745443542275169
  0
ARC
  5
4ACA
  8
0
 10
-8.2978361620518601
 20
-3.6032595415067701
 30
0.0
 40
0.0537283420409773
 50
306.6125708400751932
 51
324.9947844543247015
  0
LINE
  5
4ACB
  8
0
 10
-8.3848231525355832
 20
-3.588990448945935
 30
0.0
 11
-8.3728578213986822
 21
-3.646110520499978
 31
0.0
  0
LINE
  5
4ACC
  8
0
 10
-8.2656051903093086
 20
-3.644811554226087
 30
0.0
 11
-8.2535742490956014
 21
-3.5890348761083062
 31
0.0
  0
ARC
  5
4ACD
  8
0
 10
-7.276439025436054
 20
-3.6543332911772031
 30
0.0
 40
0.0262174629962694
 50
97.8569376147588628
 51
141.649035104387309
  0
ARC
  5
4ACE
  8
0
 10
-7.2730347115712606
 20
-3.6634839101702421
 30
0.0
 40
0.0358104449869578
 50
60.7874222569299505
 51
101.2532159677120944
  0
ARC
  5
4ACF
  8
0
 10
-7.2629539671773991
 20
-3.6475174955137031
 30
0.0
 40
0.0169846297549829
 50
15.5783125429725207
 51
64.1837006098832887
  0
ARC
  5
4AD0
  8
0
 10
-7.2603691511506439
 20
-3.646796856469849
 30
0.0
 40
0.0143012374013211
 50
327.7979882057106238
 51
15.5783125429716698
  0
ARC
  5
4AD1
  8
0
 10
-7.2658226210840766
 20
-3.643362355742827
 30
0.0
 40
0.0207460903522246
 50
294.5421888526400949
 51
327.7979882057106806
  0
ARC
  5
4AD2
  8
0
 10
-7.2728722852623298
 20
-3.627923415734664
 30
0.0
 40
0.0377183805218454
 50
241.4464821965669046
 51
294.5421888526399812
  0
ARC
  5
4AD3
  8
0
 10
-7.2823802965307696
 20
-3.6453960543218371
 30
0.0
 40
0.017826287181054
 50
201.0840122144792019
 51
241.4464821965675867
  0
ARC
  5
4AD4
  8
0
 10
-7.2858216099413893
 20
-3.646722843531343
 30
0.0
 40
0.0141380616461162
 50
142.2432570289163039
 51
201.0840122144786051
  0
ARC
  5
4AD5
  8
0
 10
-7.2889889192133008
 20
-3.6387039591364769
 30
0.0
 40
0.0383798599857378
 50
191.1660939523314937
 51
237.0857252520384861
  0
ARC
  5
4AD6
  8
0
 10
-7.273648375522467
 20
-3.6154997467068251
 30
0.0
 40
0.0661957850697034
 50
236.8525800400466039
 51
270.5612916271606991
  0
ARC
  5
4AD7
  8
0
 10
-7.2737055361516632
 20
-3.6096650649127051
 30
0.0
 40
0.0720307468498838
 50
270.5612916271604149
 51
298.4556179892563819
  0
ARC
  5
4AD8
  8
0
 10
-7.2587360673690391
 20
-3.637286398442253
 30
0.0
 40
0.0406138236780565
 50
298.4556179892567229
 51
332.9437741911260105
  0
ARC
  5
4AD9
  8
0
 10
-7.2494352002473832
 20
-3.6420369294392581
 30
0.0
 40
0.0301699894219883
 50
332.9437741911266926
 51
19.715712542526969
  0
ARC
  5
4ADA
  8
0
 10
-7.2503110838720364
 20
-3.6423508121992132
 30
0.0
 40
0.0311004164803505
 50
19.7157125425268589
 51
54.8331801483434305
  0
ARC
  5
4ADB
  8
0
 10
-7.2735451828264397
 20
-3.675327773784983
 30
0.0
 40
0.0714402646413492
 50
54.8331801483434305
 51
104.294939247249701
  0
ARC
  5
4ADC
  8
0
 10
-7.2797023631558364
 20
-3.6578218839891021
 30
0.0
 40
0.0529816253121694
 50
102.5166793028133014
 51
141.0664828003309026
  0
ARC
  5
4ADD
  8
0
 10
-7.2976676580180806
 20
-3.6422517126298861
 30
0.0
 40
0.029233837479575
 50
142.6776240063616967
 51
187.636168006965903
  0
ARC
  5
4ADE
  8
0
 10
-7.2948383650114872
 20
-3.6039812916130369
 30
0.0
 40
0.0528902266416446
 50
207.4387534367899946
 51
233.0688354146961103
  0
ARC
  5
4ADF
  8
0
 10
-7.3094555438507358
 20
-3.611570664986377
 30
0.0
 40
0.0364202386204419
 50
164.4484521359381972
 51
207.4387534367903925
  0
ARC
  5
4AE0
  8
0
 10
-7.3023779787279848
 20
-3.6135403064845031
 30
0.0
 40
0.0437667626759333
 50
137.0346300022756054
 51
164.448452135937913
  0
ARC
  5
4AE1
  8
0
 10
-7.2784065385998318
 20
-3.6393215292777472
 30
0.0
 40
0.0789200915161391
 50
96.4644944651972338
 51
135.1990434438525881
  0
ARC
  5
4AE2
  8
0
 10
-7.2729888351560108
 20
-3.6564856649650941
 30
0.0
 40
0.0966466853071577
 50
61.6197181887614533
 51
98.5106869862444512
  0
ARC
  5
4AE3
  8
0
 10
-7.2577680455137257
 20
-3.6260335678097082
 30
0.0
 40
0.0626291568741701
 50
40.9102408543890306
 51
60.6288048219719471
  0
ARC
  5
4AE4
  8
0
 10
-7.2428333821822379
 20
-3.613010324477572
 30
0.0
 40
0.042813924073279
 50
8.5372227153911826
 51
40.8275525468781382
  0
ARC
  5
4AE5
  8
0
 10
-7.2389923653670367
 20
-3.6112959941159701
 30
0.0
 40
0.038777297864841
 50
324.0143525887010014
 51
6.8745443542275169
  0
ARC
  5
4AE6
  8
0
 10
-7.2516240395919978
 20
-3.6032595415067701
 30
0.0
 40
0.0537283420409773
 50
306.6125708400751932
 51
324.9947844543247015
  0
LINE
  5
4AE7
  8
0
 10
-7.338611030075719
 20
-3.588990448945935
 30
0.0
 11
-7.326645698938818
 21
-3.646110520499978
 31
0.0
  0
LINE
  5
4AE8
  8
0
 10
-7.2193930678494453
 20
-3.644811554226087
 30
0.0
 11
-7.2073621266357382
 21
-3.5890348761083062
 31
0.0
  0
ARC
  5
4AE9
  8
0
 10
-6.2338759945785034
 20
-3.6543332911772031
 30
0.0
 40
0.0262174629962694
 50
97.8569376147588628
 51
141.649035104387309
  0
ARC
  5
4AEA
  8
0
 10
-6.2304716807137099
 20
-3.6634839101702421
 30
0.0
 40
0.0358104449869578
 50
60.7874222569299505
 51
101.2532159677120944
  0
ARC
  5
4AEB
  8
0
 10
-6.2203909363198484
 20
-3.6475174955137031
 30
0.0
 40
0.0169846297549829
 50
15.5783125429725207
 51
64.1837006098832887
  0
ARC
  5
4AEC
  8
0
 10
-6.2178061202930941
 20
-3.646796856469849
 30
0.0
 40
0.0143012374013211
 50
327.7979882057106238
 51
15.5783125429716698
  0
ARC
  5
4AED
  8
0
 10
-6.223259590226526
 20
-3.643362355742827
 30
0.0
 40
0.0207460903522246
 50
294.5421888526400949
 51
327.7979882057106806
  0
ARC
  5
4AEE
  8
0
 10
-6.23030925440478
 20
-3.627923415734664
 30
0.0
 40
0.0377183805218454
 50
241.4464821965669046
 51
294.5421888526399812
  0
ARC
  5
4AEF
  8
0
 10
-6.2398172656732189
 20
-3.6453960543218371
 30
0.0
 40
0.017826287181054
 50
201.0840122144792019
 51
241.4464821965675867
  0
ARC
  5
4AF0
  8
0
 10
-6.2432585790838377
 20
-3.646722843531343
 30
0.0
 40
0.0141380616461162
 50
142.2432570289163039
 51
201.0840122144786051
  0
ARC
  5
4AF1
  8
0
 10
-6.2464258883557511
 20
-3.6387039591364769
 30
0.0
 40
0.0383798599857378
 50
191.1660939523314937
 51
237.0857252520384861
  0
ARC
  5
4AF2
  8
0
 10
-6.2310853446649164
 20
-3.6154997467068251
 30
0.0
 40
0.0661957850697034
 50
236.8525800400466039
 51
270.5612916271606991
  0
ARC
  5
4AF3
  8
0
 10
-6.2311425052941116
 20
-3.6096650649127051
 30
0.0
 40
0.0720307468498838
 50
270.5612916271604149
 51
298.4556179892563819
  0
ARC
  5
4AF4
  8
0
 10
-6.2161730365114893
 20
-3.637286398442253
 30
0.0
 40
0.0406138236780565
 50
298.4556179892567229
 51
332.9437741911260105
  0
ARC
  5
4AF5
  8
0
 10
-6.2068721693898317
 20
-3.6420369294392581
 30
0.0
 40
0.0301699894219883
 50
332.9437741911266926
 51
19.715712542526969
  0
ARC
  5
4AF6
  8
0
 10
-6.2077480530144848
 20
-3.6423508121992132
 30
0.0
 40
0.0311004164803505
 50
19.7157125425268589
 51
54.8331801483434305
  0
ARC
  5
4AF7
  8
0
 10
-6.230982151968889
 20
-3.675327773784983
 30
0.0
 40
0.0714402646413492
 50
54.8331801483434305
 51
104.294939247249701
  0
ARC
  5
4AF8
  8
0
 10
-6.2371393322982849
 20
-3.6578218839891021
 30
0.0
 40
0.0529816253121694
 50
102.5166793028133014
 51
141.0664828003309026
  0
ARC
  5
4AF9
  8
0
 10
-6.25510462716053
 20
-3.6422517126298861
 30
0.0
 40
0.029233837479575
 50
142.6776240063616967
 51
187.636168006965903
  0
ARC
  5
4AFA
  8
0
 10
-6.2522753341539357
 20
-3.6039812916130369
 30
0.0
 40
0.0528902266416446
 50
207.4387534367899946
 51
233.0688354146961103
  0
ARC
  5
4AFB
  8
0
 10
-6.2668925129931861
 20
-3.611570664986377
 30
0.0
 40
0.0364202386204419
 50
164.4484521359381972
 51
207.4387534367903925
  0
ARC
  5
4AFC
  8
0
 10
-6.259814947870435
 20
-3.6135403064845031
 30
0.0
 40
0.0437667626759333
 50
137.0346300022756054
 51
164.448452135937913
  0
ARC
  5
4AFD
  8
0
 10
-6.235843507742282
 20
-3.6393215292777472
 30
0.0
 40
0.0789200915161391
 50
96.4644944651972338
 51
135.1990434438525881
  0
ARC
  5
4AFE
  8
0
 10
-6.230425804298461
 20
-3.6564856649650941
 30
0.0
 40
0.0966466853071577
 50
61.6197181887614533
 51
98.5106869862444512
  0
ARC
  5
4AFF
  8
0
 10
-6.215205014656175
 20
-3.6260335678097082
 30
0.0
 40
0.0626291568741701
 50
40.9102408543890306
 51
60.6288048219719471
  0
ARC
  5
4B00
  8
0
 10
-6.2002703513246882
 20
-3.613010324477572
 30
0.0
 40
0.042813924073279
 50
8.5372227153911826
 51
40.8275525468781382
  0
ARC
  5
4B01
  8
0
 10
-6.1964293345094861
 20
-3.6112959941159701
 30
0.0
 40
0.038777297864841
 50
324.0143525887010014
 51
6.8745443542275169
  0
ARC
  5
4B02
  8
0
 10
-6.2090610087344471
 20
-3.6032595415067701
 30
0.0
 40
0.0537283420409773
 50
306.6125708400751932
 51
324.9947844543247015
  0
LINE
  5
4B03
  8
0
 10
-6.2960479992181693
 20
-3.588990448945935
 30
0.0
 11
-6.2840826680812674
 21
-3.646110520499978
 31
0.0
  0
LINE
  5
4B04
  8
0
 10
-6.1768300369918938
 20
-3.644811554226087
 30
0.0
 11
-6.1647990957781866
 21
-3.5890348761083062
 31
0.0
  0
ARC
  5
4B05
  8
0
 10
-5.1914504689637146
 20
-3.6543332911772031
 30
0.0
 40
0.0262174629962694
 50
97.8569376147588628
 51
141.649035104387309
  0
ARC
  5
4B06
  8
0
 10
-5.1880461550989221
 20
-3.6634839101702421
 30
0.0
 40
0.0358104449869578
 50
60.7874222569299505
 51
101.2532159677120944
  0
ARC
  5
4B07
  8
0
 10
-5.1779654107050588
 20
-3.6475174955137031
 30
0.0
 40
0.0169846297549829
 50
15.5783125429725207
 51
64.1837006098832887
  0
ARC
  5
4B08
  8
0
 10
-5.1753805946783054
 20
-3.646796856469849
 30
0.0
 40
0.0143012374013211
 50
327.7979882057106238
 51
15.5783125429716698
  0
ARC
  5
4B09
  8
0
 10
-5.1808340646117372
 20
-3.643362355742827
 30
0.0
 40
0.0207460903522246
 50
294.5421888526400949
 51
327.7979882057106806
  0
ARC
  5
4B0A
  8
0
 10
-5.1878837287899913
 20
-3.627923415734664
 30
0.0
 40
0.0377183805218454
 50
241.4464821965669046
 51
294.5421888526399812
  0
ARC
  5
4B0B
  8
0
 10
-5.1973917400584311
 20
-3.6453960543218371
 30
0.0
 40
0.017826287181054
 50
201.0840122144792019
 51
241.4464821965675867
  0
ARC
  5
4B0C
  8
0
 10
-5.2008330534690499
 20
-3.646722843531343
 30
0.0
 40
0.0141380616461162
 50
142.2432570289163039
 51
201.0840122144786051
  0
ARC
  5
4B0D
  8
0
 10
-5.2040003627409632
 20
-3.6387039591364769
 30
0.0
 40
0.0383798599857378
 50
191.1660939523314937
 51
237.0857252520384861
  0
ARC
  5
4B0E
  8
0
 10
-5.1886598190501259
 20
-3.6154997467068251
 30
0.0
 40
0.0661957850697034
 50
236.8525800400466039
 51
270.5612916271606991
  0
ARC
  5
4B0F
  8
0
 10
-5.1887169796793229
 20
-3.6096650649127051
 30
0.0
 40
0.0720307468498838
 50
270.5612916271604149
 51
298.4556179892563819
  0
ARC
  5
4B10
  8
0
 10
-5.1737475108966988
 20
-3.637286398442253
 30
0.0
 40
0.0406138236780565
 50
298.4556179892567229
 51
332.9437741911260105
  0
ARC
  5
4B11
  8
0
 10
-5.1644466437750429
 20
-3.6420369294392581
 30
0.0
 40
0.0301699894219883
 50
332.9437741911266926
 51
19.7157125425269193
  0
ARC
  5
4B12
  8
0
 10
-5.1653225273996961
 20
-3.6423508121992132
 30
0.0
 40
0.0311004164803505
 50
19.7157125425268589
 51
54.8331801483434305
  0
ARC
  5
4B13
  8
0
 10
-5.1885566263541012
 20
-3.675327773784983
 30
0.0
 40
0.0714402646413492
 50
54.8331801483434305
 51
104.294939247249701
  0
ARC
  5
4B14
  8
0
 10
-5.194713806683497
 20
-3.6578218839891021
 30
0.0
 40
0.0529816253121694
 50
102.5166793028133014
 51
141.0664828003309026
  0
ARC
  5
4B15
  8
0
 10
-5.2126791015457421
 20
-3.6422517126298861
 30
0.0
 40
0.029233837479575
 50
142.6776240063616967
 51
187.636168006965903
  0
ARC
  5
4B16
  8
0
 10
-5.209849808539146
 20
-3.6039812916130369
 30
0.0
 40
0.0528902266416446
 50
207.4387534367899946
 51
233.0688354146961103
  0
ARC
  5
4B17
  8
0
 10
-5.2244669873783973
 20
-3.611570664986377
 30
0.0
 40
0.0364202386204419
 50
164.4484521359381972
 51
207.4387534367903925
  0
ARC
  5
4B18
  8
0
 10
-5.2173894222556463
 20
-3.6135403064845031
 30
0.0
 40
0.0437667626759333
 50
137.0346300022756054
 51
164.448452135937913
  0
ARC
  5
4B19
  8
0
 10
-5.1934179821274924
 20
-3.6393215292777472
 30
0.0
 40
0.0789200915161391
 50
96.4644944651972338
 51
135.1990434438525881
  0
ARC
  5
4B1A
  8
0
 10
-5.1880002786836723
 20
-3.6564856649650941
 30
0.0
 40
0.0966466853071577
 50
61.6197181887614533
 51
98.5106869862444512
  0
ARC
  5
4B1B
  8
0
 10
-5.1727794890413872
 20
-3.6260335678097082
 30
0.0
 40
0.0626291568741701
 50
40.9102408543890306
 51
60.6288048219719471
  0
ARC
  5
4B1C
  8
0
 10
-5.1578448257098994
 20
-3.613010324477572
 30
0.0
 40
0.042813924073279
 50
8.5372227153911826
 51
40.8275525468781382
  0
ARC
  5
4B1D
  8
0
 10
-5.1540038088946982
 20
-3.6112959941159701
 30
0.0
 40
0.038777297864841
 50
324.0143525887010014
 51
6.8745443542275169
  0
ARC
  5
4B1E
  8
0
 10
-5.1666354831196593
 20
-3.6032595415067701
 30
0.0
 40
0.0537283420409773
 50
306.6125708400751932
 51
324.9947844543247015
  0
LINE
  5
4B1F
  8
0
 10
-5.2536224736033796
 20
-3.588990448945935
 30
0.0
 11
-5.2416571424664786
 21
-3.646110520499978
 31
0.0
  0
LINE
  5
4B20
  8
0
 10
-5.1344045113771051
 20
-3.644811554226087
 30
0.0
 11
-5.1223735701633979
 21
-3.5890348761083062
 31
0.0
  0
ARC
  5
4B21
  8
0
 10
-4.1490645868241884
 20
-3.6543332911772031
 30
0.0
 40
0.0262174629962694
 50
97.8569376147588628
 51
141.649035104387309
  0
ARC
  5
4B22
  8
0
 10
-4.1456602729593941
 20
-3.6634839101702421
 30
0.0
 40
0.0358104449869578
 50
60.7874222569300073
 51
101.2532159677120944
  0
ARC
  5
4B23
  8
0
 10
-4.1355795285655317
 20
-3.6475174955137031
 30
0.0
 40
0.0169846297549829
 50
15.5783125429725207
 51
64.1837006098832177
  0
ARC
  5
4B24
  8
0
 10
-4.1329947125387783
 20
-3.646796856469849
 30
0.0
 40
0.0143012374013211
 50
327.7979882057106238
 51
15.5783125429716698
  0
ARC
  5
4B25
  8
0
 10
-4.1384481824722101
 20
-3.643362355742827
 30
0.0
 40
0.0207460903522246
 50
294.5421888526400949
 51
327.7979882057106806
  0
ARC
  5
4B26
  8
0
 10
-4.1454978466504642
 20
-3.627923415734664
 30
0.0
 40
0.0377183805218454
 50
241.4464821965669046
 51
294.5421888526399812
  0
ARC
  5
4B27
  8
0
 10
-4.155005857918904
 20
-3.6453960543218371
 30
0.0
 40
0.017826287181054
 50
201.0840122144792019
 51
241.4464821965675867
  0
ARC
  5
4B28
  8
0
 10
-4.1584471713295228
 20
-3.646722843531343
 30
0.0
 40
0.0141380616461162
 50
142.2432570289163039
 51
201.0840122144786051
  0
ARC
  5
4B29
  8
0
 10
-4.1616144806014361
 20
-3.6387039591364769
 30
0.0
 40
0.0383798599857378
 50
191.1660939523314937
 51
237.0857252520384861
  0
ARC
  5
4B2A
  8
0
 10
-4.1462739369105988
 20
-3.6154997467068251
 30
0.0
 40
0.0661957850697034
 50
236.8525800400466039
 51
270.5612916271606991
  0
ARC
  5
4B2B
  8
0
 10
-4.1463310975397958
 20
-3.6096650649127051
 30
0.0
 40
0.0720307468498838
 50
270.5612916271604149
 51
298.4556179892563819
  0
ARC
  5
4B2C
  8
0
 10
-4.1313616287571717
 20
-3.637286398442253
 30
0.0
 40
0.0406138236780565
 50
298.4556179892566092
 51
332.9437741911260105
  0
ARC
  5
4B2D
  8
0
 10
-4.1220607616355158
 20
-3.6420369294392581
 30
0.0
 40
0.0301699894219883
 50
332.9437741911266926
 51
19.7157125425269193
  0
ARC
  5
4B2E
  8
0
 10
-4.122936645260169
 20
-3.6423508121992132
 30
0.0
 40
0.0311004164803505
 50
19.7157125425268589
 51
54.8331801483434305
  0
ARC
  5
4B2F
  8
0
 10
-4.1461707442145741
 20
-3.675327773784983
 30
0.0
 40
0.0714402646413492
 50
54.8331801483434305
 51
104.294939247249701
  0
ARC
  5
4B30
  8
0
 10
-4.152327924543969
 20
-3.6578218839891021
 30
0.0
 40
0.0529816253121694
 50
102.516679302813202
 51
141.0664828003309026
  0
ARC
  5
4B31
  8
0
 10
-4.170293219406215
 20
-3.6422517126298861
 30
0.0
 40
0.029233837479575
 50
142.6776240063616967
 51
187.636168006965903
  0
ARC
  5
4B32
  8
0
 10
-4.1674639263996189
 20
-3.6039812916130369
 30
0.0
 40
0.0528902266416446
 50
207.4387534367899946
 51
233.0688354146961103
  0
ARC
  5
4B33
  8
0
 10
-4.1820811052388702
 20
-3.611570664986377
 30
0.0
 40
0.0364202386204419
 50
164.4484521359381972
 51
207.4387534367903925
  0
ARC
  5
4B34
  8
0
 10
-4.1750035401161192
 20
-3.6135403064845031
 30
0.0
 40
0.0437667626759333
 50
137.0346300022756054
 51
164.448452135937913
  0
ARC
  5
4B35
  8
0
 10
-4.1510320999879653
 20
-3.6393215292777472
 30
0.0
 40
0.0789200915161391
 50
96.4644944651972338
 51
135.1990434438525881
  0
ARC
  5
4B36
  8
0
 10
-4.1456143965441452
 20
-3.6564856649650941
 30
0.0
 40
0.0966466853071577
 50
61.6197181887615102
 51
98.5106869862444512
  0
ARC
  5
4B37
  8
0
 10
-4.1303936069018601
 20
-3.6260335678097082
 30
0.0
 40
0.0626291568741701
 50
40.9102408543890306
 51
60.6288048219719471
  0
ARC
  5
4B38
  8
0
 10
-4.1154589435703723
 20
-3.613010324477572
 30
0.0
 40
0.042813924073279
 50
8.5372227153911826
 51
40.8275525468781382
  0
ARC
  5
4B39
  8
0
 10
-4.1116179267551711
 20
-3.6112959941159701
 30
0.0
 40
0.038777297864841
 50
324.0143525887010014
 51
6.8745443542275169
  0
ARC
  5
4B3A
  8
0
 10
-4.1242496009801322
 20
-3.6032595415067701
 30
0.0
 40
0.0537283420409773
 50
306.6125708400751932
 51
324.9947844543247015
  0
LINE
  5
4B3B
  8
0
 10
-4.2112365914638534
 20
-3.588990448945935
 30
0.0
 11
-4.1992712603269524
 21
-3.646110520499978
 31
0.0
  0
LINE
  5
4B3C
  8
0
 10
-4.092018629237578
 20
-3.644811554226087
 30
0.0
 11
-4.0799876880238708
 21
-3.5890348761083062
 31
0.0
  0
ARC
  5
4B3D
  8
0
 10
-12.4953390661990102
 20
-4.3909415218484193
 30
0.0
 40
0.0262174629962694
 50
97.8569376147588628
 51
141.649035104387309
  0
ARC
  5
4B3E
  8
0
 10
-12.4919347523342203
 20
-4.4000921408414584
 30
0.0
 40
0.0358104449869578
 50
60.7874222569299505
 51
101.2532159677120944
  0
ARC
  5
4B3F
  8
0
 10
-12.4818540079403597
 20
-4.3841257261849194
 30
0.0
 40
0.0169846297549829
 50
15.5783125429725207
 51
64.1837006098832887
  0
ARC
  5
4B40
  8
0
 10
-12.4792691919136001
 20
-4.3834050871410648
 30
0.0
 40
0.0143012374013211
 50
327.7979882057106238
 51
15.5783125429716698
  0
ARC
  5
4B41
  8
0
 10
-12.4847226618470408
 20
-4.3799705864140428
 30
0.0
 40
0.0207460903522246
 50
294.5421888526400949
 51
327.7979882057106806
  0
ARC
  5
4B42
  8
0
 10
-12.4917723260252895
 20
-4.3645316464058803
 30
0.0
 40
0.0377183805218454
 50
241.4464821965669046
 51
294.5421888526399812
  0
ARC
  5
4B43
  8
0
 10
-12.5012803372937302
 20
-4.3820042849930534
 30
0.0
 40
0.017826287181054
 50
201.0840122144792019
 51
241.4464821965675867
  0
ARC
  5
4B44
  8
0
 10
-12.5047216507043508
 20
-4.3833310742025589
 30
0.0
 40
0.0141380616461162
 50
142.2432570289163039
 51
201.0840122144786051
  0
ARC
  5
4B45
  8
0
 10
-12.5078889599762597
 20
-4.3753121898076932
 30
0.0
 40
0.0383798599857378
 50
191.1660939523314937
 51
237.0857252520384861
  0
ARC
  5
4B46
  8
0
 10
-12.4925484162854197
 20
-4.35210797737804
 30
0.0
 40
0.0661957850697034
 50
236.8525800400466039
 51
270.5612916271606991
  0
ARC
  5
4B47
  8
0
 10
-12.4926055769146203
 20
-4.3462732955839201
 30
0.0
 40
0.0720307468498838
 50
270.5612916271604149
 51
298.4556179892563819
  0
ARC
  5
4B48
  8
0
 10
-12.4776361081319997
 20
-4.3738946291134688
 30
0.0
 40
0.0406138236780565
 50
298.4556179892567229
 51
332.9437741911260105
  0
ARC
  5
4B49
  8
0
 10
-12.4683352410103403
 20
-4.3786451601104739
 30
0.0
 40
0.0301699894219883
 50
332.9437741911266926
 51
19.715712542526969
  0
ARC
  5
4B4A
  8
0
 10
-12.4692111246350006
 20
-4.378959042870429
 30
0.0
 40
0.0311004164803505
 50
19.7157125425269193
 51
54.8331801483434305
  0
ARC
  5
4B4B
  8
0
 10
-12.4924452235893995
 20
-4.4119360044561988
 30
0.0
 40
0.0714402646413492
 50
54.8331801483434305
 51
104.294939247249701
  0
ARC
  5
4B4C
  8
0
 10
-12.49860240391879
 20
-4.3944301146603184
 30
0.0
 40
0.0529816253121694
 50
102.5166793028133014
 51
141.0664828003309026
  0
ARC
  5
4B4D
  8
0
 10
-12.5165676987810404
 20
-4.3788599433011024
 30
0.0
 40
0.029233837479575
 50
142.6776240063616967
 51
187.636168006965903
  0
ARC
  5
4B4E
  8
0
 10
-12.5137384057744505
 20
-4.3405895222842528
 30
0.0
 40
0.0528902266416446
 50
207.4387534367899946
 51
233.0688354146961103
  0
ARC
  5
4B4F
  8
0
 10
-12.5283555846136903
 20
-4.3481788956575933
 30
0.0
 40
0.0364202386204419
 50
164.4484521359381972
 51
207.4387534367903925
  0
ARC
  5
4B50
  8
0
 10
-12.5212780194909392
 20
-4.350148537155718
 30
0.0
 40
0.0437667626759333
 50
137.0346300022756054
 51
164.448452135937913
  0
ARC
  5
4B51
  8
0
 10
-12.4973065793627907
 20
-4.3759297599489626
 30
0.0
 40
0.0789200915161391
 50
96.4644944651972338
 51
135.1990434438525881
  0
ARC
  5
4B52
  8
0
 10
-12.4918888759189706
 20
-4.3930938956363104
 30
0.0
 40
0.0966466853071577
 50
61.6197181887614533
 51
98.5106869862444512
  0
ARC
  5
4B53
  8
0
 10
-12.4766680862766801
 20
-4.362641798480924
 30
0.0
 40
0.0626291568741701
 50
40.9102408543890874
 51
60.6288048219719471
  0
ARC
  5
4B54
  8
0
 10
-12.4617334229451995
 20
-4.3496185551487878
 30
0.0
 40
0.042813924073279
 50
8.5372227153911826
 51
40.8275525468781382
  0
ARC
  5
4B55
  8
0
 10
-12.45789240613
 20
-4.3479042247871851
 30
0.0
 40
0.038777297864841
 50
324.0143525887010014
 51
6.8745443542275169
  0
ARC
  5
4B56
  8
0
 10
-12.4705240803549593
 20
-4.3398677721779864
 30
0.0
 40
0.0537283420409773
 50
306.6125708400751932
 51
324.9947844543247015
  0
LINE
  5
4B57
  8
0
 10
-12.5575110708386806
 20
-4.3255986796171513
 30
0.0
 11
-12.5455457397017796
 21
-4.3827187511711942
 31
0.0
  0
LINE
  5
4B58
  8
0
 10
-12.4382931086124007
 20
-4.3814197848973029
 30
0.0
 11
-12.4262621673987006
 21
-4.3256431067795216
 31
0.0
  0
ARC
  5
4B59
  8
0
 10
-11.4462273804020693
 20
-4.3909415218484193
 30
0.0
 40
0.0262174629962694
 50
97.8569376147588628
 51
141.649035104387309
  0
ARC
  5
4B5A
  8
0
 10
-11.4428230665372705
 20
-4.4000921408414584
 30
0.0
 40
0.0358104449869578
 50
60.7874222569299505
 51
101.2532159677120944
  0
ARC
  5
4B5B
  8
0
 10
-11.4327423221434099
 20
-4.3841257261849194
 30
0.0
 40
0.0169846297549829
 50
15.5783125429725207
 51
64.1837006098832887
  0
ARC
  5
4B5C
  8
0
 10
-11.4301575061166591
 20
-4.3834050871410648
 30
0.0
 40
0.0143012374013211
 50
327.7979882057106238
 51
15.5783125429716698
  0
ARC
  5
4B5D
  8
0
 10
-11.4356109760500892
 20
-4.3799705864140428
 30
0.0
 40
0.0207460903522246
 50
294.5421888526400949
 51
327.7979882057106806
  0
ARC
  5
4B5E
  8
0
 10
-11.4426606402283504
 20
-4.3645316464058803
 30
0.0
 40
0.0377183805218454
 50
241.4464821965669046
 51
294.5421888526399812
  0
ARC
  5
4B5F
  8
0
 10
-11.4521686514967893
 20
-4.3820042849930534
 30
0.0
 40
0.017826287181054
 50
201.0840122144792019
 51
241.4464821965675867
  0
ARC
  5
4B60
  8
0
 10
-11.4556099649073992
 20
-4.3833310742025589
 30
0.0
 40
0.0141380616461162
 50
142.2432570289163039
 51
201.0840122144786051
  0
ARC
  5
4B61
  8
0
 10
-11.4587772741793206
 20
-4.3753121898076932
 30
0.0
 40
0.0383798599857378
 50
191.1660939523314937
 51
237.0857252520384861
  0
ARC
  5
4B62
  8
0
 10
-11.4434367304884805
 20
-4.35210797737804
 30
0.0
 40
0.0661957850697034
 50
236.8525800400466039
 51
270.5612916271606991
  0
ARC
  5
4B63
  8
0
 10
-11.4434938911176793
 20
-4.3462732955839201
 30
0.0
 40
0.0720307468498838
 50
270.5612916271604149
 51
298.4556179892563819
  0
ARC
  5
4B64
  8
0
 10
-11.4285244223350499
 20
-4.3738946291134688
 30
0.0
 40
0.0406138236780565
 50
298.4556179892567229
 51
332.9437741911260105
  0
ARC
  5
4B65
  8
0
 10
-11.4192235552133994
 20
-4.3786451601104739
 30
0.0
 40
0.0301699894219883
 50
332.9437741911266926
 51
19.715712542526969
  0
ARC
  5
4B66
  8
0
 10
-11.4200994388380508
 20
-4.378959042870429
 30
0.0
 40
0.0311004164803505
 50
19.7157125425269193
 51
54.8331801483434305
  0
ARC
  5
4B67
  8
0
 10
-11.4433335377924497
 20
-4.4119360044561988
 30
0.0
 40
0.0714402646413492
 50
54.8331801483434305
 51
104.294939247249701
  0
ARC
  5
4B68
  8
0
 10
-11.4494907181218508
 20
-4.3944301146603184
 30
0.0
 40
0.0529816253121694
 50
102.5166793028133014
 51
141.0664828003309026
  0
ARC
  5
4B69
  8
0
 10
-11.4674560129840994
 20
-4.3788599433011024
 30
0.0
 40
0.029233837479575
 50
142.6776240063616967
 51
187.6361680069657893
  0
ARC
  5
4B6A
  8
0
 10
-11.4646267199775007
 20
-4.3405895222842528
 30
0.0
 40
0.0528902266416446
 50
207.4387534367899946
 51
233.0688354146961103
  0
ARC
  5
4B6B
  8
0
 10
-11.4792438988167493
 20
-4.3481788956575933
 30
0.0
 40
0.0364202386204419
 50
164.4484521359381972
 51
207.4387534367903925
  0
ARC
  5
4B6C
  8
0
 10
-11.4721663336940001
 20
-4.350148537155718
 30
0.0
 40
0.0437667626759333
 50
137.0346300022756054
 51
164.448452135937913
  0
ARC
  5
4B6D
  8
0
 10
-11.4481948935658497
 20
-4.3759297599489626
 30
0.0
 40
0.0789200915161391
 50
96.4644944651972338
 51
135.1990434438525881
  0
ARC
  5
4B6E
  8
0
 10
-11.4427771901220297
 20
-4.3930938956363104
 30
0.0
 40
0.0966466853071577
 50
61.6197181887614533
 51
98.5106869862444512
  0
ARC
  5
4B6F
  8
0
 10
-11.4275564004797392
 20
-4.362641798480924
 30
0.0
 40
0.0626291568741701
 50
40.9102408543890874
 51
60.6288048219719471
  0
ARC
  5
4B70
  8
0
 10
-11.4126217371482497
 20
-4.3496185551487878
 30
0.0
 40
0.042813924073279
 50
8.5372227153911826
 51
40.8275525468781382
  0
ARC
  5
4B71
  8
0
 10
-11.4087807203330502
 20
-4.3479042247871851
 30
0.0
 40
0.038777297864841
 50
324.0143525887010014
 51
6.8745443542275169
  0
ARC
  5
4B72
  8
0
 10
-11.4214123945580095
 20
-4.3398677721779864
 30
0.0
 40
0.0537283420409773
 50
306.6125708400751932
 51
324.9947844543247015
  0
LINE
  5
4B73
  8
0
 10
-11.5083993850417308
 20
-4.3255986796171513
 30
0.0
 11
-11.4964340539048298
 21
-4.3827187511711942
 31
0.0
  0
LINE
  5
4B74
  8
0
 10
-11.3891814228154598
 20
-4.3814197848973029
 30
0.0
 11
-11.3771504816017508
 21
-4.3256431067795216
 31
0.0
  0
ARC
  5
4B75
  8
0
 10
-10.4076086603453408
 20
-4.3909415218484193
 30
0.0
 40
0.0262174629962694
 50
97.8569376147588628
 51
141.649035104387309
  0
ARC
  5
4B76
  8
0
 10
-10.4042043464805403
 20
-4.4000921408414584
 30
0.0
 40
0.0358104449869578
 50
60.7874222569299505
 51
101.2532159677120944
  0
ARC
  5
4B77
  8
0
 10
-10.3941236020866796
 20
-4.3841257261849194
 30
0.0
 40
0.0169846297549829
 50
15.5783125429725207
 51
64.1837006098832887
  0
ARC
  5
4B78
  8
0
 10
-10.3915387860599306
 20
-4.3834050871410648
 30
0.0
 40
0.0143012374013211
 50
327.7979882057106238
 51
15.5783125429716698
  0
ARC
  5
4B79
  8
0
 10
-10.3969922559933607
 20
-4.3799705864140428
 30
0.0
 40
0.0207460903522246
 50
294.5421888526400949
 51
327.7979882057106806
  0
ARC
  5
4B7A
  8
0
 10
-10.4040419201716094
 20
-4.3645316464058803
 30
0.0
 40
0.0377183805218454
 50
241.4464821965669046
 51
294.5421888526399812
  0
ARC
  5
4B7B
  8
0
 10
-10.4135499314400501
 20
-4.3820042849930534
 30
0.0
 40
0.017826287181054
 50
201.0840122144792019
 51
241.4464821965675867
  0
ARC
  5
4B7C
  8
0
 10
-10.4169912448506707
 20
-4.3833310742025589
 30
0.0
 40
0.0141380616461162
 50
142.2432570289163039
 51
201.0840122144786051
  0
ARC
  5
4B7D
  8
0
 10
-10.4201585541225796
 20
-4.3753121898076932
 30
0.0
 40
0.0383798599857378
 50
191.1660939523314937
 51
237.0857252520384861
  0
ARC
  5
4B7E
  8
0
 10
-10.4048180104317503
 20
-4.35210797737804
 30
0.0
 40
0.0661957850697034
 50
236.8525800400466039
 51
270.5612916271606991
  0
ARC
  5
4B7F
  8
0
 10
-10.4048751710609402
 20
-4.3462732955839201
 30
0.0
 40
0.0720307468498838
 50
270.5612916271604149
 51
298.4556179892563819
  0
ARC
  5
4B80
  8
0
 10
-10.3899057022783197
 20
-4.3738946291134688
 30
0.0
 40
0.0406138236780565
 50
298.4556179892567229
 51
332.9437741911260105
  0
ARC
  5
4B81
  8
0
 10
-10.3806048351566709
 20
-4.3786451601104739
 30
0.0
 40
0.0301699894219883
 50
332.9437741911266926
 51
19.715712542526969
  0
ARC
  5
4B82
  8
0
 10
-10.3814807187813205
 20
-4.378959042870429
 30
0.0
 40
0.0311004164803505
 50
19.7157125425269193
 51
54.8331801483434305
  0
ARC
  5
4B83
  8
0
 10
-10.4047148177357194
 20
-4.4119360044561988
 30
0.0
 40
0.0714402646413492
 50
54.8331801483434305
 51
104.294939247249701
  0
ARC
  5
4B84
  8
0
 10
-10.4108719980651205
 20
-4.3944301146603184
 30
0.0
 40
0.0529816253121694
 50
102.5166793028133014
 51
141.0664828003309026
  0
ARC
  5
4B85
  8
0
 10
-10.4288372929273603
 20
-4.3788599433011024
 30
0.0
 40
0.029233837479575
 50
142.6776240063616967
 51
187.6361680069657893
  0
ARC
  5
4B86
  8
0
 10
-10.4260079999207704
 20
-4.3405895222842528
 30
0.0
 40
0.0528902266416446
 50
207.4387534367899946
 51
233.0688354146961103
  0
ARC
  5
4B87
  8
0
 10
-10.4406251787600208
 20
-4.3481788956575933
 30
0.0
 40
0.0364202386204419
 50
164.4484521359381972
 51
207.4387534367903925
  0
ARC
  5
4B88
  8
0
 10
-10.4335476136372698
 20
-4.350148537155718
 30
0.0
 40
0.0437667626759333
 50
137.0346300022756054
 51
164.448452135937913
  0
ARC
  5
4B89
  8
0
 10
-10.4095761735091106
 20
-4.3759297599489626
 30
0.0
 40
0.0789200915161391
 50
96.4644944651972338
 51
135.1990434438525881
  0
ARC
  5
4B8A
  8
0
 10
-10.4041584700652905
 20
-4.3930938956363104
 30
0.0
 40
0.0966466853071577
 50
61.6197181887614533
 51
98.5106869862444512
  0
ARC
  5
4B8B
  8
0
 10
-10.3889376804230107
 20
-4.362641798480924
 30
0.0
 40
0.0626291568741701
 50
40.9102408543890874
 51
60.628804821972011
  0
ARC
  5
4B8C
  8
0
 10
-10.3740030170915194
 20
-4.3496185551487878
 30
0.0
 40
0.042813924073279
 50
8.5372227153911826
 51
40.8275525468781382
  0
ARC
  5
4B8D
  8
0
 10
-10.37016200027632
 20
-4.3479042247871851
 30
0.0
 40
0.038777297864841
 50
324.0143525887010014
 51
6.8745443542275169
  0
ARC
  5
4B8E
  8
0
 10
-10.3827936745012792
 20
-4.3398677721779864
 30
0.0
 40
0.0537283420409773
 50
306.6125708400751932
 51
324.9947844543247015
  0
LINE
  5
4B8F
  8
0
 10
-10.4697806649850005
 20
-4.3255986796171513
 30
0.0
 11
-10.4578153338480995
 21
-4.3827187511711942
 31
0.0
  0
LINE
  5
4B90
  8
0
 10
-10.3505627027587295
 20
-4.3814197848973029
 30
0.0
 11
-10.3385317615450205
 21
-4.3256431067795216
 31
0.0
  0
ARC
  5
4B91
  8
0
 10
-9.3633092280730281
 20
-4.3909415218484193
 30
0.0
 40
0.0262174629962694
 50
97.8569376147588628
 51
141.649035104387309
  0
ARC
  5
4B92
  8
0
 10
-9.3599049142082347
 20
-4.4000921408414584
 30
0.0
 40
0.0358104449869578
 50
60.7874222569299505
 51
101.2532159677120944
  0
ARC
  5
4B93
  8
0
 10
-9.3498241698143723
 20
-4.3841257261849194
 30
0.0
 40
0.0169846297549829
 50
15.5783125429725207
 51
64.1837006098832887
  0
ARC
  5
4B94
  8
0
 10
-9.3472393537876162
 20
-4.3834050871410648
 30
0.0
 40
0.0143012374013211
 50
327.7979882057106238
 51
15.5783125429716698
  0
ARC
  5
4B95
  8
0
 10
-9.3526928237210498
 20
-4.3799705864140428
 30
0.0
 40
0.0207460903522246
 50
294.5421888526400949
 51
327.7979882057106806
  0
ARC
  5
4B96
  8
0
 10
-9.3597424878993039
 20
-4.3645316464058803
 30
0.0
 40
0.0377183805218454
 50
241.4464821965669046
 51
294.5421888526399812
  0
ARC
  5
4B97
  8
0
 10
-9.3692504991677446
 20
-4.3820042849930534
 30
0.0
 40
0.017826287181054
 50
201.0840122144792019
 51
241.4464821965675867
  0
ARC
  5
4B98
  8
0
 10
-9.3726918125783634
 20
-4.3833310742025589
 30
0.0
 40
0.0141380616461162
 50
142.2432570289163039
 51
201.0840122144786051
  0
ARC
  5
4B99
  8
0
 10
-9.3758591218502758
 20
-4.3753121898076932
 30
0.0
 40
0.0383798599857378
 50
191.1660939523314937
 51
237.0857252520384861
  0
ARC
  5
4B9A
  8
0
 10
-9.3605185781594393
 20
-4.35210797737804
 30
0.0
 40
0.0661957850697034
 50
236.8525800400466039
 51
270.5612916271606991
  0
ARC
  5
4B9B
  8
0
 10
-9.3605757387886364
 20
-4.3462732955839201
 30
0.0
 40
0.0720307468498838
 50
270.5612916271604149
 51
298.4556179892563819
  0
ARC
  5
4B9C
  8
0
 10
-9.3456062700060123
 20
-4.3738946291134688
 30
0.0
 40
0.0406138236780565
 50
298.4556179892567229
 51
332.9437741911260105
  0
ARC
  5
4B9D
  8
0
 10
-9.3363054028843564
 20
-4.3786451601104739
 30
0.0
 40
0.0301699894219883
 50
332.9437741911266926
 51
19.715712542526969
  0
ARC
  5
4B9E
  8
0
 10
-9.3371812865090096
 20
-4.378959042870429
 30
0.0
 40
0.0311004164803505
 50
19.7157125425268589
 51
54.8331801483434305
  0
ARC
  5
4B9F
  8
0
 10
-9.3604153854634138
 20
-4.4119360044561988
 30
0.0
 40
0.0714402646413492
 50
54.8331801483434305
 51
104.2949392472498005
  0
ARC
  5
4BA0
  8
0
 10
-9.3665725657928096
 20
-4.3944301146603184
 30
0.0
 40
0.0529816253121694
 50
102.5166793028133014
 51
141.0664828003309026
  0
ARC
  5
4BA1
  8
0
 10
-9.3845378606550547
 20
-4.3788599433011024
 30
0.0
 40
0.029233837479575
 50
142.6776240063616967
 51
187.636168006965903
  0
ARC
  5
4BA2
  8
0
 10
-9.3817085676484595
 20
-4.3405895222842528
 30
0.0
 40
0.0528902266416446
 50
207.4387534367899946
 51
233.0688354146961103
  0
ARC
  5
4BA3
  8
0
 10
-9.3963257464877081
 20
-4.3481788956575933
 30
0.0
 40
0.0364202386204419
 50
164.4484521359381972
 51
207.4387534367903925
  0
ARC
  5
4BA4
  8
0
 10
-9.3892481813649589
 20
-4.350148537155718
 30
0.0
 40
0.0437667626759333
 50
137.0346300022756054
 51
164.448452135937913
  0
ARC
  5
4BA5
  8
0
 10
-9.3652767412368032
 20
-4.3759297599489626
 30
0.0
 40
0.0789200915161391
 50
96.4644944651972338
 51
135.1990434438525881
  0
ARC
  5
4BA6
  8
0
 10
-9.3598590377929831
 20
-4.3930938956363104
 30
0.0
 40
0.0966466853071577
 50
61.6197181887614533
 51
98.5106869862444512
  0
ARC
  5
4BA7
  8
0
 10
-9.3446382481506998
 20
-4.362641798480924
 30
0.0
 40
0.0626291568741701
 50
40.9102408543890874
 51
60.628804821972011
  0
ARC
  5
4BA8
  8
0
 10
-9.329703584819212
 20
-4.3496185551487878
 30
0.0
 40
0.042813924073279
 50
8.5372227153911826
 51
40.8275525468781382
  0
ARC
  5
4BA9
  8
0
 10
-9.3258625680040108
 20
-4.3479042247871851
 30
0.0
 40
0.038777297864841
 50
324.0143525887010014
 51
6.8745443542275169
  0
ARC
  5
4BAA
  8
0
 10
-9.3384942422289718
 20
-4.3398677721779864
 30
0.0
 40
0.0537283420409773
 50
306.6125708400751932
 51
324.9947844543247015
  0
LINE
  5
4BAB
  8
0
 10
-9.4254812327126931
 20
-4.3255986796171513
 30
0.0
 11
-9.4135159015757921
 21
-4.3827187511711942
 31
0.0
  0
LINE
  5
4BAC
  8
0
 10
-9.3062632704864185
 20
-4.3814197848973029
 30
0.0
 11
-9.2942323292727114
 21
-4.3256431067795216
 31
0.0
  0
ARC
  5
4BAD
  8
0
 10
-8.3226511478959182
 20
-4.3909415218484193
 30
0.0
 40
0.0262174629962694
 50
97.8569376147588628
 51
141.649035104387309
  0
ARC
  5
4BAE
  8
0
 10
-8.3192468340311247
 20
-4.4000921408414584
 30
0.0
 40
0.0358104449869578
 50
60.7874222569299505
 51
101.2532159677120944
  0
ARC
  5
4BAF
  8
0
 10
-8.3091660896372623
 20
-4.3841257261849194
 30
0.0
 40
0.0169846297549829
 50
15.5783125429725207
 51
64.1837006098832887
  0
ARC
  5
4BB0
  8
0
 10
-8.306581273610508
 20
-4.3834050871410648
 30
0.0
 40
0.0143012374013211
 50
327.7979882057106238
 51
15.5783125429716698
  0
ARC
  5
4BB1
  8
0
 10
-8.3120347435439381
 20
-4.3799705864140428
 30
0.0
 40
0.0207460903522246
 50
294.5421888526400949
 51
327.7979882057106806
  0
ARC
  5
4BB2
  8
0
 10
-8.3190844077221922
 20
-4.3645316464058803
 30
0.0
 40
0.0377183805218454
 50
241.4464821965669046
 51
294.5421888526399812
  0
ARC
  5
4BB3
  8
0
 10
-8.3285924189906346
 20
-4.3820042849930534
 30
0.0
 40
0.017826287181054
 50
201.0840122144792019
 51
241.4464821965675867
  0
ARC
  5
4BB4
  8
0
 10
-8.3320337324012534
 20
-4.3833310742025589
 30
0.0
 40
0.0141380616461162
 50
142.2432570289163039
 51
201.0840122144786051
  0
ARC
  5
4BB5
  8
0
 10
-8.3352010416731641
 20
-4.3753121898076932
 30
0.0
 40
0.0383798599857378
 50
191.1660939523314937
 51
237.0857252520384861
  0
ARC
  5
4BB6
  8
0
 10
-8.3198604979823294
 20
-4.35210797737804
 30
0.0
 40
0.0661957850697034
 50
236.8525800400466039
 51
270.5612916271606991
  0
ARC
  5
4BB7
  8
0
 10
-8.3199176586115264
 20
-4.3462732955839201
 30
0.0
 40
0.0720307468498838
 50
270.5612916271604149
 51
298.4556179892563819
  0
ARC
  5
4BB8
  8
0
 10
-8.3049481898289024
 20
-4.3738946291134688
 30
0.0
 40
0.0406138236780565
 50
298.4556179892567229
 51
332.9437741911260105
  0
ARC
  5
4BB9
  8
0
 10
-8.2956473227072465
 20
-4.3786451601104739
 30
0.0
 40
0.0301699894219883
 50
332.9437741911266926
 51
19.715712542526969
  0
ARC
  5
4BBA
  8
0
 10
-8.2965232063318997
 20
-4.378959042870429
 30
0.0
 40
0.0311004164803505
 50
19.7157125425268589
 51
54.8331801483434305
  0
ARC
  5
4BBB
  8
0
 10
-8.3197573052863039
 20
-4.4119360044561988
 30
0.0
 40
0.0714402646413492
 50
54.8331801483434305
 51
104.2949392472498005
  0
ARC
  5
4BBC
  8
0
 10
-8.3259144856156997
 20
-4.3944301146603184
 30
0.0
 40
0.0529816253121694
 50
102.5166793028133014
 51
141.0664828003309026
  0
ARC
  5
4BBD
  8
0
 10
-8.3438797804779448
 20
-4.3788599433011024
 30
0.0
 40
0.029233837479575
 50
142.6776240063616967
 51
187.636168006965903
  0
ARC
  5
4BBE
  8
0
 10
-8.3410504874713496
 20
-4.3405895222842528
 30
0.0
 40
0.0528902266416446
 50
207.4387534367899946
 51
233.0688354146961103
  0
ARC
  5
4BBF
  8
0
 10
-8.3556676663105982
 20
-4.3481788956575933
 30
0.0
 40
0.0364202386204419
 50
164.4484521359381972
 51
207.4387534367903925
  0
ARC
  5
4BC0
  8
0
 10
-8.3485901011878472
 20
-4.350148537155718
 30
0.0
 40
0.0437667626759333
 50
137.0346300022756054
 51
164.448452135937913
  0
ARC
  5
4BC1
  8
0
 10
-8.3246186610596951
 20
-4.3759297599489626
 30
0.0
 40
0.0789200915161391
 50
96.4644944651972338
 51
135.1990434438525881
  0
ARC
  5
4BC2
  8
0
 10
-8.3192009576158732
 20
-4.3930938956363104
 30
0.0
 40
0.0966466853071577
 50
61.6197181887614533
 51
98.5106869862444512
  0
ARC
  5
4BC3
  8
0
 10
-8.3039801679735898
 20
-4.362641798480924
 30
0.0
 40
0.0626291568741701
 50
40.9102408543890306
 51
60.6288048219719471
  0
ARC
  5
4BC4
  8
0
 10
-8.2890455046421021
 20
-4.3496185551487878
 30
0.0
 40
0.042813924073279
 50
8.5372227153911826
 51
40.8275525468781382
  0
ARC
  5
4BC5
  8
0
 10
-8.2852044878269009
 20
-4.3479042247871851
 30
0.0
 40
0.038777297864841
 50
324.0143525887010014
 51
6.8745443542275169
  0
ARC
  5
4BC6
  8
0
 10
-8.2978361620518601
 20
-4.3398677721779864
 30
0.0
 40
0.0537283420409773
 50
306.6125708400751932
 51
324.9947844543247015
  0
LINE
  5
4BC7
  8
0
 10
-8.3848231525355832
 20
-4.3255986796171513
 30
0.0
 11
-8.3728578213986822
 21
-4.3827187511711942
 31
0.0
  0
LINE
  5
4BC8
  8
0
 10
-8.2656051903093086
 20
-4.3814197848973029
 30
0.0
 11
-8.2535742490956014
 21
-4.3256431067795216
 31
0.0
  0
ARC
  5
4BC9
  8
0
 10
-7.276439025436054
 20
-4.3909415218484193
 30
0.0
 40
0.0262174629962694
 50
97.8569376147588628
 51
141.649035104387309
  0
ARC
  5
4BCA
  8
0
 10
-7.2730347115712606
 20
-4.4000921408414584
 30
0.0
 40
0.0358104449869578
 50
60.7874222569299505
 51
101.2532159677120944
  0
ARC
  5
4BCB
  8
0
 10
-7.2629539671773991
 20
-4.3841257261849194
 30
0.0
 40
0.0169846297549829
 50
15.5783125429725207
 51
64.1837006098832887
  0
ARC
  5
4BCC
  8
0
 10
-7.2603691511506439
 20
-4.3834050871410648
 30
0.0
 40
0.0143012374013211
 50
327.7979882057106238
 51
15.5783125429716698
  0
ARC
  5
4BCD
  8
0
 10
-7.2658226210840766
 20
-4.3799705864140428
 30
0.0
 40
0.0207460903522246
 50
294.5421888526400949
 51
327.7979882057106806
  0
ARC
  5
4BCE
  8
0
 10
-7.2728722852623298
 20
-4.3645316464058803
 30
0.0
 40
0.0377183805218454
 50
241.4464821965669046
 51
294.5421888526399812
  0
ARC
  5
4BCF
  8
0
 10
-7.2823802965307696
 20
-4.3820042849930534
 30
0.0
 40
0.017826287181054
 50
201.0840122144792019
 51
241.4464821965675867
  0
ARC
  5
4BD0
  8
0
 10
-7.2858216099413893
 20
-4.3833310742025589
 30
0.0
 40
0.0141380616461162
 50
142.2432570289163039
 51
201.0840122144786051
  0
ARC
  5
4BD1
  8
0
 10
-7.2889889192133008
 20
-4.3753121898076932
 30
0.0
 40
0.0383798599857378
 50
191.1660939523314937
 51
237.0857252520384861
  0
ARC
  5
4BD2
  8
0
 10
-7.273648375522467
 20
-4.35210797737804
 30
0.0
 40
0.0661957850697034
 50
236.8525800400466039
 51
270.5612916271606991
  0
ARC
  5
4BD3
  8
0
 10
-7.2737055361516632
 20
-4.3462732955839201
 30
0.0
 40
0.0720307468498838
 50
270.5612916271604149
 51
298.4556179892563819
  0
ARC
  5
4BD4
  8
0
 10
-7.2587360673690391
 20
-4.3738946291134688
 30
0.0
 40
0.0406138236780565
 50
298.4556179892567229
 51
332.9437741911260105
  0
ARC
  5
4BD5
  8
0
 10
-7.2494352002473832
 20
-4.3786451601104739
 30
0.0
 40
0.0301699894219883
 50
332.9437741911266926
 51
19.715712542526969
  0
ARC
  5
4BD6
  8
0
 10
-7.2503110838720364
 20
-4.378959042870429
 30
0.0
 40
0.0311004164803505
 50
19.7157125425268589
 51
54.8331801483434305
  0
ARC
  5
4BD7
  8
0
 10
-7.2735451828264397
 20
-4.4119360044561988
 30
0.0
 40
0.0714402646413492
 50
54.8331801483434305
 51
104.294939247249701
  0
ARC
  5
4BD8
  8
0
 10
-7.2797023631558364
 20
-4.3944301146603184
 30
0.0
 40
0.0529816253121694
 50
102.5166793028133014
 51
141.0664828003309026
  0
ARC
  5
4BD9
  8
0
 10
-7.2976676580180806
 20
-4.3788599433011024
 30
0.0
 40
0.029233837479575
 50
142.6776240063616967
 51
187.636168006965903
  0
ARC
  5
4BDA
  8
0
 10
-7.2948383650114872
 20
-4.3405895222842528
 30
0.0
 40
0.0528902266416446
 50
207.4387534367899946
 51
233.0688354146961103
  0
ARC
  5
4BDB
  8
0
 10
-7.3094555438507358
 20
-4.3481788956575933
 30
0.0
 40
0.0364202386204419
 50
164.4484521359381972
 51
207.4387534367903925
  0
ARC
  5
4BDC
  8
0
 10
-7.3023779787279848
 20
-4.350148537155718
 30
0.0
 40
0.0437667626759333
 50
137.0346300022756054
 51
164.448452135937913
  0
ARC
  5
4BDD
  8
0
 10
-7.2784065385998318
 20
-4.3759297599489626
 30
0.0
 40
0.0789200915161391
 50
96.4644944651972338
 51
135.1990434438525881
  0
ARC
  5
4BDE
  8
0
 10
-7.2729888351560108
 20
-4.3930938956363104
 30
0.0
 40
0.0966466853071577
 50
61.6197181887614533
 51
98.5106869862444512
  0
ARC
  5
4BDF
  8
0
 10
-7.2577680455137257
 20
-4.362641798480924
 30
0.0
 40
0.0626291568741701
 50
40.9102408543890306
 51
60.6288048219719471
  0
ARC
  5
4BE0
  8
0
 10
-7.2428333821822379
 20
-4.3496185551487878
 30
0.0
 40
0.042813924073279
 50
8.5372227153911826
 51
40.8275525468781382
  0
ARC
  5
4BE1
  8
0
 10
-7.2389923653670367
 20
-4.3479042247871851
 30
0.0
 40
0.038777297864841
 50
324.0143525887010014
 51
6.8745443542275169
  0
ARC
  5
4BE2
  8
0
 10
-7.2516240395919978
 20
-4.3398677721779864
 30
0.0
 40
0.0537283420409773
 50
306.6125708400751932
 51
324.9947844543247015
  0
LINE
  5
4BE3
  8
0
 10
-7.338611030075719
 20
-4.3255986796171513
 30
0.0
 11
-7.326645698938818
 21
-4.3827187511711942
 31
0.0
  0
LINE
  5
4BE4
  8
0
 10
-7.2193930678494453
 20
-4.3814197848973029
 30
0.0
 11
-7.2073621266357382
 21
-4.3256431067795216
 31
0.0
  0
ARC
  5
4BE5
  8
0
 10
-6.2338759945785034
 20
-4.3909415218484193
 30
0.0
 40
0.0262174629962694
 50
97.8569376147588628
 51
141.649035104387309
  0
ARC
  5
4BE6
  8
0
 10
-6.2304716807137099
 20
-4.4000921408414584
 30
0.0
 40
0.0358104449869578
 50
60.7874222569299505
 51
101.2532159677120944
  0
ARC
  5
4BE7
  8
0
 10
-6.2203909363198484
 20
-4.3841257261849194
 30
0.0
 40
0.0169846297549829
 50
15.5783125429725207
 51
64.1837006098832887
  0
ARC
  5
4BE8
  8
0
 10
-6.2178061202930941
 20
-4.3834050871410648
 30
0.0
 40
0.0143012374013211
 50
327.7979882057106238
 51
15.5783125429716698
  0
ARC
  5
4BE9
  8
0
 10
-6.223259590226526
 20
-4.3799705864140428
 30
0.0
 40
0.0207460903522246
 50
294.5421888526400949
 51
327.7979882057106806
  0
ARC
  5
4BEA
  8
0
 10
-6.23030925440478
 20
-4.3645316464058803
 30
0.0
 40
0.0377183805218454
 50
241.4464821965669046
 51
294.5421888526399812
  0
ARC
  5
4BEB
  8
0
 10
-6.2398172656732189
 20
-4.3820042849930534
 30
0.0
 40
0.017826287181054
 50
201.0840122144792019
 51
241.4464821965675867
  0
ARC
  5
4BEC
  8
0
 10
-6.2432585790838377
 20
-4.3833310742025589
 30
0.0
 40
0.0141380616461162
 50
142.2432570289163039
 51
201.0840122144786051
  0
ARC
  5
4BED
  8
0
 10
-6.2464258883557511
 20
-4.3753121898076932
 30
0.0
 40
0.0383798599857378
 50
191.1660939523314937
 51
237.0857252520384861
  0
ARC
  5
4BEE
  8
0
 10
-6.2310853446649164
 20
-4.35210797737804
 30
0.0
 40
0.0661957850697034
 50
236.8525800400466039
 51
270.5612916271606991
  0
ARC
  5
4BEF
  8
0
 10
-6.2311425052941116
 20
-4.3462732955839201
 30
0.0
 40
0.0720307468498838
 50
270.5612916271604149
 51
298.4556179892563819
  0
ARC
  5
4BF0
  8
0
 10
-6.2161730365114893
 20
-4.3738946291134688
 30
0.0
 40
0.0406138236780565
 50
298.4556179892567229
 51
332.9437741911260105
  0
ARC
  5
4BF1
  8
0
 10
-6.2068721693898317
 20
-4.3786451601104739
 30
0.0
 40
0.0301699894219883
 50
332.9437741911266926
 51
19.715712542526969
  0
ARC
  5
4BF2
  8
0
 10
-6.2077480530144848
 20
-4.378959042870429
 30
0.0
 40
0.0311004164803505
 50
19.7157125425268589
 51
54.8331801483434305
  0
ARC
  5
4BF3
  8
0
 10
-6.230982151968889
 20
-4.4119360044561988
 30
0.0
 40
0.0714402646413492
 50
54.8331801483434305
 51
104.294939247249701
  0
ARC
  5
4BF4
  8
0
 10
-6.2371393322982849
 20
-4.3944301146603184
 30
0.0
 40
0.0529816253121694
 50
102.5166793028133014
 51
141.0664828003309026
  0
ARC
  5
4BF5
  8
0
 10
-6.25510462716053
 20
-4.3788599433011024
 30
0.0
 40
0.029233837479575
 50
142.6776240063616967
 51
187.636168006965903
  0
ARC
  5
4BF6
  8
0
 10
-6.2522753341539357
 20
-4.3405895222842528
 30
0.0
 40
0.0528902266416446
 50
207.4387534367899946
 51
233.0688354146961103
  0
ARC
  5
4BF7
  8
0
 10
-6.2668925129931861
 20
-4.3481788956575933
 30
0.0
 40
0.0364202386204419
 50
164.4484521359381972
 51
207.4387534367903925
  0
ARC
  5
4BF8
  8
0
 10
-6.259814947870435
 20
-4.350148537155718
 30
0.0
 40
0.0437667626759333
 50
137.0346300022756054
 51
164.448452135937913
  0
ARC
  5
4BF9
  8
0
 10
-6.235843507742282
 20
-4.3759297599489626
 30
0.0
 40
0.0789200915161391
 50
96.4644944651972338
 51
135.1990434438525881
  0
ARC
  5
4BFA
  8
0
 10
-6.230425804298461
 20
-4.3930938956363104
 30
0.0
 40
0.0966466853071577
 50
61.6197181887614533
 51
98.5106869862444512
  0
ARC
  5
4BFB
  8
0
 10
-6.215205014656175
 20
-4.362641798480924
 30
0.0
 40
0.0626291568741701
 50
40.9102408543890306
 51
60.6288048219719471
  0
ARC
  5
4BFC
  8
0
 10
-6.2002703513246882
 20
-4.3496185551487878
 30
0.0
 40
0.042813924073279
 50
8.5372227153911826
 51
40.8275525468781382
  0
ARC
  5
4BFD
  8
0
 10
-6.1964293345094861
 20
-4.3479042247871851
 30
0.0
 40
0.038777297864841
 50
324.0143525887010014
 51
6.8745443542275169
  0
ARC
  5
4BFE
  8
0
 10
-6.2090610087344471
 20
-4.3398677721779864
 30
0.0
 40
0.0537283420409773
 50
306.6125708400751932
 51
324.9947844543247015
  0
LINE
  5
4BFF
  8
0
 10
-6.2960479992181693
 20
-4.3255986796171513
 30
0.0
 11
-6.2840826680812674
 21
-4.3827187511711942
 31
0.0
  0
LINE
  5
4C00
  8
0
 10
-6.1768300369918938
 20
-4.3814197848973029
 30
0.0
 11
-6.1647990957781866
 21
-4.3256431067795216
 31
0.0
  0
ARC
  5
4C01
  8
0
 10
-5.1914504689637146
 20
-4.3909415218484193
 30
0.0
 40
0.0262174629962694
 50
97.8569376147588628
 51
141.649035104387309
  0
ARC
  5
4C02
  8
0
 10
-5.1880461550989221
 20
-4.4000921408414584
 30
0.0
 40
0.0358104449869578
 50
60.7874222569299505
 51
101.2532159677120944
  0
ARC
  5
4C03
  8
0
 10
-5.1779654107050588
 20
-4.3841257261849194
 30
0.0
 40
0.0169846297549829
 50
15.5783125429725207
 51
64.1837006098832887
  0
ARC
  5
4C04
  8
0
 10
-5.1753805946783054
 20
-4.3834050871410648
 30
0.0
 40
0.0143012374013211
 50
327.7979882057106238
 51
15.5783125429716698
  0
ARC
  5
4C05
  8
0
 10
-5.1808340646117372
 20
-4.3799705864140428
 30
0.0
 40
0.0207460903522246
 50
294.5421888526400949
 51
327.7979882057106806
  0
ARC
  5
4C06
  8
0
 10
-5.1878837287899913
 20
-4.3645316464058803
 30
0.0
 40
0.0377183805218454
 50
241.4464821965669046
 51
294.5421888526399812
  0
ARC
  5
4C07
  8
0
 10
-5.1973917400584311
 20
-4.3820042849930534
 30
0.0
 40
0.017826287181054
 50
201.0840122144792019
 51
241.4464821965675867
  0
ARC
  5
4C08
  8
0
 10
-5.2008330534690499
 20
-4.3833310742025589
 30
0.0
 40
0.0141380616461162
 50
142.2432570289163039
 51
201.0840122144786051
  0
ARC
  5
4C09
  8
0
 10
-5.2040003627409632
 20
-4.3753121898076932
 30
0.0
 40
0.0383798599857378
 50
191.1660939523314937
 51
237.0857252520384861
  0
ARC
  5
4C0A
  8
0
 10
-5.1886598190501259
 20
-4.35210797737804
 30
0.0
 40
0.0661957850697034
 50
236.8525800400466039
 51
270.5612916271606991
  0
ARC
  5
4C0B
  8
0
 10
-5.1887169796793229
 20
-4.3462732955839201
 30
0.0
 40
0.0720307468498838
 50
270.5612916271604149
 51
298.4556179892563819
  0
ARC
  5
4C0C
  8
0
 10
-5.1737475108966988
 20
-4.3738946291134688
 30
0.0
 40
0.0406138236780565
 50
298.4556179892567229
 51
332.9437741911260105
  0
ARC
  5
4C0D
  8
0
 10
-5.1644466437750429
 20
-4.3786451601104739
 30
0.0
 40
0.0301699894219883
 50
332.9437741911266926
 51
19.7157125425269193
  0
ARC
  5
4C0E
  8
0
 10
-5.1653225273996961
 20
-4.378959042870429
 30
0.0
 40
0.0311004164803505
 50
19.7157125425268589
 51
54.8331801483434305
  0
ARC
  5
4C0F
  8
0
 10
-5.1885566263541012
 20
-4.4119360044561988
 30
0.0
 40
0.0714402646413492
 50
54.8331801483434305
 51
104.294939247249701
  0
ARC
  5
4C10
  8
0
 10
-5.194713806683497
 20
-4.3944301146603184
 30
0.0
 40
0.0529816253121694
 50
102.5166793028133014
 51
141.0664828003309026
  0
ARC
  5
4C11
  8
0
 10
-5.2126791015457421
 20
-4.3788599433011024
 30
0.0
 40
0.029233837479575
 50
142.6776240063616967
 51
187.636168006965903
  0
ARC
  5
4C12
  8
0
 10
-5.209849808539146
 20
-4.3405895222842528
 30
0.0
 40
0.0528902266416446
 50
207.4387534367899946
 51
233.0688354146961103
  0
ARC
  5
4C13
  8
0
 10
-5.2244669873783973
 20
-4.3481788956575933
 30
0.0
 40
0.0364202386204419
 50
164.4484521359381972
 51
207.4387534367903925
  0
ARC
  5
4C14
  8
0
 10
-5.2173894222556463
 20
-4.350148537155718
 30
0.0
 40
0.0437667626759333
 50
137.0346300022756054
 51
164.448452135937913
  0
ARC
  5
4C15
  8
0
 10
-5.1934179821274924
 20
-4.3759297599489626
 30
0.0
 40
0.0789200915161391
 50
96.4644944651972338
 51
135.1990434438525881
  0
ARC
  5
4C16
  8
0
 10
-5.1880002786836723
 20
-4.3930938956363104
 30
0.0
 40
0.0966466853071577
 50
61.6197181887614533
 51
98.5106869862444512
  0
ARC
  5
4C17
  8
0
 10
-5.1727794890413872
 20
-4.362641798480924
 30
0.0
 40
0.0626291568741701
 50
40.9102408543890306
 51
60.6288048219719471
  0
ARC
  5
4C18
  8
0
 10
-5.1578448257098994
 20
-4.3496185551487878
 30
0.0
 40
0.042813924073279
 50
8.5372227153911826
 51
40.8275525468781382
  0
ARC
  5
4C19
  8
0
 10
-5.1540038088946982
 20
-4.3479042247871851
 30
0.0
 40
0.038777297864841
 50
324.0143525887010014
 51
6.8745443542275169
  0
ARC
  5
4C1A
  8
0
 10
-5.1666354831196593
 20
-4.3398677721779864
 30
0.0
 40
0.0537283420409773
 50
306.6125708400751932
 51
324.9947844543247015
  0
LINE
  5
4C1B
  8
0
 10
-5.2536224736033796
 20
-4.3255986796171513
 30
0.0
 11
-5.2416571424664786
 21
-4.3827187511711942
 31
0.0
  0
LINE
  5
4C1C
  8
0
 10
-5.1344045113771051
 20
-4.3814197848973029
 30
0.0
 11
-5.1223735701633979
 21
-4.3256431067795216
 31
0.0
  0
ARC
  5
4C1D
  8
0
 10
-4.1490645868241884
 20
-4.3909415218484193
 30
0.0
 40
0.0262174629962694
 50
97.8569376147588628
 51
141.649035104387309
  0
ARC
  5
4C1E
  8
0
 10
-4.1456602729593941
 20
-4.4000921408414584
 30
0.0
 40
0.0358104449869578
 50
60.7874222569300073
 51
101.2532159677120944
  0
ARC
  5
4C1F
  8
0
 10
-4.1355795285655317
 20
-4.3841257261849194
 30
0.0
 40
0.0169846297549829
 50
15.5783125429725207
 51
64.1837006098832177
  0
ARC
  5
4C20
  8
0
 10
-4.1329947125387783
 20
-4.3834050871410648
 30
0.0
 40
0.0143012374013211
 50
327.7979882057106238
 51
15.5783125429716698
  0
ARC
  5
4C21
  8
0
 10
-4.1384481824722101
 20
-4.3799705864140428
 30
0.0
 40
0.0207460903522246
 50
294.5421888526400949
 51
327.7979882057106806
  0
ARC
  5
4C22
  8
0
 10
-4.1454978466504642
 20
-4.3645316464058803
 30
0.0
 40
0.0377183805218454
 50
241.4464821965669046
 51
294.5421888526399812
  0
ARC
  5
4C23
  8
0
 10
-4.155005857918904
 20
-4.3820042849930534
 30
0.0
 40
0.017826287181054
 50
201.0840122144792019
 51
241.4464821965675867
  0
ARC
  5
4C24
  8
0
 10
-4.1584471713295228
 20
-4.3833310742025589
 30
0.0
 40
0.0141380616461162
 50
142.2432570289163039
 51
201.0840122144786051
  0
ARC
  5
4C25
  8
0
 10
-4.1616144806014361
 20
-4.3753121898076932
 30
0.0
 40
0.0383798599857378
 50
191.1660939523314937
 51
237.0857252520384861
  0
ARC
  5
4C26
  8
0
 10
-4.1462739369105988
 20
-4.35210797737804
 30
0.0
 40
0.0661957850697034
 50
236.8525800400466039
 51
270.5612916271606991
  0
ARC
  5
4C27
  8
0
 10
-4.1463310975397958
 20
-4.3462732955839201
 30
0.0
 40
0.0720307468498838
 50
270.5612916271604149
 51
298.4556179892563819
  0
ARC
  5
4C28
  8
0
 10
-4.1313616287571717
 20
-4.3738946291134688
 30
0.0
 40
0.0406138236780565
 50
298.4556179892566092
 51
332.9437741911260105
  0
ARC
  5
4C29
  8
0
 10
-4.1220607616355158
 20
-4.3786451601104739
 30
0.0
 40
0.0301699894219883
 50
332.9437741911266926
 51
19.7157125425269193
  0
ARC
  5
4C2A
  8
0
 10
-4.122936645260169
 20
-4.378959042870429
 30
0.0
 40
0.0311004164803505
 50
19.7157125425268589
 51
54.8331801483434305
  0
ARC
  5
4C2B
  8
0
 10
-4.1461707442145741
 20
-4.4119360044561988
 30
0.0
 40
0.0714402646413492
 50
54.8331801483434305
 51
104.294939247249701
  0
ARC
  5
4C2C
  8
0
 10
-4.152327924543969
 20
-4.3944301146603184
 30
0.0
 40
0.0529816253121694
 50
102.516679302813202
 51
141.0664828003309026
  0
ARC
  5
4C2D
  8
0
 10
-4.170293219406215
 20
-4.3788599433011024
 30
0.0
 40
0.029233837479575
 50
142.6776240063616967
 51
187.636168006965903
  0
ARC
  5
4C2E
  8
0
 10
-4.1674639263996189
 20
-4.3405895222842528
 30
0.0
 40
0.0528902266416446
 50
207.4387534367899946
 51
233.0688354146961103
  0
ARC
  5
4C2F
  8
0
 10
-4.1820811052388702
 20
-4.3481788956575933
 30
0.0
 40
0.0364202386204419
 50
164.4484521359381972
 51
207.4387534367903925
  0
ARC
  5
4C30
  8
0
 10
-4.1750035401161192
 20
-4.350148537155718
 30
0.0
 40
0.0437667626759333
 50
137.0346300022756054
 51
164.448452135937913
  0
ARC
  5
4C31
  8
0
 10
-4.1510320999879653
 20
-4.3759297599489626
 30
0.0
 40
0.0789200915161391
 50
96.4644944651972338
 51
135.1990434438525881
  0
ARC
  5
4C32
  8
0
 10
-4.1456143965441452
 20
-4.3930938956363104
 30
0.0
 40
0.0966466853071577
 50
61.6197181887615102
 51
98.5106869862444512
  0
ARC
  5
4C33
  8
0
 10
-4.1303936069018601
 20
-4.362641798480924
 30
0.0
 40
0.0626291568741701
 50
40.9102408543890306
 51
60.6288048219719471
  0
ARC
  5
4C34
  8
0
 10
-4.1154589435703723
 20
-4.3496185551487878
 30
0.0
 40
0.042813924073279
 50
8.5372227153911826
 51
40.8275525468781382
  0
ARC
  5
4C35
  8
0
 10
-4.1116179267551711
 20
-4.3479042247871851
 30
0.0
 40
0.038777297864841
 50
324.0143525887010014
 51
6.8745443542275169
  0
ARC
  5
4C36
  8
0
 10
-4.1242496009801322
 20
-4.3398677721779864
 30
0.0
 40
0.0537283420409773
 50
306.6125708400751932
 51
324.9947844543247015
  0
LINE
  5
4C37
  8
0
 10
-4.2112365914638534
 20
-4.3255986796171513
 30
0.0
 11
-4.1992712603269524
 21
-4.3827187511711942
 31
0.0
  0
LINE
  5
4C38
  8
0
 10
-4.092018629237578
 20
-4.3814197848973029
 30
0.0
 11
-4.0799876880238708
 21
-4.3256431067795216
 31
0.0
  0
ARC
  5
4C39
  8
0
 10
-12.4953390661990102
 20
-5.1285820746972419
 30
0.0
 40
0.0262174629962694
 50
97.8569376147588628
 51
141.649035104387309
  0
ARC
  5
4C3A
  8
0
 10
-12.4919347523342203
 20
-5.137732693690281
 30
0.0
 40
0.0358104449869578
 50
60.7874222569299505
 51
101.2532159677120944
  0
ARC
  5
4C3B
  8
0
 10
-12.4818540079403597
 20
-5.1217662790337419
 30
0.0
 40
0.0169846297549829
 50
15.5783125429725207
 51
64.1837006098832887
  0
ARC
  5
4C3C
  8
0
 10
-12.4792691919136001
 20
-5.1210456399898892
 30
0.0
 40
0.0143012374013211
 50
327.7979882057106238
 51
15.5783125429716698
  0
ARC
  5
4C3D
  8
0
 10
-12.4847226618470408
 20
-5.1176111392628671
 30
0.0
 40
0.0207460903522246
 50
294.5421888526400949
 51
327.7979882057106806
  0
ARC
  5
4C3E
  8
0
 10
-12.4917723260252895
 20
-5.1021721992547029
 30
0.0
 40
0.0377183805218454
 50
241.4464821965669046
 51
294.5421888526399812
  0
ARC
  5
4C3F
  8
0
 10
-12.5012803372937302
 20
-5.119644837841876
 30
0.0
 40
0.017826287181054
 50
201.0840122144792019
 51
241.4464821965675867
  0
ARC
  5
4C40
  8
0
 10
-12.5047216507043508
 20
-5.1209716270513832
 30
0.0
 40
0.0141380616461162
 50
142.2432570289163039
 51
201.0840122144786051
  0
ARC
  5
4C41
  8
0
 10
-12.5078889599762597
 20
-5.1129527426565158
 30
0.0
 40
0.0383798599857378
 50
191.1660939523314937
 51
237.0857252520384861
  0
ARC
  5
4C42
  8
0
 10
-12.4925484162854197
 20
-5.0897485302268644
 30
0.0
 40
0.0661957850697034
 50
236.8525800400466039
 51
270.5612916271606991
  0
ARC
  5
4C43
  8
0
 10
-12.4926055769146203
 20
-5.0839138484327444
 30
0.0
 40
0.0720307468498838
 50
270.5612916271604149
 51
298.4556179892563819
  0
ARC
  5
4C44
  8
0
 10
-12.4776361081319997
 20
-5.1115351819622932
 30
0.0
 40
0.0406138236780565
 50
298.4556179892567229
 51
332.9437741911260105
  0
ARC
  5
4C45
  8
0
 10
-12.4683352410103403
 20
-5.1162857129592982
 30
0.0
 40
0.0301699894219883
 50
332.9437741911266926
 51
19.7157125425269193
  0
ARC
  5
4C46
  8
0
 10
-12.4692111246350006
 20
-5.1165995957192516
 30
0.0
 40
0.0311004164803505
 50
19.7157125425269193
 51
54.8331801483434305
  0
ARC
  5
4C47
  8
0
 10
-12.4924452235893995
 20
-5.1495765573050232
 30
0.0
 40
0.0714402646413492
 50
54.8331801483434305
 51
104.294939247249701
  0
ARC
  5
4C48
  8
0
 10
-12.49860240391879
 20
-5.132070667509141
 30
0.0
 40
0.0529816253121694
 50
102.5166793028133014
 51
141.0664828003309026
  0
ARC
  5
4C49
  8
0
 10
-12.5165676987810404
 20
-5.116500496149925
 30
0.0
 40
0.029233837479575
 50
142.6776240063616967
 51
187.636168006965903
  0
ARC
  5
4C4A
  8
0
 10
-12.5137384057744505
 20
-5.0782300751330771
 30
0.0
 40
0.0528902266416446
 50
207.4387534367899946
 51
233.0688354146961103
  0
ARC
  5
4C4B
  8
0
 10
-12.5283555846136903
 20
-5.0858194485064159
 30
0.0
 40
0.0364202386204419
 50
164.4484521359381972
 51
207.4387534367903925
  0
ARC
  5
4C4C
  8
0
 10
-12.5212780194909392
 20
-5.0877890900045424
 30
0.0
 40
0.0437667626759333
 50
137.0346300022756054
 51
164.448452135937913
  0
ARC
  5
4C4D
  8
0
 10
-12.4973065793627907
 20
-5.1135703127977861
 30
0.0
 40
0.0789200915161391
 50
96.4644944651972338
 51
135.1990434438525881
  0
ARC
  5
4C4E
  8
0
 10
-12.4918888759189706
 20
-5.1307344484851329
 30
0.0
 40
0.0966466853071577
 50
61.6197181887614533
 51
98.5106869862444512
  0
ARC
  5
4C4F
  8
0
 10
-12.4766680862766801
 20
-5.1002823513297466
 30
0.0
 40
0.0626291568741701
 50
40.9102408543890874
 51
60.6288048219719471
  0
ARC
  5
4C50
  8
0
 10
-12.4617334229451995
 20
-5.0872591079976122
 30
0.0
 40
0.042813924073279
 50
8.5372227153911826
 51
40.8275525468781382
  0
ARC
  5
4C51
  8
0
 10
-12.45789240613
 20
-5.0855447776360094
 30
0.0
 40
0.038777297864841
 50
324.0143525887010014
 51
6.8745443542275169
  0
ARC
  5
4C52
  8
0
 10
-12.4705240803549593
 20
-5.0775083250268089
 30
0.0
 40
0.0537283420409773
 50
306.6125708400751932
 51
324.9947844543247015
  0
LINE
  5
4C53
  8
0
 10
-12.5575110708386806
 20
-5.0632392324659738
 30
0.0
 11
-12.5455457397017796
 21
-5.1203593040200168
 31
0.0
  0
LINE
  5
4C54
  8
0
 10
-12.4382931086124007
 20
-5.1190603377461272
 30
0.0
 11
-12.4262621673987006
 21
-5.063283659628345
 31
0.0
  0
ARC
  5
4C55
  8
0
 10
-11.4462273804020693
 20
-5.1285820746972419
 30
0.0
 40
0.0262174629962694
 50
97.8569376147588628
 51
141.649035104387309
  0
ARC
  5
4C56
  8
0
 10
-11.4428230665372705
 20
-5.137732693690281
 30
0.0
 40
0.0358104449869578
 50
60.7874222569299505
 51
101.2532159677120944
  0
ARC
  5
4C57
  8
0
 10
-11.4327423221434099
 20
-5.1217662790337419
 30
0.0
 40
0.0169846297549829
 50
15.5783125429725207
 51
64.1837006098832887
  0
ARC
  5
4C58
  8
0
 10
-11.4301575061166591
 20
-5.1210456399898892
 30
0.0
 40
0.0143012374013211
 50
327.7979882057106238
 51
15.5783125429716698
  0
ARC
  5
4C59
  8
0
 10
-11.4356109760500892
 20
-5.1176111392628671
 30
0.0
 40
0.0207460903522246
 50
294.5421888526400949
 51
327.7979882057106806
  0
ARC
  5
4C5A
  8
0
 10
-11.4426606402283504
 20
-5.1021721992547029
 30
0.0
 40
0.0377183805218454
 50
241.4464821965669046
 51
294.5421888526399812
  0
ARC
  5
4C5B
  8
0
 10
-11.4521686514967893
 20
-5.119644837841876
 30
0.0
 40
0.017826287181054
 50
201.0840122144792019
 51
241.4464821965675867
  0
ARC
  5
4C5C
  8
0
 10
-11.4556099649073992
 20
-5.1209716270513832
 30
0.0
 40
0.0141380616461162
 50
142.2432570289163039
 51
201.0840122144786051
  0
ARC
  5
4C5D
  8
0
 10
-11.4587772741793206
 20
-5.1129527426565158
 30
0.0
 40
0.0383798599857378
 50
191.1660939523314937
 51
237.0857252520384861
  0
ARC
  5
4C5E
  8
0
 10
-11.4434367304884805
 20
-5.0897485302268644
 30
0.0
 40
0.0661957850697034
 50
236.8525800400466039
 51
270.5612916271606991
  0
ARC
  5
4C5F
  8
0
 10
-11.4434938911176793
 20
-5.0839138484327444
 30
0.0
 40
0.0720307468498838
 50
270.5612916271604149
 51
298.4556179892563819
  0
ARC
  5
4C60
  8
0
 10
-11.4285244223350499
 20
-5.1115351819622932
 30
0.0
 40
0.0406138236780565
 50
298.4556179892567229
 51
332.9437741911260105
  0
ARC
  5
4C61
  8
0
 10
-11.4192235552133994
 20
-5.1162857129592982
 30
0.0
 40
0.0301699894219883
 50
332.9437741911266926
 51
19.715712542526969
  0
ARC
  5
4C62
  8
0
 10
-11.4200994388380508
 20
-5.1165995957192516
 30
0.0
 40
0.0311004164803505
 50
19.7157125425269193
 51
54.8331801483434305
  0
ARC
  5
4C63
  8
0
 10
-11.4433335377924497
 20
-5.1495765573050232
 30
0.0
 40
0.0714402646413492
 50
54.8331801483434305
 51
104.294939247249701
  0
ARC
  5
4C64
  8
0
 10
-11.4494907181218508
 20
-5.132070667509141
 30
0.0
 40
0.0529816253121694
 50
102.5166793028133014
 51
141.0664828003309026
  0
ARC
  5
4C65
  8
0
 10
-11.4674560129840994
 20
-5.116500496149925
 30
0.0
 40
0.029233837479575
 50
142.6776240063616967
 51
187.6361680069657893
  0
ARC
  5
4C66
  8
0
 10
-11.4646267199775007
 20
-5.0782300751330771
 30
0.0
 40
0.0528902266416446
 50
207.4387534367899946
 51
233.0688354146961103
  0
ARC
  5
4C67
  8
0
 10
-11.4792438988167493
 20
-5.0858194485064159
 30
0.0
 40
0.0364202386204419
 50
164.4484521359381972
 51
207.4387534367903925
  0
ARC
  5
4C68
  8
0
 10
-11.4721663336940001
 20
-5.0877890900045424
 30
0.0
 40
0.0437667626759333
 50
137.0346300022756054
 51
164.448452135937913
  0
ARC
  5
4C69
  8
0
 10
-11.4481948935658497
 20
-5.1135703127977861
 30
0.0
 40
0.0789200915161391
 50
96.4644944651972338
 51
135.1990434438525881
  0
ARC
  5
4C6A
  8
0
 10
-11.4427771901220297
 20
-5.1307344484851329
 30
0.0
 40
0.0966466853071577
 50
61.6197181887614533
 51
98.5106869862444512
  0
ARC
  5
4C6B
  8
0
 10
-11.4275564004797392
 20
-5.1002823513297466
 30
0.0
 40
0.0626291568741701
 50
40.9102408543890874
 51
60.6288048219719471
  0
ARC
  5
4C6C
  8
0
 10
-11.4126217371482497
 20
-5.0872591079976122
 30
0.0
 40
0.042813924073279
 50
8.5372227153911826
 51
40.8275525468781382
  0
ARC
  5
4C6D
  8
0
 10
-11.4087807203330502
 20
-5.0855447776360094
 30
0.0
 40
0.038777297864841
 50
324.0143525887010014
 51
6.8745443542275169
  0
ARC
  5
4C6E
  8
0
 10
-11.4214123945580095
 20
-5.0775083250268089
 30
0.0
 40
0.0537283420409773
 50
306.6125708400751932
 51
324.9947844543247015
  0
LINE
  5
4C6F
  8
0
 10
-11.5083993850417308
 20
-5.0632392324659738
 30
0.0
 11
-11.4964340539048298
 21
-5.1203593040200168
 31
0.0
  0
LINE
  5
4C70
  8
0
 10
-11.3891814228154598
 20
-5.1190603377461272
 30
0.0
 11
-11.3771504816017508
 21
-5.063283659628345
 31
0.0
  0
ARC
  5
4C71
  8
0
 10
-10.4076086603453408
 20
-5.1285820746972419
 30
0.0
 40
0.0262174629962694
 50
97.8569376147588628
 51
141.649035104387309
  0
ARC
  5
4C72
  8
0
 10
-10.4042043464805403
 20
-5.137732693690281
 30
0.0
 40
0.0358104449869578
 50
60.7874222569299505
 51
101.2532159677120944
  0
ARC
  5
4C73
  8
0
 10
-10.3941236020866796
 20
-5.1217662790337419
 30
0.0
 40
0.0169846297549829
 50
15.5783125429725207
 51
64.1837006098832887
  0
ARC
  5
4C74
  8
0
 10
-10.3915387860599306
 20
-5.1210456399898892
 30
0.0
 40
0.0143012374013211
 50
327.7979882057106238
 51
15.5783125429716698
  0
ARC
  5
4C75
  8
0
 10
-10.3969922559933607
 20
-5.1176111392628671
 30
0.0
 40
0.0207460903522246
 50
294.5421888526400949
 51
327.7979882057106806
  0
ARC
  5
4C76
  8
0
 10
-10.4040419201716094
 20
-5.1021721992547029
 30
0.0
 40
0.0377183805218454
 50
241.4464821965669046
 51
294.5421888526399812
  0
ARC
  5
4C77
  8
0
 10
-10.4135499314400501
 20
-5.119644837841876
 30
0.0
 40
0.017826287181054
 50
201.0840122144792019
 51
241.4464821965675867
  0
ARC
  5
4C78
  8
0
 10
-10.4169912448506707
 20
-5.1209716270513832
 30
0.0
 40
0.0141380616461162
 50
142.2432570289163039
 51
201.0840122144786051
  0
ARC
  5
4C79
  8
0
 10
-10.4201585541225796
 20
-5.1129527426565158
 30
0.0
 40
0.0383798599857378
 50
191.1660939523314937
 51
237.0857252520384861
  0
ARC
  5
4C7A
  8
0
 10
-10.4048180104317503
 20
-5.0897485302268644
 30
0.0
 40
0.0661957850697034
 50
236.8525800400466039
 51
270.5612916271606991
  0
ARC
  5
4C7B
  8
0
 10
-10.4048751710609402
 20
-5.0839138484327444
 30
0.0
 40
0.0720307468498838
 50
270.5612916271604149
 51
298.4556179892563819
  0
ARC
  5
4C7C
  8
0
 10
-10.3899057022783197
 20
-5.1115351819622932
 30
0.0
 40
0.0406138236780565
 50
298.4556179892567229
 51
332.9437741911260105
  0
ARC
  5
4C7D
  8
0
 10
-10.3806048351566709
 20
-5.1162857129592982
 30
0.0
 40
0.0301699894219883
 50
332.9437741911266926
 51
19.715712542526969
  0
ARC
  5
4C7E
  8
0
 10
-10.3814807187813205
 20
-5.1165995957192516
 30
0.0
 40
0.0311004164803505
 50
19.7157125425269193
 51
54.8331801483434305
  0
ARC
  5
4C7F
  8
0
 10
-10.4047148177357194
 20
-5.1495765573050232
 30
0.0
 40
0.0714402646413492
 50
54.8331801483434305
 51
104.294939247249701
  0
ARC
  5
4C80
  8
0
 10
-10.4108719980651205
 20
-5.132070667509141
 30
0.0
 40
0.0529816253121694
 50
102.5166793028133014
 51
141.0664828003309026
  0
ARC
  5
4C81
  8
0
 10
-10.4288372929273603
 20
-5.116500496149925
 30
0.0
 40
0.029233837479575
 50
142.6776240063616967
 51
187.6361680069657893
  0
ARC
  5
4C82
  8
0
 10
-10.4260079999207704
 20
-5.0782300751330771
 30
0.0
 40
0.0528902266416446
 50
207.4387534367899946
 51
233.0688354146961103
  0
ARC
  5
4C83
  8
0
 10
-10.4406251787600208
 20
-5.0858194485064159
 30
0.0
 40
0.0364202386204419
 50
164.4484521359381972
 51
207.4387534367903925
  0
ARC
  5
4C84
  8
0
 10
-10.4335476136372698
 20
-5.0877890900045424
 30
0.0
 40
0.0437667626759333
 50
137.0346300022756054
 51
164.448452135937913
  0
ARC
  5
4C85
  8
0
 10
-10.4095761735091106
 20
-5.1135703127977861
 30
0.0
 40
0.0789200915161391
 50
96.4644944651972338
 51
135.1990434438525881
  0
ARC
  5
4C86
  8
0
 10
-10.4041584700652905
 20
-5.1307344484851329
 30
0.0
 40
0.0966466853071577
 50
61.6197181887614533
 51
98.5106869862444512
  0
ARC
  5
4C87
  8
0
 10
-10.3889376804230107
 20
-5.1002823513297466
 30
0.0
 40
0.0626291568741701
 50
40.9102408543890874
 51
60.628804821972011
  0
ARC
  5
4C88
  8
0
 10
-10.3740030170915194
 20
-5.0872591079976122
 30
0.0
 40
0.042813924073279
 50
8.5372227153911826
 51
40.8275525468781382
  0
ARC
  5
4C89
  8
0
 10
-10.37016200027632
 20
-5.0855447776360094
 30
0.0
 40
0.038777297864841
 50
324.0143525887010014
 51
6.8745443542275169
  0
ARC
  5
4C8A
  8
0
 10
-10.3827936745012792
 20
-5.0775083250268089
 30
0.0
 40
0.0537283420409773
 50
306.6125708400751932
 51
324.9947844543247015
  0
LINE
  5
4C8B
  8
0
 10
-10.4697806649850005
 20
-5.0632392324659738
 30
0.0
 11
-10.4578153338480995
 21
-5.1203593040200168
 31
0.0
  0
LINE
  5
4C8C
  8
0
 10
-10.3505627027587295
 20
-5.1190603377461272
 30
0.0
 11
-10.3385317615450205
 21
-5.063283659628345
 31
0.0
  0
ARC
  5
4C8D
  8
0
 10
-9.3633092280730281
 20
-5.1285820746972419
 30
0.0
 40
0.0262174629962694
 50
97.8569376147588628
 51
141.649035104387309
  0
ARC
  5
4C8E
  8
0
 10
-9.3599049142082347
 20
-5.137732693690281
 30
0.0
 40
0.0358104449869578
 50
60.7874222569299505
 51
101.2532159677120944
  0
ARC
  5
4C8F
  8
0
 10
-9.3498241698143723
 20
-5.1217662790337419
 30
0.0
 40
0.0169846297549829
 50
15.5783125429725207
 51
64.1837006098832887
  0
ARC
  5
4C90
  8
0
 10
-9.3472393537876162
 20
-5.1210456399898892
 30
0.0
 40
0.0143012374013211
 50
327.7979882057106238
 51
15.5783125429716698
  0
ARC
  5
4C91
  8
0
 10
-9.3526928237210498
 20
-5.1176111392628671
 30
0.0
 40
0.0207460903522246
 50
294.5421888526400949
 51
327.7979882057106806
  0
ARC
  5
4C92
  8
0
 10
-9.3597424878993039
 20
-5.1021721992547029
 30
0.0
 40
0.0377183805218454
 50
241.4464821965669046
 51
294.5421888526399812
  0
ARC
  5
4C93
  8
0
 10
-9.3692504991677446
 20
-5.119644837841876
 30
0.0
 40
0.017826287181054
 50
201.0840122144792019
 51
241.4464821965675867
  0
ARC
  5
4C94
  8
0
 10
-9.3726918125783634
 20
-5.1209716270513832
 30
0.0
 40
0.0141380616461162
 50
142.2432570289163039
 51
201.0840122144786051
  0
ARC
  5
4C95
  8
0
 10
-9.3758591218502758
 20
-5.1129527426565158
 30
0.0
 40
0.0383798599857378
 50
191.1660939523314937
 51
237.0857252520384861
  0
ARC
  5
4C96
  8
0
 10
-9.3605185781594393
 20
-5.0897485302268644
 30
0.0
 40
0.0661957850697034
 50
236.8525800400466039
 51
270.5612916271606991
  0
ARC
  5
4C97
  8
0
 10
-9.3605757387886364
 20
-5.0839138484327444
 30
0.0
 40
0.0720307468498838
 50
270.5612916271604149
 51
298.4556179892563819
  0
ARC
  5
4C98
  8
0
 10
-9.3456062700060123
 20
-5.1115351819622932
 30
0.0
 40
0.0406138236780565
 50
298.4556179892567229
 51
332.9437741911260105
  0
ARC
  5
4C99
  8
0
 10
-9.3363054028843564
 20
-5.1162857129592982
 30
0.0
 40
0.0301699894219883
 50
332.9437741911266926
 51
19.715712542526969
  0
ARC
  5
4C9A
  8
0
 10
-9.3371812865090096
 20
-5.1165995957192516
 30
0.0
 40
0.0311004164803505
 50
19.7157125425268589
 51
54.8331801483434305
  0
ARC
  5
4C9B
  8
0
 10
-9.3604153854634138
 20
-5.1495765573050232
 30
0.0
 40
0.0714402646413492
 50
54.8331801483434305
 51
104.2949392472498005
  0
ARC
  5
4C9C
  8
0
 10
-9.3665725657928096
 20
-5.132070667509141
 30
0.0
 40
0.0529816253121694
 50
102.5166793028133014
 51
141.0664828003309026
  0
ARC
  5
4C9D
  8
0
 10
-9.3845378606550547
 20
-5.116500496149925
 30
0.0
 40
0.029233837479575
 50
142.6776240063616967
 51
187.636168006965903
  0
ARC
  5
4C9E
  8
0
 10
-9.3817085676484595
 20
-5.0782300751330771
 30
0.0
 40
0.0528902266416446
 50
207.4387534367899946
 51
233.0688354146961103
  0
ARC
  5
4C9F
  8
0
 10
-9.3963257464877081
 20
-5.0858194485064159
 30
0.0
 40
0.0364202386204419
 50
164.4484521359381972
 51
207.4387534367903925
  0
ARC
  5
4CA0
  8
0
 10
-9.3892481813649589
 20
-5.0877890900045424
 30
0.0
 40
0.0437667626759333
 50
137.0346300022756054
 51
164.448452135937913
  0
ARC
  5
4CA1
  8
0
 10
-9.3652767412368032
 20
-5.1135703127977861
 30
0.0
 40
0.0789200915161391
 50
96.4644944651972338
 51
135.1990434438525881
  0
ARC
  5
4CA2
  8
0
 10
-9.3598590377929831
 20
-5.1307344484851329
 30
0.0
 40
0.0966466853071577
 50
61.6197181887614533
 51
98.5106869862444512
  0
ARC
  5
4CA3
  8
0
 10
-9.3446382481506998
 20
-5.1002823513297466
 30
0.0
 40
0.0626291568741701
 50
40.9102408543890874
 51
60.628804821972011
  0
ARC
  5
4CA4
  8
0
 10
-9.329703584819212
 20
-5.0872591079976122
 30
0.0
 40
0.042813924073279
 50
8.5372227153911826
 51
40.8275525468781382
  0
ARC
  5
4CA5
  8
0
 10
-9.3258625680040108
 20
-5.0855447776360094
 30
0.0
 40
0.038777297864841
 50
324.0143525887010014
 51
6.8745443542275169
  0
ARC
  5
4CA6
  8
0
 10
-9.3384942422289718
 20
-5.0775083250268089
 30
0.0
 40
0.0537283420409773
 50
306.6125708400751932
 51
324.9947844543247015
  0
LINE
  5
4CA7
  8
0
 10
-9.4254812327126931
 20
-5.0632392324659738
 30
0.0
 11
-9.4135159015757921
 21
-5.1203593040200168
 31
0.0
  0
LINE
  5
4CA8
  8
0
 10
-9.3062632704864185
 20
-5.1190603377461272
 30
0.0
 11
-9.2942323292727114
 21
-5.063283659628345
 31
0.0
  0
ARC
  5
4CA9
  8
0
 10
-8.3226511478959182
 20
-5.1285820746972419
 30
0.0
 40
0.0262174629962694
 50
97.8569376147588628
 51
141.649035104387309
  0
ARC
  5
4CAA
  8
0
 10
-8.3192468340311247
 20
-5.137732693690281
 30
0.0
 40
0.0358104449869578
 50
60.7874222569299505
 51
101.2532159677120944
  0
ARC
  5
4CAB
  8
0
 10
-8.3091660896372623
 20
-5.1217662790337419
 30
0.0
 40
0.0169846297549829
 50
15.5783125429725207
 51
64.1837006098832887
  0
ARC
  5
4CAC
  8
0
 10
-8.306581273610508
 20
-5.1210456399898892
 30
0.0
 40
0.0143012374013211
 50
327.7979882057106238
 51
15.5783125429716698
  0
ARC
  5
4CAD
  8
0
 10
-8.3120347435439381
 20
-5.1176111392628671
 30
0.0
 40
0.0207460903522246
 50
294.5421888526400949
 51
327.7979882057106806
  0
ARC
  5
4CAE
  8
0
 10
-8.3190844077221922
 20
-5.1021721992547029
 30
0.0
 40
0.0377183805218454
 50
241.4464821965669046
 51
294.5421888526399812
  0
ARC
  5
4CAF
  8
0
 10
-8.3285924189906346
 20
-5.119644837841876
 30
0.0
 40
0.017826287181054
 50
201.0840122144792019
 51
241.4464821965675867
  0
ARC
  5
4CB0
  8
0
 10
-8.3320337324012534
 20
-5.1209716270513832
 30
0.0
 40
0.0141380616461162
 50
142.2432570289163039
 51
201.0840122144786051
  0
ARC
  5
4CB1
  8
0
 10
-8.3352010416731641
 20
-5.1129527426565158
 30
0.0
 40
0.0383798599857378
 50
191.1660939523314937
 51
237.0857252520384861
  0
ARC
  5
4CB2
  8
0
 10
-8.3198604979823294
 20
-5.0897485302268644
 30
0.0
 40
0.0661957850697034
 50
236.8525800400466039
 51
270.5612916271606991
  0
ARC
  5
4CB3
  8
0
 10
-8.3199176586115264
 20
-5.0839138484327444
 30
0.0
 40
0.0720307468498838
 50
270.5612916271604149
 51
298.4556179892563819
  0
ARC
  5
4CB4
  8
0
 10
-8.3049481898289024
 20
-5.1115351819622932
 30
0.0
 40
0.0406138236780565
 50
298.4556179892567229
 51
332.9437741911260105
  0
ARC
  5
4CB5
  8
0
 10
-8.2956473227072465
 20
-5.1162857129592982
 30
0.0
 40
0.0301699894219883
 50
332.9437741911266926
 51
19.715712542526969
  0
ARC
  5
4CB6
  8
0
 10
-8.2965232063318997
 20
-5.1165995957192516
 30
0.0
 40
0.0311004164803505
 50
19.7157125425268589
 51
54.8331801483434305
  0
ARC
  5
4CB7
  8
0
 10
-8.3197573052863039
 20
-5.1495765573050232
 30
0.0
 40
0.0714402646413492
 50
54.8331801483434305
 51
104.2949392472498005
  0
ARC
  5
4CB8
  8
0
 10
-8.3259144856156997
 20
-5.132070667509141
 30
0.0
 40
0.0529816253121694
 50
102.5166793028133014
 51
141.0664828003309026
  0
ARC
  5
4CB9
  8
0
 10
-8.3438797804779448
 20
-5.116500496149925
 30
0.0
 40
0.029233837479575
 50
142.6776240063616967
 51
187.636168006965903
  0
ARC
  5
4CBA
  8
0
 10
-8.3410504874713496
 20
-5.0782300751330771
 30
0.0
 40
0.0528902266416446
 50
207.4387534367899946
 51
233.0688354146961103
  0
ARC
  5
4CBB
  8
0
 10
-8.3556676663105982
 20
-5.0858194485064159
 30
0.0
 40
0.0364202386204419
 50
164.4484521359381972
 51
207.4387534367903925
  0
ARC
  5
4CBC
  8
0
 10
-8.3485901011878472
 20
-5.0877890900045424
 30
0.0
 40
0.0437667626759333
 50
137.0346300022756054
 51
164.448452135937913
  0
ARC
  5
4CBD
  8
0
 10
-8.3246186610596951
 20
-5.1135703127977861
 30
0.0
 40
0.0789200915161391
 50
96.4644944651972338
 51
135.1990434438525881
  0
ARC
  5
4CBE
  8
0
 10
-8.3192009576158732
 20
-5.1307344484851329
 30
0.0
 40
0.0966466853071577
 50
61.6197181887614533
 51
98.5106869862444512
  0
ARC
  5
4CBF
  8
0
 10
-8.3039801679735898
 20
-5.1002823513297466
 30
0.0
 40
0.0626291568741701
 50
40.9102408543890306
 51
60.6288048219719471
  0
ARC
  5
4CC0
  8
0
 10
-8.2890455046421021
 20
-5.0872591079976122
 30
0.0
 40
0.042813924073279
 50
8.5372227153911826
 51
40.8275525468781382
  0
ARC
  5
4CC1
  8
0
 10
-8.2852044878269009
 20
-5.0855447776360094
 30
0.0
 40
0.038777297864841
 50
324.0143525887010014
 51
6.8745443542275169
  0
ARC
  5
4CC2
  8
0
 10
-8.2978361620518601
 20
-5.0775083250268089
 30
0.0
 40
0.0537283420409773
 50
306.6125708400751932
 51
324.9947844543247015
  0
LINE
  5
4CC3
  8
0
 10
-8.3848231525355832
 20
-5.0632392324659738
 30
0.0
 11
-8.3728578213986822
 21
-5.1203593040200168
 31
0.0
  0
LINE
  5
4CC4
  8
0
 10
-8.2656051903093086
 20
-5.1190603377461272
 30
0.0
 11
-8.2535742490956014
 21
-5.063283659628345
 31
0.0
  0
ARC
  5
4CC5
  8
0
 10
-7.276439025436054
 20
-5.1285820746972419
 30
0.0
 40
0.0262174629962694
 50
97.8569376147588628
 51
141.649035104387309
  0
ARC
  5
4CC6
  8
0
 10
-7.2730347115712606
 20
-5.137732693690281
 30
0.0
 40
0.0358104449869578
 50
60.7874222569299505
 51
101.2532159677120944
  0
ARC
  5
4CC7
  8
0
 10
-7.2629539671773991
 20
-5.1217662790337419
 30
0.0
 40
0.0169846297549829
 50
15.5783125429725207
 51
64.1837006098832887
  0
ARC
  5
4CC8
  8
0
 10
-7.2603691511506439
 20
-5.1210456399898892
 30
0.0
 40
0.0143012374013211
 50
327.7979882057106238
 51
15.5783125429716698
  0
ARC
  5
4CC9
  8
0
 10
-7.2658226210840766
 20
-5.1176111392628671
 30
0.0
 40
0.0207460903522246
 50
294.5421888526400949
 51
327.7979882057106806
  0
ARC
  5
4CCA
  8
0
 10
-7.2728722852623298
 20
-5.1021721992547029
 30
0.0
 40
0.0377183805218454
 50
241.4464821965669046
 51
294.5421888526399812
  0
ARC
  5
4CCB
  8
0
 10
-7.2823802965307696
 20
-5.119644837841876
 30
0.0
 40
0.017826287181054
 50
201.0840122144792019
 51
241.4464821965675867
  0
ARC
  5
4CCC
  8
0
 10
-7.2858216099413893
 20
-5.1209716270513832
 30
0.0
 40
0.0141380616461162
 50
142.2432570289163039
 51
201.0840122144786051
  0
ARC
  5
4CCD
  8
0
 10
-7.2889889192133008
 20
-5.1129527426565158
 30
0.0
 40
0.0383798599857378
 50
191.1660939523314937
 51
237.0857252520384861
  0
ARC
  5
4CCE
  8
0
 10
-7.273648375522467
 20
-5.0897485302268644
 30
0.0
 40
0.0661957850697034
 50
236.8525800400466039
 51
270.5612916271606991
  0
ARC
  5
4CCF
  8
0
 10
-7.2737055361516632
 20
-5.0839138484327444
 30
0.0
 40
0.0720307468498838
 50
270.5612916271604149
 51
298.4556179892563819
  0
ARC
  5
4CD0
  8
0
 10
-7.2587360673690391
 20
-5.1115351819622932
 30
0.0
 40
0.0406138236780565
 50
298.4556179892567229
 51
332.9437741911260105
  0
ARC
  5
4CD1
  8
0
 10
-7.2494352002473832
 20
-5.1162857129592982
 30
0.0
 40
0.0301699894219883
 50
332.9437741911266926
 51
19.715712542526969
  0
ARC
  5
4CD2
  8
0
 10
-7.2503110838720364
 20
-5.1165995957192516
 30
0.0
 40
0.0311004164803505
 50
19.7157125425268589
 51
54.8331801483434305
  0
ARC
  5
4CD3
  8
0
 10
-7.2735451828264397
 20
-5.1495765573050232
 30
0.0
 40
0.0714402646413492
 50
54.8331801483434305
 51
104.294939247249701
  0
ARC
  5
4CD4
  8
0
 10
-7.2797023631558364
 20
-5.132070667509141
 30
0.0
 40
0.0529816253121694
 50
102.5166793028133014
 51
141.0664828003309026
  0
ARC
  5
4CD5
  8
0
 10
-7.2976676580180806
 20
-5.116500496149925
 30
0.0
 40
0.029233837479575
 50
142.6776240063616967
 51
187.636168006965903
  0
ARC
  5
4CD6
  8
0
 10
-7.2948383650114872
 20
-5.0782300751330771
 30
0.0
 40
0.0528902266416446
 50
207.4387534367899946
 51
233.0688354146961103
  0
ARC
  5
4CD7
  8
0
 10
-7.3094555438507358
 20
-5.0858194485064159
 30
0.0
 40
0.0364202386204419
 50
164.4484521359381972
 51
207.4387534367903925
  0
ARC
  5
4CD8
  8
0
 10
-7.3023779787279848
 20
-5.0877890900045424
 30
0.0
 40
0.0437667626759333
 50
137.0346300022756054
 51
164.448452135937913
  0
ARC
  5
4CD9
  8
0
 10
-7.2784065385998318
 20
-5.1135703127977861
 30
0.0
 40
0.0789200915161391
 50
96.4644944651972338
 51
135.1990434438525881
  0
ARC
  5
4CDA
  8
0
 10
-7.2729888351560108
 20
-5.1307344484851329
 30
0.0
 40
0.0966466853071577
 50
61.6197181887614533
 51
98.5106869862444512
  0
ARC
  5
4CDB
  8
0
 10
-7.2577680455137257
 20
-5.1002823513297466
 30
0.0
 40
0.0626291568741701
 50
40.9102408543890306
 51
60.6288048219719471
  0
ARC
  5
4CDC
  8
0
 10
-7.2428333821822379
 20
-5.0872591079976122
 30
0.0
 40
0.042813924073279
 50
8.5372227153911826
 51
40.8275525468781382
  0
ARC
  5
4CDD
  8
0
 10
-7.2389923653670367
 20
-5.0855447776360094
 30
0.0
 40
0.038777297864841
 50
324.0143525887010014
 51
6.8745443542275169
  0
ARC
  5
4CDE
  8
0
 10
-7.2516240395919978
 20
-5.0775083250268089
 30
0.0
 40
0.0537283420409773
 50
306.6125708400751932
 51
324.9947844543247015
  0
LINE
  5
4CDF
  8
0
 10
-7.338611030075719
 20
-5.0632392324659738
 30
0.0
 11
-7.326645698938818
 21
-5.1203593040200168
 31
0.0
  0
LINE
  5
4CE0
  8
0
 10
-7.2193930678494453
 20
-5.1190603377461272
 30
0.0
 11
-7.2073621266357382
 21
-5.063283659628345
 31
0.0
  0
ARC
  5
4CE1
  8
0
 10
-6.2338759945785034
 20
-5.1285820746972419
 30
0.0
 40
0.0262174629962694
 50
97.8569376147588628
 51
141.649035104387309
  0
ARC
  5
4CE2
  8
0
 10
-6.2304716807137099
 20
-5.137732693690281
 30
0.0
 40
0.0358104449869578
 50
60.7874222569299505
 51
101.2532159677120944
  0
ARC
  5
4CE3
  8
0
 10
-6.2203909363198484
 20
-5.1217662790337419
 30
0.0
 40
0.0169846297549829
 50
15.5783125429725207
 51
64.1837006098832887
  0
ARC
  5
4CE4
  8
0
 10
-6.2178061202930941
 20
-5.1210456399898892
 30
0.0
 40
0.0143012374013211
 50
327.7979882057106238
 51
15.5783125429716698
  0
ARC
  5
4CE5
  8
0
 10
-6.223259590226526
 20
-5.1176111392628671
 30
0.0
 40
0.0207460903522246
 50
294.5421888526400949
 51
327.7979882057106806
  0
ARC
  5
4CE6
  8
0
 10
-6.23030925440478
 20
-5.1021721992547029
 30
0.0
 40
0.0377183805218454
 50
241.4464821965669046
 51
294.5421888526399812
  0
ARC
  5
4CE7
  8
0
 10
-6.2398172656732189
 20
-5.119644837841876
 30
0.0
 40
0.017826287181054
 50
201.0840122144792019
 51
241.4464821965675867
  0
ARC
  5
4CE8
  8
0
 10
-6.2432585790838377
 20
-5.1209716270513832
 30
0.0
 40
0.0141380616461162
 50
142.2432570289163039
 51
201.0840122144786051
  0
ARC
  5
4CE9
  8
0
 10
-6.2464258883557511
 20
-5.1129527426565158
 30
0.0
 40
0.0383798599857378
 50
191.1660939523314937
 51
237.0857252520384861
  0
ARC
  5
4CEA
  8
0
 10
-6.2310853446649164
 20
-5.0897485302268644
 30
0.0
 40
0.0661957850697034
 50
236.8525800400466039
 51
270.5612916271606991
  0
ARC
  5
4CEB
  8
0
 10
-6.2311425052941116
 20
-5.0839138484327444
 30
0.0
 40
0.0720307468498838
 50
270.5612916271604149
 51
298.4556179892563819
  0
ARC
  5
4CEC
  8
0
 10
-6.2161730365114893
 20
-5.1115351819622932
 30
0.0
 40
0.0406138236780565
 50
298.4556179892567229
 51
332.9437741911260105
  0
ARC
  5
4CED
  8
0
 10
-6.2068721693898317
 20
-5.1162857129592982
 30
0.0
 40
0.0301699894219883
 50
332.9437741911266926
 51
19.715712542526969
  0
ARC
  5
4CEE
  8
0
 10
-6.2077480530144848
 20
-5.1165995957192516
 30
0.0
 40
0.0311004164803505
 50
19.7157125425268589
 51
54.8331801483434305
  0
ARC
  5
4CEF
  8
0
 10
-6.230982151968889
 20
-5.1495765573050232
 30
0.0
 40
0.0714402646413492
 50
54.8331801483434305
 51
104.294939247249701
  0
ARC
  5
4CF0
  8
0
 10
-6.2371393322982849
 20
-5.132070667509141
 30
0.0
 40
0.0529816253121694
 50
102.5166793028133014
 51
141.0664828003309026
  0
ARC
  5
4CF1
  8
0
 10
-6.25510462716053
 20
-5.116500496149925
 30
0.0
 40
0.029233837479575
 50
142.6776240063616967
 51
187.636168006965903
  0
ARC
  5
4CF2
  8
0
 10
-6.2522753341539357
 20
-5.0782300751330771
 30
0.0
 40
0.0528902266416446
 50
207.4387534367899946
 51
233.0688354146961103
  0
ARC
  5
4CF3
  8
0
 10
-6.2668925129931861
 20
-5.0858194485064159
 30
0.0
 40
0.0364202386204419
 50
164.4484521359381972
 51
207.4387534367903925
  0
ARC
  5
4CF4
  8
0
 10
-6.259814947870435
 20
-5.0877890900045424
 30
0.0
 40
0.0437667626759333
 50
137.0346300022756054
 51
164.448452135937913
  0
ARC
  5
4CF5
  8
0
 10
-6.235843507742282
 20
-5.1135703127977861
 30
0.0
 40
0.0789200915161391
 50
96.4644944651972338
 51
135.1990434438525881
  0
ARC
  5
4CF6
  8
0
 10
-6.230425804298461
 20
-5.1307344484851329
 30
0.0
 40
0.0966466853071577
 50
61.6197181887614533
 51
98.5106869862444512
  0
ARC
  5
4CF7
  8
0
 10
-6.215205014656175
 20
-5.1002823513297466
 30
0.0
 40
0.0626291568741701
 50
40.9102408543890306
 51
60.6288048219719471
  0
ARC
  5
4CF8
  8
0
 10
-6.2002703513246882
 20
-5.0872591079976122
 30
0.0
 40
0.042813924073279
 50
8.5372227153911826
 51
40.8275525468781382
  0
ARC
  5
4CF9
  8
0
 10
-6.1964293345094861
 20
-5.0855447776360094
 30
0.0
 40
0.038777297864841
 50
324.0143525887010014
 51
6.8745443542275169
  0
ARC
  5
4CFA
  8
0
 10
-6.2090610087344471
 20
-5.0775083250268089
 30
0.0
 40
0.0537283420409773
 50
306.6125708400751932
 51
324.9947844543247015
  0
LINE
  5
4CFB
  8
0
 10
-6.2960479992181693
 20
-5.0632392324659738
 30
0.0
 11
-6.2840826680812674
 21
-5.1203593040200168
 31
0.0
  0
LINE
  5
4CFC
  8
0
 10
-6.1768300369918938
 20
-5.1190603377461272
 30
0.0
 11
-6.1647990957781866
 21
-5.063283659628345
 31
0.0
  0
ARC
  5
4CFD
  8
0
 10
-5.1914504689637146
 20
-5.1285820746972419
 30
0.0
 40
0.0262174629962694
 50
97.8569376147588628
 51
141.649035104387309
  0
ARC
  5
4CFE
  8
0
 10
-5.1880461550989221
 20
-5.137732693690281
 30
0.0
 40
0.0358104449869578
 50
60.7874222569299505
 51
101.2532159677120944
  0
ARC
  5
4CFF
  8
0
 10
-5.1779654107050588
 20
-5.1217662790337419
 30
0.0
 40
0.0169846297549829
 50
15.5783125429725207
 51
64.1837006098832887
  0
ARC
  5
4D00
  8
0
 10
-5.1753805946783054
 20
-5.1210456399898892
 30
0.0
 40
0.0143012374013211
 50
327.7979882057106238
 51
15.5783125429716698
  0
ARC
  5
4D01
  8
0
 10
-5.1808340646117372
 20
-5.1176111392628671
 30
0.0
 40
0.0207460903522246
 50
294.5421888526400949
 51
327.7979882057106806
  0
ARC
  5
4D02
  8
0
 10
-5.1878837287899913
 20
-5.1021721992547029
 30
0.0
 40
0.0377183805218454
 50
241.4464821965669046
 51
294.5421888526399812
  0
ARC
  5
4D03
  8
0
 10
-5.1973917400584311
 20
-5.119644837841876
 30
0.0
 40
0.017826287181054
 50
201.0840122144792019
 51
241.4464821965675867
  0
ARC
  5
4D04
  8
0
 10
-5.2008330534690499
 20
-5.1209716270513832
 30
0.0
 40
0.0141380616461162
 50
142.2432570289163039
 51
201.0840122144786051
  0
ARC
  5
4D05
  8
0
 10
-5.2040003627409632
 20
-5.1129527426565158
 30
0.0
 40
0.0383798599857378
 50
191.1660939523314937
 51
237.0857252520384861
  0
ARC
  5
4D06
  8
0
 10
-5.1886598190501259
 20
-5.0897485302268644
 30
0.0
 40
0.0661957850697034
 50
236.8525800400466039
 51
270.5612916271606991
  0
ARC
  5
4D07
  8
0
 10
-5.1887169796793229
 20
-5.0839138484327444
 30
0.0
 40
0.0720307468498838
 50
270.5612916271604149
 51
298.4556179892563819
  0
ARC
  5
4D08
  8
0
 10
-5.1737475108966988
 20
-5.1115351819622932
 30
0.0
 40
0.0406138236780565
 50
298.4556179892567229
 51
332.9437741911260105
  0
ARC
  5
4D09
  8
0
 10
-5.1644466437750429
 20
-5.1162857129592982
 30
0.0
 40
0.0301699894219883
 50
332.9437741911266926
 51
19.7157125425269193
  0
ARC
  5
4D0A
  8
0
 10
-5.1653225273996961
 20
-5.1165995957192516
 30
0.0
 40
0.0311004164803505
 50
19.7157125425268589
 51
54.8331801483434305
  0
ARC
  5
4D0B
  8
0
 10
-5.1885566263541012
 20
-5.1495765573050232
 30
0.0
 40
0.0714402646413492
 50
54.8331801483434305
 51
104.294939247249701
  0
ARC
  5
4D0C
  8
0
 10
-5.194713806683497
 20
-5.132070667509141
 30
0.0
 40
0.0529816253121694
 50
102.5166793028133014
 51
141.0664828003309026
  0
ARC
  5
4D0D
  8
0
 10
-5.2126791015457421
 20
-5.116500496149925
 30
0.0
 40
0.029233837479575
 50
142.6776240063616967
 51
187.636168006965903
  0
ARC
  5
4D0E
  8
0
 10
-5.209849808539146
 20
-5.0782300751330771
 30
0.0
 40
0.0528902266416446
 50
207.4387534367899946
 51
233.0688354146961103
  0
ARC
  5
4D0F
  8
0
 10
-5.2244669873783973
 20
-5.0858194485064159
 30
0.0
 40
0.0364202386204419
 50
164.4484521359381972
 51
207.4387534367903925
  0
ARC
  5
4D10
  8
0
 10
-5.2173894222556463
 20
-5.0877890900045424
 30
0.0
 40
0.0437667626759333
 50
137.0346300022756054
 51
164.448452135937913
  0
ARC
  5
4D11
  8
0
 10
-5.1934179821274924
 20
-5.1135703127977861
 30
0.0
 40
0.0789200915161391
 50
96.4644944651972338
 51
135.1990434438525881
  0
ARC
  5
4D12
  8
0
 10
-5.1880002786836723
 20
-5.1307344484851329
 30
0.0
 40
0.0966466853071577
 50
61.6197181887614533
 51
98.5106869862444512
  0
ARC
  5
4D13
  8
0
 10
-5.1727794890413872
 20
-5.1002823513297466
 30
0.0
 40
0.0626291568741701
 50
40.9102408543890306
 51
60.6288048219719471
  0
ARC
  5
4D14
  8
0
 10
-5.1578448257098994
 20
-5.0872591079976122
 30
0.0
 40
0.042813924073279
 50
8.5372227153911826
 51
40.8275525468781382
  0
ARC
  5
4D15
  8
0
 10
-5.1540038088946982
 20
-5.0855447776360094
 30
0.0
 40
0.038777297864841
 50
324.0143525887010014
 51
6.8745443542275169
  0
ARC
  5
4D16
  8
0
 10
-5.1666354831196593
 20
-5.0775083250268089
 30
0.0
 40
0.0537283420409773
 50
306.6125708400751932
 51
324.9947844543247015
  0
LINE
  5
4D17
  8
0
 10
-5.2536224736033796
 20
-5.0632392324659738
 30
0.0
 11
-5.2416571424664786
 21
-5.1203593040200168
 31
0.0
  0
LINE
  5
4D18
  8
0
 10
-5.1344045113771051
 20
-5.1190603377461272
 30
0.0
 11
-5.1223735701633979
 21
-5.063283659628345
 31
0.0
  0
ARC
  5
4D19
  8
0
 10
-4.1490645868241884
 20
-5.1285820746972419
 30
0.0
 40
0.0262174629962694
 50
97.8569376147588628
 51
141.649035104387309
  0
ARC
  5
4D1A
  8
0
 10
-4.1456602729593941
 20
-5.137732693690281
 30
0.0
 40
0.0358104449869578
 50
60.7874222569300073
 51
101.2532159677120944
  0
ARC
  5
4D1B
  8
0
 10
-4.1355795285655317
 20
-5.1217662790337419
 30
0.0
 40
0.0169846297549829
 50
15.5783125429725207
 51
64.1837006098832177
  0
ARC
  5
4D1C
  8
0
 10
-4.1329947125387783
 20
-5.1210456399898892
 30
0.0
 40
0.0143012374013211
 50
327.7979882057106238
 51
15.5783125429716698
  0
ARC
  5
4D1D
  8
0
 10
-4.1384481824722101
 20
-5.1176111392628671
 30
0.0
 40
0.0207460903522246
 50
294.5421888526400949
 51
327.7979882057106806
  0
ARC
  5
4D1E
  8
0
 10
-4.1454978466504642
 20
-5.1021721992547029
 30
0.0
 40
0.0377183805218454
 50
241.4464821965669046
 51
294.5421888526399812
  0
ARC
  5
4D1F
  8
0
 10
-4.155005857918904
 20
-5.119644837841876
 30
0.0
 40
0.017826287181054
 50
201.0840122144792019
 51
241.4464821965675867
  0
ARC
  5
4D20
  8
0
 10
-4.1584471713295228
 20
-5.1209716270513832
 30
0.0
 40
0.0141380616461162
 50
142.2432570289163039
 51
201.0840122144786051
  0
ARC
  5
4D21
  8
0
 10
-4.1616144806014361
 20
-5.1129527426565158
 30
0.0
 40
0.0383798599857378
 50
191.1660939523314937
 51
237.0857252520384861
  0
ARC
  5
4D22
  8
0
 10
-4.1462739369105988
 20
-5.0897485302268644
 30
0.0
 40
0.0661957850697034
 50
236.8525800400466039
 51
270.5612916271606991
  0
ARC
  5
4D23
  8
0
 10
-4.1463310975397958
 20
-5.0839138484327444
 30
0.0
 40
0.0720307468498838
 50
270.5612916271604149
 51
298.4556179892563819
  0
ARC
  5
4D24
  8
0
 10
-4.1313616287571717
 20
-5.1115351819622932
 30
0.0
 40
0.0406138236780565
 50
298.4556179892566092
 51
332.9437741911260105
  0
ARC
  5
4D25
  8
0
 10
-4.1220607616355158
 20
-5.1162857129592982
 30
0.0
 40
0.0301699894219883
 50
332.9437741911266926
 51
19.7157125425269193
  0
ARC
  5
4D26
  8
0
 10
-4.122936645260169
 20
-5.1165995957192516
 30
0.0
 40
0.0311004164803505
 50
19.7157125425268589
 51
54.8331801483434305
  0
ARC
  5
4D27
  8
0
 10
-4.1461707442145741
 20
-5.1495765573050232
 30
0.0
 40
0.0714402646413492
 50
54.8331801483434305
 51
104.294939247249701
  0
ARC
  5
4D28
  8
0
 10
-4.152327924543969
 20
-5.132070667509141
 30
0.0
 40
0.0529816253121694
 50
102.516679302813202
 51
141.0664828003309026
  0
ARC
  5
4D29
  8
0
 10
-4.170293219406215
 20
-5.116500496149925
 30
0.0
 40
0.029233837479575
 50
142.6776240063616967
 51
187.636168006965903
  0
ARC
  5
4D2A
  8
0
 10
-4.1674639263996189
 20
-5.0782300751330771
 30
0.0
 40
0.0528902266416446
 50
207.4387534367899946
 51
233.0688354146961103
  0
ARC
  5
4D2B
  8
0
 10
-4.1820811052388702
 20
-5.0858194485064159
 30
0.0
 40
0.0364202386204419
 50
164.4484521359381972
 51
207.4387534367903925
  0
ARC
  5
4D2C
  8
0
 10
-4.1750035401161192
 20
-5.0877890900045424
 30
0.0
 40
0.0437667626759333
 50
137.0346300022756054
 51
164.448452135937913
  0
ARC
  5
4D2D
  8
0
 10
-4.1510320999879653
 20
-5.1135703127977861
 30
0.0
 40
0.0789200915161391
 50
96.4644944651972338
 51
135.1990434438525881
  0
ARC
  5
4D2E
  8
0
 10
-4.1456143965441452
 20
-5.1307344484851329
 30
0.0
 40
0.0966466853071577
 50
61.6197181887615102
 51
98.5106869862444512
  0
ARC
  5
4D2F
  8
0
 10
-4.1303936069018601
 20
-5.1002823513297466
 30
0.0
 40
0.0626291568741701
 50
40.9102408543890306
 51
60.6288048219719471
  0
ARC
  5
4D30
  8
0
 10
-4.1154589435703723
 20
-5.0872591079976122
 30
0.0
 40
0.042813924073279
 50
8.5372227153911826
 51
40.8275525468781382
  0
ARC
  5
4D31
  8
0
 10
-4.1116179267551711
 20
-5.0855447776360094
 30
0.0
 40
0.038777297864841
 50
324.0143525887010014
 51
6.8745443542275169
  0
ARC
  5
4D32
  8
0
 10
-4.1242496009801322
 20
-5.0775083250268089
 30
0.0
 40
0.0537283420409773
 50
306.6125708400751932
 51
324.9947844543247015
  0
LINE
  5
4D33
  8
0
 10
-4.2112365914638534
 20
-5.0632392324659738
 30
0.0
 11
-4.1992712603269524
 21
-5.1203593040200168
 31
0.0
  0
LINE
  5
4D34
  8
0
 10
-4.092018629237578
 20
-5.1190603377461272
 30
0.0
 11
-4.0799876880238708
 21
-5.063283659628345
 31
0.0
  0
ARC
  5
4D35
  8
0
 10
-12.4953390661990102
 20
-5.8658673221155979
 30
0.0
 40
0.0262174629962694
 50
97.8569376147588628
 51
141.649035104387309
  0
ARC
  5
4D36
  8
0
 10
-12.4919347523342203
 20
-5.875017941108637
 30
0.0
 40
0.0358104449869578
 50
60.7874222569299505
 51
101.2532159677120944
  0
ARC
  5
4D37
  8
0
 10
-12.4818540079403597
 20
-5.8590515264520979
 30
0.0
 40
0.0169846297549829
 50
15.5783125429725207
 51
64.1837006098832887
  0
ARC
  5
4D38
  8
0
 10
-12.4792691919136001
 20
-5.8583308874082451
 30
0.0
 40
0.0143012374013211
 50
327.7979882057106238
 51
15.5783125429716698
  0
ARC
  5
4D39
  8
0
 10
-12.4847226618470408
 20
-5.8548963866812231
 30
0.0
 40
0.0207460903522246
 50
294.5421888526400949
 51
327.7979882057106806
  0
ARC
  5
4D3A
  8
0
 10
-12.4917723260252895
 20
-5.8394574466730589
 30
0.0
 40
0.0377183805218454
 50
241.4464821965669046
 51
294.5421888526399812
  0
ARC
  5
4D3B
  8
0
 10
-12.5012803372937302
 20
-5.856930085260232
 30
0.0
 40
0.017826287181054
 50
201.0840122144792019
 51
241.4464821965675867
  0
ARC
  5
4D3C
  8
0
 10
-12.5047216507043508
 20
-5.8582568744697392
 30
0.0
 40
0.0141380616461162
 50
142.2432570289163039
 51
201.0840122144786903
  0
ARC
  5
4D3D
  8
0
 10
-12.5078889599762597
 20
-5.8502379900748718
 30
0.0
 40
0.0383798599857378
 50
191.1660939523314937
 51
237.0857252520384861
  0
ARC
  5
4D3E
  8
0
 10
-12.4925484162854197
 20
-5.8270337776452203
 30
0.0
 40
0.0661957850697034
 50
236.8525800400466039
 51
270.5612916271606991
  0
ARC
  5
4D3F
  8
0
 10
-12.4926055769146203
 20
-5.8211990958511004
 30
0.0
 40
0.0720307468498838
 50
270.5612916271604149
 51
298.4556179892563819
  0
ARC
  5
4D40
  8
0
 10
-12.4776361081319997
 20
-5.8488204293806492
 30
0.0
 40
0.0406138236780565
 50
298.4556179892567229
 51
332.9437741911260105
  0
ARC
  5
4D41
  8
0
 10
-12.4683352410103403
 20
-5.8535709603776542
 30
0.0
 40
0.0301699894219883
 50
332.9437741911266926
 51
19.7157125425269193
  0
ARC
  5
4D42
  8
0
 10
-12.4692111246350006
 20
-5.8538848431376076
 30
0.0
 40
0.0311004164803505
 50
19.7157125425269193
 51
54.8331801483434305
  0
ARC
  5
4D43
  8
0
 10
-12.4924452235893995
 20
-5.8868618047233792
 30
0.0
 40
0.0714402646413492
 50
54.8331801483434305
 51
104.294939247249701
  0
ARC
  5
4D44
  8
0
 10
-12.49860240391879
 20
-5.869355914927497
 30
0.0
 40
0.0529816253121694
 50
102.5166793028133014
 51
141.0664828003309026
  0
ARC
  5
4D45
  8
0
 10
-12.5165676987810404
 20
-5.853785743568281
 30
0.0
 40
0.029233837479575
 50
142.6776240063616967
 51
187.636168006965903
  0
ARC
  5
4D46
  8
0
 10
-12.5137384057744505
 20
-5.8155153225514331
 30
0.0
 40
0.0528902266416446
 50
207.4387534367899946
 51
233.0688354146961103
  0
ARC
  5
4D47
  8
0
 10
-12.5283555846136903
 20
-5.8231046959247719
 30
0.0
 40
0.0364202386204419
 50
164.4484521359381972
 51
207.4387534367903925
  0
ARC
  5
4D48
  8
0
 10
-12.5212780194909392
 20
-5.8250743374228984
 30
0.0
 40
0.0437667626759333
 50
137.0346300022756054
 51
164.448452135937913
  0
ARC
  5
4D49
  8
0
 10
-12.4973065793627907
 20
-5.8508555602161421
 30
0.0
 40
0.0789200915161391
 50
96.4644944651972338
 51
135.1990434438525881
  0
ARC
  5
4D4A
  8
0
 10
-12.4918888759189706
 20
-5.8680196959034889
 30
0.0
 40
0.0966466853071577
 50
61.6197181887614533
 51
98.5106869862444512
  0
ARC
  5
4D4B
  8
0
 10
-12.4766680862766801
 20
-5.8375675987481026
 30
0.0
 40
0.0626291568741701
 50
40.9102408543890874
 51
60.6288048219719471
  0
ARC
  5
4D4C
  8
0
 10
-12.4617334229451995
 20
-5.8245443554159682
 30
0.0
 40
0.042813924073279
 50
8.5372227153911826
 51
40.8275525468781382
  0
ARC
  5
4D4D
  8
0
 10
-12.45789240613
 20
-5.8228300250543654
 30
0.0
 40
0.038777297864841
 50
324.0143525887010014
 51
6.8745443542275169
  0
ARC
  5
4D4E
  8
0
 10
-12.4705240803549593
 20
-5.8147935724451649
 30
0.0
 40
0.0537283420409773
 50
306.6125708400750796
 51
324.9947844543247015
  0
LINE
  5
4D4F
  8
0
 10
-12.5575110708386806
 20
-5.8005244798843298
 30
0.0
 11
-12.5455457397017796
 21
-5.8576445514383728
 31
0.0
  0
LINE
  5
4D50
  8
0
 10
-12.4382931086124007
 20
-5.8563455851644832
 30
0.0
 11
-12.4262621673987006
 21
-5.800568907046701
 31
0.0
  0
ARC
  5
4D51
  8
0
 10
-11.4462273804020693
 20
-5.8658673221155979
 30
0.0
 40
0.0262174629962694
 50
97.8569376147588628
 51
141.649035104387309
  0
ARC
  5
4D52
  8
0
 10
-11.4428230665372705
 20
-5.875017941108637
 30
0.0
 40
0.0358104449869578
 50
60.7874222569299505
 51
101.2532159677120944
  0
ARC
  5
4D53
  8
0
 10
-11.4327423221434099
 20
-5.8590515264520979
 30
0.0
 40
0.0169846297549829
 50
15.5783125429725207
 51
64.1837006098832887
  0
ARC
  5
4D54
  8
0
 10
-11.4301575061166591
 20
-5.8583308874082451
 30
0.0
 40
0.0143012374013211
 50
327.7979882057106238
 51
15.5783125429716698
  0
ARC
  5
4D55
  8
0
 10
-11.4356109760500892
 20
-5.8548963866812231
 30
0.0
 40
0.0207460903522246
 50
294.5421888526400949
 51
327.7979882057106806
  0
ARC
  5
4D56
  8
0
 10
-11.4426606402283504
 20
-5.8394574466730589
 30
0.0
 40
0.0377183805218454
 50
241.4464821965669046
 51
294.5421888526399812
  0
ARC
  5
4D57
  8
0
 10
-11.4521686514967893
 20
-5.856930085260232
 30
0.0
 40
0.017826287181054
 50
201.0840122144792019
 51
241.4464821965675867
  0
ARC
  5
4D58
  8
0
 10
-11.4556099649073992
 20
-5.8582568744697392
 30
0.0
 40
0.0141380616461162
 50
142.2432570289163039
 51
201.0840122144786051
  0
ARC
  5
4D59
  8
0
 10
-11.4587772741793206
 20
-5.8502379900748718
 30
0.0
 40
0.0383798599857378
 50
191.1660939523314937
 51
237.0857252520384861
  0
ARC
  5
4D5A
  8
0
 10
-11.4434367304884805
 20
-5.8270337776452203
 30
0.0
 40
0.0661957850697034
 50
236.8525800400466039
 51
270.5612916271606991
  0
ARC
  5
4D5B
  8
0
 10
-11.4434938911176793
 20
-5.8211990958511004
 30
0.0
 40
0.0720307468498838
 50
270.5612916271604149
 51
298.4556179892563819
  0
ARC
  5
4D5C
  8
0
 10
-11.4285244223350499
 20
-5.8488204293806492
 30
0.0
 40
0.0406138236780565
 50
298.4556179892567229
 51
332.9437741911260105
  0
ARC
  5
4D5D
  8
0
 10
-11.4192235552133994
 20
-5.8535709603776542
 30
0.0
 40
0.0301699894219883
 50
332.9437741911266926
 51
19.715712542526969
  0
ARC
  5
4D5E
  8
0
 10
-11.4200994388380508
 20
-5.8538848431376076
 30
0.0
 40
0.0311004164803505
 50
19.7157125425269193
 51
54.8331801483434305
  0
ARC
  5
4D5F
  8
0
 10
-11.4433335377924497
 20
-5.8868618047233792
 30
0.0
 40
0.0714402646413492
 50
54.8331801483434305
 51
104.294939247249701
  0
ARC
  5
4D60
  8
0
 10
-11.4494907181218508
 20
-5.869355914927497
 30
0.0
 40
0.0529816253121694
 50
102.5166793028133014
 51
141.0664828003309026
  0
ARC
  5
4D61
  8
0
 10
-11.4674560129840994
 20
-5.853785743568281
 30
0.0
 40
0.029233837479575
 50
142.6776240063616967
 51
187.6361680069657893
  0
ARC
  5
4D62
  8
0
 10
-11.4646267199775007
 20
-5.8155153225514331
 30
0.0
 40
0.0528902266416446
 50
207.4387534367899946
 51
233.0688354146961103
  0
ARC
  5
4D63
  8
0
 10
-11.4792438988167493
 20
-5.8231046959247719
 30
0.0
 40
0.0364202386204419
 50
164.4484521359381972
 51
207.4387534367903925
  0
ARC
  5
4D64
  8
0
 10
-11.4721663336940001
 20
-5.8250743374228984
 30
0.0
 40
0.0437667626759333
 50
137.0346300022756054
 51
164.448452135937913
  0
ARC
  5
4D65
  8
0
 10
-11.4481948935658497
 20
-5.8508555602161421
 30
0.0
 40
0.0789200915161391
 50
96.4644944651972338
 51
135.1990434438525881
  0
ARC
  5
4D66
  8
0
 10
-11.4427771901220297
 20
-5.8680196959034889
 30
0.0
 40
0.0966466853071577
 50
61.6197181887614533
 51
98.5106869862444512
  0
ARC
  5
4D67
  8
0
 10
-11.4275564004797392
 20
-5.8375675987481026
 30
0.0
 40
0.0626291568741701
 50
40.9102408543890874
 51
60.6288048219719471
  0
ARC
  5
4D68
  8
0
 10
-11.4126217371482497
 20
-5.8245443554159682
 30
0.0
 40
0.042813924073279
 50
8.5372227153911826
 51
40.8275525468781382
  0
ARC
  5
4D69
  8
0
 10
-11.4087807203330502
 20
-5.8228300250543654
 30
0.0
 40
0.038777297864841
 50
324.0143525887010014
 51
6.8745443542275169
  0
ARC
  5
4D6A
  8
0
 10
-11.4214123945580095
 20
-5.8147935724451649
 30
0.0
 40
0.0537283420409773
 50
306.6125708400750796
 51
324.9947844543247015
  0
LINE
  5
4D6B
  8
0
 10
-11.5083993850417308
 20
-5.8005244798843298
 30
0.0
 11
-11.4964340539048298
 21
-5.8576445514383728
 31
0.0
  0
LINE
  5
4D6C
  8
0
 10
-11.3891814228154598
 20
-5.8563455851644832
 30
0.0
 11
-11.3771504816017508
 21
-5.800568907046701
 31
0.0
  0
ARC
  5
4D6D
  8
0
 10
-10.4076086603453408
 20
-5.8658673221155979
 30
0.0
 40
0.0262174629962694
 50
97.8569376147588628
 51
141.649035104387309
  0
ARC
  5
4D6E
  8
0
 10
-10.4042043464805403
 20
-5.875017941108637
 30
0.0
 40
0.0358104449869578
 50
60.7874222569299505
 51
101.2532159677120944
  0
ARC
  5
4D6F
  8
0
 10
-10.3941236020866796
 20
-5.8590515264520979
 30
0.0
 40
0.0169846297549829
 50
15.5783125429725207
 51
64.1837006098832887
  0
ARC
  5
4D70
  8
0
 10
-10.3915387860599306
 20
-5.8583308874082451
 30
0.0
 40
0.0143012374013211
 50
327.7979882057106238
 51
15.5783125429716698
  0
ARC
  5
4D71
  8
0
 10
-10.3969922559933607
 20
-5.8548963866812231
 30
0.0
 40
0.0207460903522246
 50
294.5421888526400949
 51
327.7979882057106806
  0
ARC
  5
4D72
  8
0
 10
-10.4040419201716094
 20
-5.8394574466730589
 30
0.0
 40
0.0377183805218454
 50
241.4464821965669046
 51
294.5421888526399812
  0
ARC
  5
4D73
  8
0
 10
-10.4135499314400501
 20
-5.856930085260232
 30
0.0
 40
0.017826287181054
 50
201.0840122144792019
 51
241.4464821965675867
  0
ARC
  5
4D74
  8
0
 10
-10.4169912448506707
 20
-5.8582568744697392
 30
0.0
 40
0.0141380616461162
 50
142.2432570289163039
 51
201.0840122144786051
  0
ARC
  5
4D75
  8
0
 10
-10.4201585541225796
 20
-5.8502379900748718
 30
0.0
 40
0.0383798599857378
 50
191.1660939523314937
 51
237.0857252520384861
  0
ARC
  5
4D76
  8
0
 10
-10.4048180104317503
 20
-5.8270337776452203
 30
0.0
 40
0.0661957850697034
 50
236.8525800400466039
 51
270.5612916271606991
  0
ARC
  5
4D77
  8
0
 10
-10.4048751710609402
 20
-5.8211990958511004
 30
0.0
 40
0.0720307468498838
 50
270.5612916271604149
 51
298.4556179892563819
  0
ARC
  5
4D78
  8
0
 10
-10.3899057022783197
 20
-5.8488204293806492
 30
0.0
 40
0.0406138236780565
 50
298.4556179892567229
 51
332.9437741911260105
  0
ARC
  5
4D79
  8
0
 10
-10.3806048351566709
 20
-5.8535709603776542
 30
0.0
 40
0.0301699894219883
 50
332.9437741911266926
 51
19.715712542526969
  0
ARC
  5
4D7A
  8
0
 10
-10.3814807187813205
 20
-5.8538848431376076
 30
0.0
 40
0.0311004164803505
 50
19.7157125425269193
 51
54.8331801483434305
  0
ARC
  5
4D7B
  8
0
 10
-10.4047148177357194
 20
-5.8868618047233792
 30
0.0
 40
0.0714402646413492
 50
54.8331801483434305
 51
104.294939247249701
  0
ARC
  5
4D7C
  8
0
 10
-10.4108719980651205
 20
-5.869355914927497
 30
0.0
 40
0.0529816253121694
 50
102.5166793028133014
 51
141.0664828003309026
  0
ARC
  5
4D7D
  8
0
 10
-10.4288372929273603
 20
-5.853785743568281
 30
0.0
 40
0.029233837479575
 50
142.6776240063616967
 51
187.6361680069657893
  0
ARC
  5
4D7E
  8
0
 10
-10.4260079999207704
 20
-5.8155153225514331
 30
0.0
 40
0.0528902266416446
 50
207.4387534367899946
 51
233.0688354146961103
  0
ARC
  5
4D7F
  8
0
 10
-10.4406251787600208
 20
-5.8231046959247719
 30
0.0
 40
0.0364202386204419
 50
164.4484521359381972
 51
207.4387534367903925
  0
ARC
  5
4D80
  8
0
 10
-10.4335476136372698
 20
-5.8250743374228984
 30
0.0
 40
0.0437667626759333
 50
137.0346300022756054
 51
164.448452135937913
  0
ARC
  5
4D81
  8
0
 10
-10.4095761735091106
 20
-5.8508555602161421
 30
0.0
 40
0.0789200915161391
 50
96.4644944651972338
 51
135.1990434438525881
  0
ARC
  5
4D82
  8
0
 10
-10.4041584700652905
 20
-5.8680196959034889
 30
0.0
 40
0.0966466853071577
 50
61.6197181887614533
 51
98.5106869862444512
  0
ARC
  5
4D83
  8
0
 10
-10.3889376804230107
 20
-5.8375675987481026
 30
0.0
 40
0.0626291568741701
 50
40.9102408543890874
 51
60.628804821972011
  0
ARC
  5
4D84
  8
0
 10
-10.3740030170915194
 20
-5.8245443554159682
 30
0.0
 40
0.042813924073279
 50
8.5372227153911826
 51
40.8275525468781382
  0
ARC
  5
4D85
  8
0
 10
-10.37016200027632
 20
-5.8228300250543654
 30
0.0
 40
0.038777297864841
 50
324.0143525887010014
 51
6.8745443542275169
  0
ARC
  5
4D86
  8
0
 10
-10.3827936745012792
 20
-5.8147935724451649
 30
0.0
 40
0.0537283420409773
 50
306.6125708400750796
 51
324.9947844543247015
  0
LINE
  5
4D87
  8
0
 10
-10.4697806649850005
 20
-5.8005244798843298
 30
0.0
 11
-10.4578153338480995
 21
-5.8576445514383728
 31
0.0
  0
LINE
  5
4D88
  8
0
 10
-10.3505627027587295
 20
-5.8563455851644832
 30
0.0
 11
-10.3385317615450205
 21
-5.800568907046701
 31
0.0
  0
ARC
  5
4D89
  8
0
 10
-9.3633092280730281
 20
-5.8658673221155979
 30
0.0
 40
0.0262174629962694
 50
97.8569376147588628
 51
141.649035104387309
  0
ARC
  5
4D8A
  8
0
 10
-9.3599049142082347
 20
-5.875017941108637
 30
0.0
 40
0.0358104449869578
 50
60.7874222569299505
 51
101.2532159677120944
  0
ARC
  5
4D8B
  8
0
 10
-9.3498241698143723
 20
-5.8590515264520979
 30
0.0
 40
0.0169846297549829
 50
15.5783125429725207
 51
64.1837006098832887
  0
ARC
  5
4D8C
  8
0
 10
-9.3472393537876162
 20
-5.8583308874082451
 30
0.0
 40
0.0143012374013211
 50
327.7979882057106238
 51
15.5783125429716698
  0
ARC
  5
4D8D
  8
0
 10
-9.3526928237210498
 20
-5.8548963866812231
 30
0.0
 40
0.0207460903522246
 50
294.5421888526400949
 51
327.7979882057106806
  0
ARC
  5
4D8E
  8
0
 10
-9.3597424878993039
 20
-5.8394574466730589
 30
0.0
 40
0.0377183805218454
 50
241.4464821965669046
 51
294.5421888526399812
  0
ARC
  5
4D8F
  8
0
 10
-9.3692504991677446
 20
-5.856930085260232
 30
0.0
 40
0.017826287181054
 50
201.0840122144792019
 51
241.4464821965675867
  0
ARC
  5
4D90
  8
0
 10
-9.3726918125783634
 20
-5.8582568744697392
 30
0.0
 40
0.0141380616461162
 50
142.2432570289163039
 51
201.0840122144786051
  0
ARC
  5
4D91
  8
0
 10
-9.3758591218502758
 20
-5.8502379900748718
 30
0.0
 40
0.0383798599857378
 50
191.1660939523314937
 51
237.0857252520384861
  0
ARC
  5
4D92
  8
0
 10
-9.3605185781594393
 20
-5.8270337776452203
 30
0.0
 40
0.0661957850697034
 50
236.8525800400466039
 51
270.5612916271606991
  0
ARC
  5
4D93
  8
0
 10
-9.3605757387886364
 20
-5.8211990958511004
 30
0.0
 40
0.0720307468498838
 50
270.5612916271604149
 51
298.4556179892563819
  0
ARC
  5
4D94
  8
0
 10
-9.3456062700060123
 20
-5.8488204293806492
 30
0.0
 40
0.0406138236780565
 50
298.4556179892567229
 51
332.9437741911260105
  0
ARC
  5
4D95
  8
0
 10
-9.3363054028843564
 20
-5.8535709603776542
 30
0.0
 40
0.0301699894219883
 50
332.9437741911266926
 51
19.715712542526969
  0
ARC
  5
4D96
  8
0
 10
-9.3371812865090096
 20
-5.8538848431376076
 30
0.0
 40
0.0311004164803505
 50
19.7157125425268589
 51
54.8331801483434305
  0
ARC
  5
4D97
  8
0
 10
-9.3604153854634138
 20
-5.8868618047233792
 30
0.0
 40
0.0714402646413492
 50
54.8331801483434305
 51
104.2949392472498005
  0
ARC
  5
4D98
  8
0
 10
-9.3665725657928096
 20
-5.869355914927497
 30
0.0
 40
0.0529816253121694
 50
102.5166793028133014
 51
141.0664828003309026
  0
ARC
  5
4D99
  8
0
 10
-9.3845378606550547
 20
-5.853785743568281
 30
0.0
 40
0.029233837479575
 50
142.6776240063616967
 51
187.636168006965903
  0
ARC
  5
4D9A
  8
0
 10
-9.3817085676484595
 20
-5.8155153225514331
 30
0.0
 40
0.0528902266416446
 50
207.4387534367899946
 51
233.0688354146961103
  0
ARC
  5
4D9B
  8
0
 10
-9.3963257464877081
 20
-5.8231046959247719
 30
0.0
 40
0.0364202386204419
 50
164.4484521359381972
 51
207.4387534367903925
  0
ARC
  5
4D9C
  8
0
 10
-9.3892481813649589
 20
-5.8250743374228984
 30
0.0
 40
0.0437667626759333
 50
137.0346300022756054
 51
164.448452135937913
  0
ARC
  5
4D9D
  8
0
 10
-9.3652767412368032
 20
-5.8508555602161421
 30
0.0
 40
0.0789200915161391
 50
96.4644944651972338
 51
135.1990434438525881
  0
ARC
  5
4D9E
  8
0
 10
-9.3598590377929831
 20
-5.8680196959034889
 30
0.0
 40
0.0966466853071577
 50
61.6197181887614533
 51
98.5106869862444512
  0
ARC
  5
4D9F
  8
0
 10
-9.3446382481506998
 20
-5.8375675987481026
 30
0.0
 40
0.0626291568741701
 50
40.9102408543890874
 51
60.628804821972011
  0
ARC
  5
4DA0
  8
0
 10
-9.329703584819212
 20
-5.8245443554159682
 30
0.0
 40
0.042813924073279
 50
8.5372227153911826
 51
40.8275525468781382
  0
ARC
  5
4DA1
  8
0
 10
-9.3258625680040108
 20
-5.8228300250543654
 30
0.0
 40
0.038777297864841
 50
324.0143525887010014
 51
6.8745443542275169
  0
ARC
  5
4DA2
  8
0
 10
-9.3384942422289718
 20
-5.8147935724451649
 30
0.0
 40
0.0537283420409773
 50
306.6125708400750796
 51
324.9947844543247015
  0
LINE
  5
4DA3
  8
0
 10
-9.4254812327126931
 20
-5.8005244798843298
 30
0.0
 11
-9.4135159015757921
 21
-5.8576445514383728
 31
0.0
  0
LINE
  5
4DA4
  8
0
 10
-9.3062632704864185
 20
-5.8563455851644832
 30
0.0
 11
-9.2942323292727114
 21
-5.800568907046701
 31
0.0
  0
ARC
  5
4DA5
  8
0
 10
-8.3226511478959182
 20
-5.8658673221155979
 30
0.0
 40
0.0262174629962694
 50
97.8569376147588628
 51
141.649035104387309
  0
ARC
  5
4DA6
  8
0
 10
-8.3192468340311247
 20
-5.875017941108637
 30
0.0
 40
0.0358104449869578
 50
60.7874222569299505
 51
101.2532159677120944
  0
ARC
  5
4DA7
  8
0
 10
-8.3091660896372623
 20
-5.8590515264520979
 30
0.0
 40
0.0169846297549829
 50
15.5783125429725207
 51
64.1837006098832887
  0
ARC
  5
4DA8
  8
0
 10
-8.306581273610508
 20
-5.8583308874082451
 30
0.0
 40
0.0143012374013211
 50
327.7979882057106238
 51
15.5783125429716698
  0
ARC
  5
4DA9
  8
0
 10
-8.3120347435439381
 20
-5.8548963866812231
 30
0.0
 40
0.0207460903522246
 50
294.5421888526400949
 51
327.7979882057106806
  0
ARC
  5
4DAA
  8
0
 10
-8.3190844077221922
 20
-5.8394574466730589
 30
0.0
 40
0.0377183805218454
 50
241.4464821965669046
 51
294.5421888526399812
  0
ARC
  5
4DAB
  8
0
 10
-8.3285924189906346
 20
-5.856930085260232
 30
0.0
 40
0.017826287181054
 50
201.0840122144792019
 51
241.4464821965675867
  0
ARC
  5
4DAC
  8
0
 10
-8.3320337324012534
 20
-5.8582568744697392
 30
0.0
 40
0.0141380616461162
 50
142.2432570289163039
 51
201.0840122144786051
  0
ARC
  5
4DAD
  8
0
 10
-8.3352010416731641
 20
-5.8502379900748718
 30
0.0
 40
0.0383798599857378
 50
191.1660939523314937
 51
237.0857252520384861
  0
ARC
  5
4DAE
  8
0
 10
-8.3198604979823294
 20
-5.8270337776452203
 30
0.0
 40
0.0661957850697034
 50
236.8525800400466039
 51
270.5612916271606991
  0
ARC
  5
4DAF
  8
0
 10
-8.3199176586115264
 20
-5.8211990958511004
 30
0.0
 40
0.0720307468498838
 50
270.5612916271604149
 51
298.4556179892563819
  0
ARC
  5
4DB0
  8
0
 10
-8.3049481898289024
 20
-5.8488204293806492
 30
0.0
 40
0.0406138236780565
 50
298.4556179892567229
 51
332.9437741911260105
  0
ARC
  5
4DB1
  8
0
 10
-8.2956473227072465
 20
-5.8535709603776542
 30
0.0
 40
0.0301699894219883
 50
332.9437741911266926
 51
19.715712542526969
  0
ARC
  5
4DB2
  8
0
 10
-8.2965232063318997
 20
-5.8538848431376076
 30
0.0
 40
0.0311004164803505
 50
19.7157125425268589
 51
54.8331801483434305
  0
ARC
  5
4DB3
  8
0
 10
-8.3197573052863039
 20
-5.8868618047233792
 30
0.0
 40
0.0714402646413492
 50
54.8331801483434305
 51
104.2949392472498005
  0
ARC
  5
4DB4
  8
0
 10
-8.3259144856156997
 20
-5.869355914927497
 30
0.0
 40
0.0529816253121694
 50
102.5166793028133014
 51
141.0664828003309026
  0
ARC
  5
4DB5
  8
0
 10
-8.3438797804779448
 20
-5.853785743568281
 30
0.0
 40
0.029233837479575
 50
142.6776240063616967
 51
187.636168006965903
  0
ARC
  5
4DB6
  8
0
 10
-8.3410504874713496
 20
-5.8155153225514331
 30
0.0
 40
0.0528902266416446
 50
207.4387534367899946
 51
233.0688354146961103
  0
ARC
  5
4DB7
  8
0
 10
-8.3556676663105982
 20
-5.8231046959247719
 30
0.0
 40
0.0364202386204419
 50
164.4484521359381972
 51
207.4387534367903925
  0
ARC
  5
4DB8
  8
0
 10
-8.3485901011878472
 20
-5.8250743374228984
 30
0.0
 40
0.0437667626759333
 50
137.0346300022756054
 51
164.448452135937913
  0
ARC
  5
4DB9
  8
0
 10
-8.3246186610596951
 20
-5.8508555602161421
 30
0.0
 40
0.0789200915161391
 50
96.4644944651972338
 51
135.1990434438525881
  0
ARC
  5
4DBA
  8
0
 10
-8.3192009576158732
 20
-5.8680196959034889
 30
0.0
 40
0.0966466853071577
 50
61.6197181887614533
 51
98.5106869862444512
  0
ARC
  5
4DBB
  8
0
 10
-8.3039801679735898
 20
-5.8375675987481026
 30
0.0
 40
0.0626291568741701
 50
40.9102408543890306
 51
60.6288048219719471
  0
ARC
  5
4DBC
  8
0
 10
-8.2890455046421021
 20
-5.8245443554159682
 30
0.0
 40
0.042813924073279
 50
8.5372227153911826
 51
40.8275525468781382
  0
ARC
  5
4DBD
  8
0
 10
-8.2852044878269009
 20
-5.8228300250543654
 30
0.0
 40
0.038777297864841
 50
324.0143525887010014
 51
6.8745443542275169
  0
ARC
  5
4DBE
  8
0
 10
-8.2978361620518601
 20
-5.8147935724451649
 30
0.0
 40
0.0537283420409773
 50
306.6125708400750796
 51
324.9947844543247015
  0
LINE
  5
4DBF
  8
0
 10
-8.3848231525355832
 20
-5.8005244798843298
 30
0.0
 11
-8.3728578213986822
 21
-5.8576445514383728
 31
0.0
  0
LINE
  5
4DC0
  8
0
 10
-8.2656051903093086
 20
-5.8563455851644832
 30
0.0
 11
-8.2535742490956014
 21
-5.800568907046701
 31
0.0
  0
ARC
  5
4DC1
  8
0
 10
-7.276439025436054
 20
-5.8658673221155979
 30
0.0
 40
0.0262174629962694
 50
97.8569376147588628
 51
141.649035104387309
  0
ARC
  5
4DC2
  8
0
 10
-7.2730347115712606
 20
-5.875017941108637
 30
0.0
 40
0.0358104449869578
 50
60.7874222569299505
 51
101.2532159677120944
  0
ARC
  5
4DC3
  8
0
 10
-7.2629539671773991
 20
-5.8590515264520979
 30
0.0
 40
0.0169846297549829
 50
15.5783125429725207
 51
64.1837006098832887
  0
ARC
  5
4DC4
  8
0
 10
-7.2603691511506439
 20
-5.8583308874082451
 30
0.0
 40
0.0143012374013211
 50
327.7979882057106238
 51
15.5783125429716698
  0
ARC
  5
4DC5
  8
0
 10
-7.2658226210840766
 20
-5.8548963866812231
 30
0.0
 40
0.0207460903522246
 50
294.5421888526400949
 51
327.7979882057106806
  0
ARC
  5
4DC6
  8
0
 10
-7.2728722852623298
 20
-5.8394574466730589
 30
0.0
 40
0.0377183805218454
 50
241.4464821965669046
 51
294.5421888526399812
  0
ARC
  5
4DC7
  8
0
 10
-7.2823802965307696
 20
-5.856930085260232
 30
0.0
 40
0.017826287181054
 50
201.0840122144792019
 51
241.4464821965675867
  0
ARC
  5
4DC8
  8
0
 10
-7.2858216099413893
 20
-5.8582568744697392
 30
0.0
 40
0.0141380616461162
 50
142.2432570289163039
 51
201.0840122144786051
  0
ARC
  5
4DC9
  8
0
 10
-7.2889889192133008
 20
-5.8502379900748718
 30
0.0
 40
0.0383798599857378
 50
191.1660939523314937
 51
237.0857252520384861
  0
ARC
  5
4DCA
  8
0
 10
-7.273648375522467
 20
-5.8270337776452203
 30
0.0
 40
0.0661957850697034
 50
236.8525800400466039
 51
270.5612916271606991
  0
ARC
  5
4DCB
  8
0
 10
-7.2737055361516632
 20
-5.8211990958511004
 30
0.0
 40
0.0720307468498838
 50
270.5612916271604149
 51
298.4556179892563819
  0
ARC
  5
4DCC
  8
0
 10
-7.2587360673690391
 20
-5.8488204293806492
 30
0.0
 40
0.0406138236780565
 50
298.4556179892567229
 51
332.9437741911260105
  0
ARC
  5
4DCD
  8
0
 10
-7.2494352002473832
 20
-5.8535709603776542
 30
0.0
 40
0.0301699894219883
 50
332.9437741911266926
 51
19.715712542526969
  0
ARC
  5
4DCE
  8
0
 10
-7.2503110838720364
 20
-5.8538848431376076
 30
0.0
 40
0.0311004164803505
 50
19.7157125425268589
 51
54.8331801483434305
  0
ARC
  5
4DCF
  8
0
 10
-7.2735451828264397
 20
-5.8868618047233792
 30
0.0
 40
0.0714402646413492
 50
54.8331801483434305
 51
104.294939247249701
  0
ARC
  5
4DD0
  8
0
 10
-7.2797023631558364
 20
-5.869355914927497
 30
0.0
 40
0.0529816253121694
 50
102.5166793028133014
 51
141.0664828003309026
  0
ARC
  5
4DD1
  8
0
 10
-7.2976676580180806
 20
-5.853785743568281
 30
0.0
 40
0.029233837479575
 50
142.6776240063616967
 51
187.636168006965903
  0
ARC
  5
4DD2
  8
0
 10
-7.2948383650114872
 20
-5.8155153225514331
 30
0.0
 40
0.0528902266416446
 50
207.4387534367899946
 51
233.0688354146961103
  0
ARC
  5
4DD3
  8
0
 10
-7.3094555438507358
 20
-5.8231046959247719
 30
0.0
 40
0.0364202386204419
 50
164.4484521359381972
 51
207.4387534367903925
  0
ARC
  5
4DD4
  8
0
 10
-7.3023779787279848
 20
-5.8250743374228984
 30
0.0
 40
0.0437667626759333
 50
137.0346300022756054
 51
164.448452135937913
  0
ARC
  5
4DD5
  8
0
 10
-7.2784065385998318
 20
-5.8508555602161421
 30
0.0
 40
0.0789200915161391
 50
96.4644944651972338
 51
135.1990434438525881
  0
ARC
  5
4DD6
  8
0
 10
-7.2729888351560108
 20
-5.8680196959034889
 30
0.0
 40
0.0966466853071577
 50
61.6197181887614533
 51
98.5106869862444512
  0
ARC
  5
4DD7
  8
0
 10
-7.2577680455137257
 20
-5.8375675987481026
 30
0.0
 40
0.0626291568741701
 50
40.9102408543890306
 51
60.6288048219719471
  0
ARC
  5
4DD8
  8
0
 10
-7.2428333821822379
 20
-5.8245443554159682
 30
0.0
 40
0.042813924073279
 50
8.5372227153911826
 51
40.8275525468781382
  0
ARC
  5
4DD9
  8
0
 10
-7.2389923653670367
 20
-5.8228300250543654
 30
0.0
 40
0.038777297864841
 50
324.0143525887010014
 51
6.8745443542275169
  0
ARC
  5
4DDA
  8
0
 10
-7.2516240395919978
 20
-5.8147935724451649
 30
0.0
 40
0.0537283420409773
 50
306.6125708400750796
 51
324.9947844543247015
  0
LINE
  5
4DDB
  8
0
 10
-7.338611030075719
 20
-5.8005244798843298
 30
0.0
 11
-7.326645698938818
 21
-5.8576445514383728
 31
0.0
  0
LINE
  5
4DDC
  8
0
 10
-7.2193930678494453
 20
-5.8563455851644832
 30
0.0
 11
-7.2073621266357382
 21
-5.800568907046701
 31
0.0
  0
ARC
  5
4DDD
  8
0
 10
-6.2338759945785034
 20
-5.8658673221155979
 30
0.0
 40
0.0262174629962694
 50
97.8569376147588628
 51
141.649035104387309
  0
ARC
  5
4DDE
  8
0
 10
-6.2304716807137099
 20
-5.875017941108637
 30
0.0
 40
0.0358104449869578
 50
60.7874222569299505
 51
101.2532159677120944
  0
ARC
  5
4DDF
  8
0
 10
-6.2203909363198484
 20
-5.8590515264520979
 30
0.0
 40
0.0169846297549829
 50
15.5783125429725207
 51
64.1837006098832887
  0
ARC
  5
4DE0
  8
0
 10
-6.2178061202930941
 20
-5.8583308874082451
 30
0.0
 40
0.0143012374013211
 50
327.7979882057106238
 51
15.5783125429716698
  0
ARC
  5
4DE1
  8
0
 10
-6.223259590226526
 20
-5.8548963866812231
 30
0.0
 40
0.0207460903522246
 50
294.5421888526400949
 51
327.7979882057106806
  0
ARC
  5
4DE2
  8
0
 10
-6.23030925440478
 20
-5.8394574466730589
 30
0.0
 40
0.0377183805218454
 50
241.4464821965669046
 51
294.5421888526399812
  0
ARC
  5
4DE3
  8
0
 10
-6.2398172656732189
 20
-5.856930085260232
 30
0.0
 40
0.017826287181054
 50
201.0840122144792019
 51
241.4464821965675867
  0
ARC
  5
4DE4
  8
0
 10
-6.2432585790838377
 20
-5.8582568744697392
 30
0.0
 40
0.0141380616461162
 50
142.2432570289163039
 51
201.0840122144786051
  0
ARC
  5
4DE5
  8
0
 10
-6.2464258883557511
 20
-5.8502379900748718
 30
0.0
 40
0.0383798599857378
 50
191.1660939523314937
 51
237.0857252520384861
  0
ARC
  5
4DE6
  8
0
 10
-6.2310853446649164
 20
-5.8270337776452203
 30
0.0
 40
0.0661957850697034
 50
236.8525800400466039
 51
270.5612916271606991
  0
ARC
  5
4DE7
  8
0
 10
-6.2311425052941116
 20
-5.8211990958511004
 30
0.0
 40
0.0720307468498838
 50
270.5612916271604149
 51
298.4556179892563819
  0
ARC
  5
4DE8
  8
0
 10
-6.2161730365114893
 20
-5.8488204293806492
 30
0.0
 40
0.0406138236780565
 50
298.4556179892567229
 51
332.9437741911260105
  0
ARC
  5
4DE9
  8
0
 10
-6.2068721693898317
 20
-5.8535709603776542
 30
0.0
 40
0.0301699894219883
 50
332.9437741911266926
 51
19.715712542526969
  0
ARC
  5
4DEA
  8
0
 10
-6.2077480530144848
 20
-5.8538848431376076
 30
0.0
 40
0.0311004164803505
 50
19.7157125425268589
 51
54.8331801483434305
  0
ARC
  5
4DEB
  8
0
 10
-6.230982151968889
 20
-5.8868618047233792
 30
0.0
 40
0.0714402646413492
 50
54.8331801483434305
 51
104.294939247249701
  0
ARC
  5
4DEC
  8
0
 10
-6.2371393322982849
 20
-5.869355914927497
 30
0.0
 40
0.0529816253121694
 50
102.5166793028133014
 51
141.0664828003309026
  0
ARC
  5
4DED
  8
0
 10
-6.25510462716053
 20
-5.853785743568281
 30
0.0
 40
0.029233837479575
 50
142.6776240063616967
 51
187.636168006965903
  0
ARC
  5
4DEE
  8
0
 10
-6.2522753341539357
 20
-5.8155153225514331
 30
0.0
 40
0.0528902266416446
 50
207.4387534367899946
 51
233.0688354146961103
  0
ARC
  5
4DEF
  8
0
 10
-6.2668925129931861
 20
-5.8231046959247719
 30
0.0
 40
0.0364202386204419
 50
164.4484521359381972
 51
207.4387534367903925
  0
ARC
  5
4DF0
  8
0
 10
-6.259814947870435
 20
-5.8250743374228984
 30
0.0
 40
0.0437667626759333
 50
137.0346300022756054
 51
164.448452135937913
  0
ARC
  5
4DF1
  8
0
 10
-6.235843507742282
 20
-5.8508555602161421
 30
0.0
 40
0.0789200915161391
 50
96.4644944651972338
 51
135.1990434438525881
  0
ARC
  5
4DF2
  8
0
 10
-6.230425804298461
 20
-5.8680196959034889
 30
0.0
 40
0.0966466853071577
 50
61.6197181887614533
 51
98.5106869862444512
  0
ARC
  5
4DF3
  8
0
 10
-6.215205014656175
 20
-5.8375675987481026
 30
0.0
 40
0.0626291568741701
 50
40.9102408543890306
 51
60.6288048219719471
  0
ARC
  5
4DF4
  8
0
 10
-6.2002703513246882
 20
-5.8245443554159682
 30
0.0
 40
0.042813924073279
 50
8.5372227153911826
 51
40.8275525468781382
  0
ARC
  5
4DF5
  8
0
 10
-6.1964293345094861
 20
-5.8228300250543654
 30
0.0
 40
0.038777297864841
 50
324.0143525887010014
 51
6.8745443542275169
  0
ARC
  5
4DF6
  8
0
 10
-6.2090610087344471
 20
-5.8147935724451649
 30
0.0
 40
0.0537283420409773
 50
306.6125708400750796
 51
324.9947844543247015
  0
LINE
  5
4DF7
  8
0
 10
-6.2960479992181693
 20
-5.8005244798843298
 30
0.0
 11
-6.2840826680812674
 21
-5.8576445514383728
 31
0.0
  0
LINE
  5
4DF8
  8
0
 10
-6.1768300369918938
 20
-5.8563455851644832
 30
0.0
 11
-6.1647990957781866
 21
-5.800568907046701
 31
0.0
  0
ARC
  5
4DF9
  8
0
 10
-5.1914504689637146
 20
-5.8658673221155979
 30
0.0
 40
0.0262174629962694
 50
97.8569376147588628
 51
141.649035104387309
  0
ARC
  5
4DFA
  8
0
 10
-5.1880461550989221
 20
-5.875017941108637
 30
0.0
 40
0.0358104449869578
 50
60.7874222569299505
 51
101.2532159677120944
  0
ARC
  5
4DFB
  8
0
 10
-5.1779654107050588
 20
-5.8590515264520979
 30
0.0
 40
0.0169846297549829
 50
15.5783125429725207
 51
64.1837006098832887
  0
ARC
  5
4DFC
  8
0
 10
-5.1753805946783054
 20
-5.8583308874082451
 30
0.0
 40
0.0143012374013211
 50
327.7979882057106238
 51
15.5783125429716698
  0
ARC
  5
4DFD
  8
0
 10
-5.1808340646117372
 20
-5.8548963866812231
 30
0.0
 40
0.0207460903522246
 50
294.5421888526400949
 51
327.7979882057106806
  0
ARC
  5
4DFE
  8
0
 10
-5.1878837287899913
 20
-5.8394574466730589
 30
0.0
 40
0.0377183805218454
 50
241.4464821965669046
 51
294.5421888526399812
  0
ARC
  5
4DFF
  8
0
 10
-5.1973917400584311
 20
-5.856930085260232
 30
0.0
 40
0.017826287181054
 50
201.0840122144792019
 51
241.4464821965675867
  0
ARC
  5
4E00
  8
0
 10
-5.2008330534690499
 20
-5.8582568744697392
 30
0.0
 40
0.0141380616461162
 50
142.2432570289163039
 51
201.0840122144786051
  0
ARC
  5
4E01
  8
0
 10
-5.2040003627409632
 20
-5.8502379900748718
 30
0.0
 40
0.0383798599857378
 50
191.1660939523314937
 51
237.0857252520384861
  0
ARC
  5
4E02
  8
0
 10
-5.1886598190501259
 20
-5.8270337776452203
 30
0.0
 40
0.0661957850697034
 50
236.8525800400466039
 51
270.5612916271606991
  0
ARC
  5
4E03
  8
0
 10
-5.1887169796793229
 20
-5.8211990958511004
 30
0.0
 40
0.0720307468498838
 50
270.5612916271604149
 51
298.4556179892563819
  0
ARC
  5
4E04
  8
0
 10
-5.1737475108966988
 20
-5.8488204293806492
 30
0.0
 40
0.0406138236780565
 50
298.4556179892567229
 51
332.9437741911260105
  0
ARC
  5
4E05
  8
0
 10
-5.1644466437750429
 20
-5.8535709603776542
 30
0.0
 40
0.0301699894219883
 50
332.9437741911266926
 51
19.7157125425269193
  0
ARC
  5
4E06
  8
0
 10
-5.1653225273996961
 20
-5.8538848431376076
 30
0.0
 40
0.0311004164803505
 50
19.7157125425268589
 51
54.8331801483434305
  0
ARC
  5
4E07
  8
0
 10
-5.1885566263541012
 20
-5.8868618047233792
 30
0.0
 40
0.0714402646413492
 50
54.8331801483434305
 51
104.294939247249701
  0
ARC
  5
4E08
  8
0
 10
-5.194713806683497
 20
-5.869355914927497
 30
0.0
 40
0.0529816253121694
 50
102.5166793028133014
 51
141.0664828003309026
  0
ARC
  5
4E09
  8
0
 10
-5.2126791015457421
 20
-5.853785743568281
 30
0.0
 40
0.029233837479575
 50
142.6776240063616967
 51
187.636168006965903
  0
ARC
  5
4E0A
  8
0
 10
-5.209849808539146
 20
-5.8155153225514331
 30
0.0
 40
0.0528902266416446
 50
207.4387534367899946
 51
233.0688354146961103
  0
ARC
  5
4E0B
  8
0
 10
-5.2244669873783973
 20
-5.8231046959247719
 30
0.0
 40
0.0364202386204419
 50
164.4484521359381972
 51
207.4387534367903925
  0
ARC
  5
4E0C
  8
0
 10
-5.2173894222556463
 20
-5.8250743374228984
 30
0.0
 40
0.0437667626759333
 50
137.0346300022756054
 51
164.448452135937913
  0
ARC
  5
4E0D
  8
0
 10
-5.1934179821274924
 20
-5.8508555602161421
 30
0.0
 40
0.0789200915161391
 50
96.4644944651972338
 51
135.1990434438525881
  0
ARC
  5
4E0E
  8
0
 10
-5.1880002786836723
 20
-5.8680196959034889
 30
0.0
 40
0.0966466853071577
 50
61.6197181887614533
 51
98.5106869862444512
  0
ARC
  5
4E0F
  8
0
 10
-5.1727794890413872
 20
-5.8375675987481026
 30
0.0
 40
0.0626291568741701
 50
40.9102408543890306
 51
60.6288048219719471
  0
ARC
  5
4E10
  8
0
 10
-5.1578448257098994
 20
-5.8245443554159682
 30
0.0
 40
0.042813924073279
 50
8.5372227153911826
 51
40.8275525468781382
  0
ARC
  5
4E11
  8
0
 10
-5.1540038088946982
 20
-5.8228300250543654
 30
0.0
 40
0.038777297864841
 50
324.0143525887010014
 51
6.8745443542275169
  0
ARC
  5
4E12
  8
0
 10
-5.1666354831196593
 20
-5.8147935724451649
 30
0.0
 40
0.0537283420409773
 50
306.6125708400750796
 51
324.9947844543247015
  0
LINE
  5
4E13
  8
0
 10
-5.2536224736033796
 20
-5.8005244798843298
 30
0.0
 11
-5.2416571424664786
 21
-5.8576445514383728
 31
0.0
  0
LINE
  5
4E14
  8
0
 10
-5.1344045113771051
 20
-5.8563455851644832
 30
0.0
 11
-5.1223735701633979
 21
-5.800568907046701
 31
0.0
  0
ARC
  5
4E15
  8
0
 10
-4.1490645868241884
 20
-5.8658673221155979
 30
0.0
 40
0.0262174629962694
 50
97.8569376147588628
 51
141.649035104387309
  0
ARC
  5
4E16
  8
0
 10
-4.1456602729593941
 20
-5.875017941108637
 30
0.0
 40
0.0358104449869578
 50
60.7874222569300073
 51
101.2532159677120944
  0
ARC
  5
4E17
  8
0
 10
-4.1355795285655317
 20
-5.8590515264520979
 30
0.0
 40
0.0169846297549829
 50
15.5783125429725207
 51
64.1837006098832177
  0
ARC
  5
4E18
  8
0
 10
-4.1329947125387783
 20
-5.8583308874082451
 30
0.0
 40
0.0143012374013211
 50
327.7979882057106238
 51
15.5783125429716698
  0
ARC
  5
4E19
  8
0
 10
-4.1384481824722101
 20
-5.8548963866812231
 30
0.0
 40
0.0207460903522246
 50
294.5421888526400949
 51
327.7979882057106806
  0
ARC
  5
4E1A
  8
0
 10
-4.1454978466504642
 20
-5.8394574466730589
 30
0.0
 40
0.0377183805218454
 50
241.4464821965669046
 51
294.5421888526399812
  0
ARC
  5
4E1B
  8
0
 10
-4.155005857918904
 20
-5.856930085260232
 30
0.0
 40
0.017826287181054
 50
201.0840122144792019
 51
241.4464821965675867
  0
ARC
  5
4E1C
  8
0
 10
-4.1584471713295228
 20
-5.8582568744697392
 30
0.0
 40
0.0141380616461162
 50
142.2432570289163039
 51
201.0840122144786051
  0
ARC
  5
4E1D
  8
0
 10
-4.1616144806014361
 20
-5.8502379900748718
 30
0.0
 40
0.0383798599857378
 50
191.1660939523314937
 51
237.0857252520384861
  0
ARC
  5
4E1E
  8
0
 10
-4.1462739369105988
 20
-5.8270337776452203
 30
0.0
 40
0.0661957850697034
 50
236.8525800400466039
 51
270.5612916271606991
  0
ARC
  5
4E1F
  8
0
 10
-4.1463310975397958
 20
-5.8211990958511004
 30
0.0
 40
0.0720307468498838
 50
270.5612916271604149
 51
298.4556179892563819
  0
ARC
  5
4E20
  8
0
 10
-4.1313616287571717
 20
-5.8488204293806492
 30
0.0
 40
0.0406138236780565
 50
298.4556179892566092
 51
332.9437741911260105
  0
ARC
  5
4E21
  8
0
 10
-4.1220607616355158
 20
-5.8535709603776542
 30
0.0
 40
0.0301699894219883
 50
332.9437741911266926
 51
19.7157125425269193
  0
ARC
  5
4E22
  8
0
 10
-4.122936645260169
 20
-5.8538848431376076
 30
0.0
 40
0.0311004164803505
 50
19.7157125425268589
 51
54.8331801483434305
  0
ARC
  5
4E23
  8
0
 10
-4.1461707442145741
 20
-5.8868618047233792
 30
0.0
 40
0.0714402646413492
 50
54.8331801483434305
 51
104.294939247249701
  0
ARC
  5
4E24
  8
0
 10
-4.152327924543969
 20
-5.869355914927497
 30
0.0
 40
0.0529816253121694
 50
102.516679302813202
 51
141.0664828003309026
  0
ARC
  5
4E25
  8
0
 10
-4.170293219406215
 20
-5.853785743568281
 30
0.0
 40
0.029233837479575
 50
142.6776240063616967
 51
187.636168006965903
  0
ARC
  5
4E26
  8
0
 10
-4.1674639263996189
 20
-5.8155153225514331
 30
0.0
 40
0.0528902266416446
 50
207.4387534367899946
 51
233.0688354146961103
  0
ARC
  5
4E27
  8
0
 10
-4.1820811052388702
 20
-5.8231046959247719
 30
0.0
 40
0.0364202386204419
 50
164.4484521359381972
 51
207.4387534367903925
  0
ARC
  5
4E28
  8
0
 10
-4.1750035401161192
 20
-5.8250743374228984
 30
0.0
 40
0.0437667626759333
 50
137.0346300022756054
 51
164.448452135937913
  0
ARC
  5
4E29
  8
0
 10
-4.1510320999879653
 20
-5.8508555602161421
 30
0.0
 40
0.0789200915161391
 50
96.4644944651972338
 51
135.1990434438525881
  0
ARC
  5
4E2A
  8
0
 10
-4.1456143965441452
 20
-5.8680196959034889
 30
0.0
 40
0.0966466853071577
 50
61.6197181887615102
 51
98.5106869862444512
  0
ARC
  5
4E2B
  8
0
 10
-4.1303936069018601
 20
-5.8375675987481026
 30
0.0
 40
0.0626291568741701
 50
40.9102408543890306
 51
60.6288048219719471
  0
ARC
  5
4E2C
  8
0
 10
-4.1154589435703723
 20
-5.8245443554159682
 30
0.0
 40
0.042813924073279
 50
8.5372227153911826
 51
40.8275525468781382
  0
ARC
  5
4E2D
  8
0
 10
-4.1116179267551711
 20
-5.8228300250543654
 30
0.0
 40
0.038777297864841
 50
324.0143525887010014
 51
6.8745443542275169
  0
ARC
  5
4E2E
  8
0
 10
-4.1242496009801322
 20
-5.8147935724451649
 30
0.0
 40
0.0537283420409773
 50
306.6125708400750796
 51
324.9947844543247015
  0
LINE
  5
4E2F
  8
0
 10
-4.2112365914638534
 20
-5.8005244798843298
 30
0.0
 11
-4.1992712603269524
 21
-5.8576445514383728
 31
0.0
  0
LINE
  5
4E30
  8
0
 10
-4.092018629237578
 20
-5.8563455851644832
 30
0.0
 11
-4.0799876880238708
 21
-5.800568907046701
 31
0.0
  0
ARC
  5
4E31
  8
0
 10
-12.4953390661990102
 20
-6.602755711558828
 30
0.0
 40
0.0262174629962694
 50
97.8569376147588628
 51
141.649035104387309
  0
ARC
  5
4E32
  8
0
 10
-12.4919347523342203
 20
-6.6119063305518671
 30
0.0
 40
0.0358104449869578
 50
60.7874222569299505
 51
101.2532159677120944
  0
ARC
  5
4E33
  8
0
 10
-12.4818540079403597
 20
-6.595939915895328
 30
0.0
 40
0.0169846297549829
 50
15.5783125429725207
 51
64.1837006098832887
  0
ARC
  5
4E34
  8
0
 10
-12.4792691919136001
 20
-6.5952192768514752
 30
0.0
 40
0.0143012374013211
 50
327.7979882057106238
 51
15.5783125429716698
  0
ARC
  5
4E35
  8
0
 10
-12.4847226618470408
 20
-6.5917847761244532
 30
0.0
 40
0.0207460903522246
 50
294.5421888526400949
 51
327.7979882057106806
  0
ARC
  5
4E36
  8
0
 10
-12.4917723260252895
 20
-6.576345836116289
 30
0.0
 40
0.0377183805218454
 50
241.4464821965669046
 51
294.5421888526399812
  0
ARC
  5
4E37
  8
0
 10
-12.5012803372937302
 20
-6.5938184747034621
 30
0.0
 40
0.017826287181054
 50
201.0840122144792019
 51
241.4464821965675867
  0
ARC
  5
4E38
  8
0
 10
-12.5047216507043508
 20
-6.5951452639129693
 30
0.0
 40
0.0141380616461162
 50
142.2432570289163039
 51
201.0840122144786903
  0
ARC
  5
4E39
  8
0
 10
-12.5078889599762597
 20
-6.5871263795181019
 30
0.0
 40
0.0383798599857378
 50
191.1660939523314937
 51
237.0857252520384861
  0
ARC
  5
4E3A
  8
0
 10
-12.4925484162854197
 20
-6.5639221670884504
 30
0.0
 40
0.0661957850697034
 50
236.8525800400466039
 51
270.5612916271606991
  0
ARC
  5
4E3B
  8
0
 10
-12.4926055769146203
 20
-6.5580874852943296
 30
0.0
 40
0.0720307468498838
 50
270.5612916271604149
 51
298.4556179892563819
  0
ARC
  5
4E3C
  8
0
 10
-12.4776361081319997
 20
-6.5857088188238793
 30
0.0
 40
0.0406138236780565
 50
298.4556179892567229
 51
332.9437741911260105
  0
ARC
  5
4E3D
  8
0
 10
-12.4683352410103403
 20
-6.5904593498208843
 30
0.0
 40
0.0301699894219883
 50
332.9437741911266926
 51
19.715712542526969
  0
ARC
  5
4E3E
  8
0
 10
-12.4692111246350006
 20
-6.5907732325808377
 30
0.0
 40
0.0311004164803505
 50
19.7157125425268589
 51
54.8331801483434305
  0
ARC
  5
4E3F
  8
0
 10
-12.4924452235893995
 20
-6.6237501941666093
 30
0.0
 40
0.0714402646413492
 50
54.8331801483434305
 51
104.294939247249701
  0
ARC
  5
4E40
  8
0
 10
-12.49860240391879
 20
-6.6062443043707271
 30
0.0
 40
0.0529816253121694
 50
102.5166793028133014
 51
141.0664828003309026
  0
ARC
  5
4E41
  8
0
 10
-12.5165676987810404
 20
-6.5906741330115111
 30
0.0
 40
0.029233837479575
 50
142.6776240063616967
 51
187.636168006965903
  0
ARC
  5
4E42
  8
0
 10
-12.5137384057744505
 20
-6.5524037119946632
 30
0.0
 40
0.0528902266416446
 50
207.4387534367899946
 51
233.0688354146961103
  0
ARC
  5
4E43
  8
0
 10
-12.5283555846136903
 20
-6.559993085368002
 30
0.0
 40
0.0364202386204419
 50
164.4484521359381972
 51
207.4387534367903925
  0
ARC
  5
4E44
  8
0
 10
-12.5212780194909392
 20
-6.5619627268661276
 30
0.0
 40
0.0437667626759333
 50
137.0346300022756054
 51
164.448452135937913
  0
ARC
  5
4E45
  8
0
 10
-12.4973065793627907
 20
-6.587743949659373
 30
0.0
 40
0.0789200915161391
 50
96.4644944651972338
 51
135.1990434438525881
  0
ARC
  5
4E46
  8
0
 10
-12.4918888759189706
 20
-6.604908085346719
 30
0.0
 40
0.0966466853071577
 50
61.6197181887614533
 51
98.5106869862444512
  0
ARC
  5
4E47
  8
0
 10
-12.4766680862766801
 20
-6.5744559881913327
 30
0.0
 40
0.0626291568741701
 50
40.9102408543890874
 51
60.6288048219719471
  0
ARC
  5
4E48
  8
0
 10
-12.4617334229451995
 20
-6.5614327448591983
 30
0.0
 40
0.042813924073279
 50
8.5372227153911826
 51
40.8275525468781382
  0
ARC
  5
4E49
  8
0
 10
-12.45789240613
 20
-6.5597184144975946
 30
0.0
 40
0.038777297864841
 50
324.0143525887010014
 51
6.8745443542275169
  0
ARC
  5
4E4A
  8
0
 10
-12.4705240803549593
 20
-6.551681961888395
 30
0.0
 40
0.0537283420409773
 50
306.6125708400750796
 51
324.9947844543247015
  0
LINE
  5
4E4B
  8
0
 10
-12.5575110708386806
 20
-6.5374128693275599
 30
0.0
 11
-12.5455457397017796
 21
-6.5945329408816029
 31
0.0
  0
LINE
  5
4E4C
  8
0
 10
-12.4382931086124007
 20
-6.5932339746077133
 30
0.0
 11
-12.4262621673987006
 21
-6.537457296489932
 31
0.0
  0
ARC
  5
4E4D
  8
0
 10
-11.4462273804020693
 20
-6.602755711558828
 30
0.0
 40
0.0262174629962694
 50
97.8569376147588628
 51
141.649035104387309
  0
ARC
  5
4E4E
  8
0
 10
-11.4428230665372705
 20
-6.6119063305518671
 30
0.0
 40
0.0358104449869578
 50
60.7874222569299505
 51
101.2532159677120944
  0
ARC
  5
4E4F
  8
0
 10
-11.4327423221434099
 20
-6.595939915895328
 30
0.0
 40
0.0169846297549829
 50
15.5783125429725207
 51
64.1837006098832887
  0
ARC
  5
4E50
  8
0
 10
-11.4301575061166591
 20
-6.5952192768514752
 30
0.0
 40
0.0143012374013211
 50
327.7979882057106238
 51
15.5783125429716698
  0
ARC
  5
4E51
  8
0
 10
-11.4356109760500892
 20
-6.5917847761244532
 30
0.0
 40
0.0207460903522246
 50
294.5421888526400949
 51
327.7979882057106806
  0
ARC
  5
4E52
  8
0
 10
-11.4426606402283504
 20
-6.576345836116289
 30
0.0
 40
0.0377183805218454
 50
241.4464821965669046
 51
294.5421888526399812
  0
ARC
  5
4E53
  8
0
 10
-11.4521686514967893
 20
-6.5938184747034621
 30
0.0
 40
0.017826287181054
 50
201.0840122144792019
 51
241.4464821965675867
  0
ARC
  5
4E54
  8
0
 10
-11.4556099649073992
 20
-6.5951452639129693
 30
0.0
 40
0.0141380616461162
 50
142.2432570289163039
 51
201.0840122144786051
  0
ARC
  5
4E55
  8
0
 10
-11.4587772741793206
 20
-6.5871263795181019
 30
0.0
 40
0.0383798599857378
 50
191.1660939523314937
 51
237.0857252520384861
  0
ARC
  5
4E56
  8
0
 10
-11.4434367304884805
 20
-6.5639221670884504
 30
0.0
 40
0.0661957850697034
 50
236.8525800400466039
 51
270.5612916271606991
  0
ARC
  5
4E57
  8
0
 10
-11.4434938911176793
 20
-6.5580874852943296
 30
0.0
 40
0.0720307468498838
 50
270.5612916271604149
 51
298.4556179892563819
  0
ARC
  5
4E58
  8
0
 10
-11.4285244223350499
 20
-6.5857088188238793
 30
0.0
 40
0.0406138236780565
 50
298.4556179892567229
 51
332.9437741911260105
  0
ARC
  5
4E59
  8
0
 10
-11.4192235552133994
 20
-6.5904593498208843
 30
0.0
 40
0.0301699894219883
 50
332.9437741911266926
 51
19.715712542526969
  0
ARC
  5
4E5A
  8
0
 10
-11.4200994388380508
 20
-6.5907732325808377
 30
0.0
 40
0.0311004164803505
 50
19.7157125425268589
 51
54.8331801483434305
  0
ARC
  5
4E5B
  8
0
 10
-11.4433335377924497
 20
-6.6237501941666093
 30
0.0
 40
0.0714402646413492
 50
54.8331801483434305
 51
104.294939247249701
  0
ARC
  5
4E5C
  8
0
 10
-11.4494907181218508
 20
-6.6062443043707271
 30
0.0
 40
0.0529816253121694
 50
102.5166793028133014
 51
141.0664828003309026
  0
ARC
  5
4E5D
  8
0
 10
-11.4674560129840994
 20
-6.5906741330115111
 30
0.0
 40
0.029233837479575
 50
142.6776240063616967
 51
187.636168006965903
  0
ARC
  5
4E5E
  8
0
 10
-11.4646267199775007
 20
-6.5524037119946632
 30
0.0
 40
0.0528902266416446
 50
207.4387534367899946
 51
233.0688354146961103
  0
ARC
  5
4E5F
  8
0
 10
-11.4792438988167493
 20
-6.559993085368002
 30
0.0
 40
0.0364202386204419
 50
164.4484521359381972
 51
207.4387534367903925
  0
ARC
  5
4E60
  8
0
 10
-11.4721663336940001
 20
-6.5619627268661276
 30
0.0
 40
0.0437667626759333
 50
137.0346300022756054
 51
164.448452135937913
  0
ARC
  5
4E61
  8
0
 10
-11.4481948935658497
 20
-6.587743949659373
 30
0.0
 40
0.0789200915161391
 50
96.4644944651972338
 51
135.1990434438525881
  0
ARC
  5
4E62
  8
0
 10
-11.4427771901220297
 20
-6.604908085346719
 30
0.0
 40
0.0966466853071577
 50
61.6197181887614533
 51
98.5106869862444512
  0
ARC
  5
4E63
  8
0
 10
-11.4275564004797392
 20
-6.5744559881913327
 30
0.0
 40
0.0626291568741701
 50
40.9102408543890874
 51
60.6288048219719471
  0
ARC
  5
4E64
  8
0
 10
-11.4126217371482497
 20
-6.5614327448591983
 30
0.0
 40
0.042813924073279
 50
8.5372227153911826
 51
40.8275525468781382
  0
ARC
  5
4E65
  8
0
 10
-11.4087807203330502
 20
-6.5597184144975946
 30
0.0
 40
0.038777297864841
 50
324.0143525887010014
 51
6.8745443542275169
  0
ARC
  5
4E66
  8
0
 10
-11.4214123945580095
 20
-6.551681961888395
 30
0.0
 40
0.0537283420409773
 50
306.6125708400750796
 51
324.9947844543247015
  0
LINE
  5
4E67
  8
0
 10
-11.5083993850417308
 20
-6.5374128693275599
 30
0.0
 11
-11.4964340539048298
 21
-6.5945329408816029
 31
0.0
  0
LINE
  5
4E68
  8
0
 10
-11.3891814228154598
 20
-6.5932339746077133
 30
0.0
 11
-11.3771504816017508
 21
-6.537457296489932
 31
0.0
  0
ARC
  5
4E69
  8
0
 10
-10.4076086603453408
 20
-6.602755711558828
 30
0.0
 40
0.0262174629962694
 50
97.8569376147588628
 51
141.649035104387309
  0
ARC
  5
4E6A
  8
0
 10
-10.4042043464805403
 20
-6.6119063305518671
 30
0.0
 40
0.0358104449869578
 50
60.7874222569299505
 51
101.2532159677120944
  0
ARC
  5
4E6B
  8
0
 10
-10.3941236020866796
 20
-6.595939915895328
 30
0.0
 40
0.0169846297549829
 50
15.5783125429725207
 51
64.1837006098832887
  0
ARC
  5
4E6C
  8
0
 10
-10.3915387860599306
 20
-6.5952192768514752
 30
0.0
 40
0.0143012374013211
 50
327.7979882057106238
 51
15.5783125429716698
  0
ARC
  5
4E6D
  8
0
 10
-10.3969922559933607
 20
-6.5917847761244532
 30
0.0
 40
0.0207460903522246
 50
294.5421888526400949
 51
327.7979882057106806
  0
ARC
  5
4E6E
  8
0
 10
-10.4040419201716094
 20
-6.576345836116289
 30
0.0
 40
0.0377183805218454
 50
241.4464821965669046
 51
294.5421888526399812
  0
ARC
  5
4E6F
  8
0
 10
-10.4135499314400501
 20
-6.5938184747034621
 30
0.0
 40
0.017826287181054
 50
201.0840122144792019
 51
241.4464821965675867
  0
ARC
  5
4E70
  8
0
 10
-10.4169912448506707
 20
-6.5951452639129693
 30
0.0
 40
0.0141380616461162
 50
142.2432570289163039
 51
201.0840122144786051
  0
ARC
  5
4E71
  8
0
 10
-10.4201585541225796
 20
-6.5871263795181019
 30
0.0
 40
0.0383798599857378
 50
191.1660939523314937
 51
237.0857252520384861
  0
ARC
  5
4E72
  8
0
 10
-10.4048180104317503
 20
-6.5639221670884504
 30
0.0
 40
0.0661957850697034
 50
236.8525800400466039
 51
270.5612916271606991
  0
ARC
  5
4E73
  8
0
 10
-10.4048751710609402
 20
-6.5580874852943296
 30
0.0
 40
0.0720307468498838
 50
270.5612916271604149
 51
298.4556179892563819
  0
ARC
  5
4E74
  8
0
 10
-10.3899057022783197
 20
-6.5857088188238793
 30
0.0
 40
0.0406138236780565
 50
298.4556179892567229
 51
332.9437741911260105
  0
ARC
  5
4E75
  8
0
 10
-10.3806048351566709
 20
-6.5904593498208843
 30
0.0
 40
0.0301699894219883
 50
332.9437741911266926
 51
19.715712542526969
  0
ARC
  5
4E76
  8
0
 10
-10.3814807187813205
 20
-6.5907732325808377
 30
0.0
 40
0.0311004164803505
 50
19.7157125425268589
 51
54.8331801483434305
  0
ARC
  5
4E77
  8
0
 10
-10.4047148177357194
 20
-6.6237501941666093
 30
0.0
 40
0.0714402646413492
 50
54.8331801483434305
 51
104.294939247249701
  0
ARC
  5
4E78
  8
0
 10
-10.4108719980651205
 20
-6.6062443043707271
 30
0.0
 40
0.0529816253121694
 50
102.5166793028133014
 51
141.0664828003309026
  0
ARC
  5
4E79
  8
0
 10
-10.4288372929273603
 20
-6.5906741330115111
 30
0.0
 40
0.029233837479575
 50
142.6776240063616967
 51
187.636168006965903
  0
ARC
  5
4E7A
  8
0
 10
-10.4260079999207704
 20
-6.5524037119946632
 30
0.0
 40
0.0528902266416446
 50
207.4387534367899946
 51
233.0688354146961103
  0
ARC
  5
4E7B
  8
0
 10
-10.4406251787600208
 20
-6.559993085368002
 30
0.0
 40
0.0364202386204419
 50
164.4484521359381972
 51
207.4387534367903925
  0
ARC
  5
4E7C
  8
0
 10
-10.4335476136372698
 20
-6.5619627268661276
 30
0.0
 40
0.0437667626759333
 50
137.0346300022756054
 51
164.448452135937913
  0
ARC
  5
4E7D
  8
0
 10
-10.4095761735091106
 20
-6.587743949659373
 30
0.0
 40
0.0789200915161391
 50
96.4644944651972338
 51
135.1990434438525881
  0
ARC
  5
4E7E
  8
0
 10
-10.4041584700652905
 20
-6.604908085346719
 30
0.0
 40
0.0966466853071577
 50
61.6197181887614533
 51
98.5106869862444512
  0
ARC
  5
4E7F
  8
0
 10
-10.3889376804230107
 20
-6.5744559881913327
 30
0.0
 40
0.0626291568741701
 50
40.9102408543890874
 51
60.628804821972011
  0
ARC
  5
4E80
  8
0
 10
-10.3740030170915194
 20
-6.5614327448591983
 30
0.0
 40
0.042813924073279
 50
8.5372227153911826
 51
40.8275525468781382
  0
ARC
  5
4E81
  8
0
 10
-10.37016200027632
 20
-6.5597184144975946
 30
0.0
 40
0.038777297864841
 50
324.0143525887010014
 51
6.8745443542275169
  0
ARC
  5
4E82
  8
0
 10
-10.3827936745012792
 20
-6.551681961888395
 30
0.0
 40
0.0537283420409773
 50
306.6125708400750796
 51
324.9947844543247015
  0
LINE
  5
4E83
  8
0
 10
-10.4697806649850005
 20
-6.5374128693275599
 30
0.0
 11
-10.4578153338480995
 21
-6.5945329408816029
 31
0.0
  0
LINE
  5
4E84
  8
0
 10
-10.3505627027587295
 20
-6.5932339746077133
 30
0.0
 11
-10.3385317615450205
 21
-6.537457296489932
 31
0.0
  0
ARC
  5
4E85
  8
0
 10
-9.3633092280730281
 20
-6.602755711558828
 30
0.0
 40
0.0262174629962694
 50
97.8569376147588628
 51
141.649035104387309
  0
ARC
  5
4E86
  8
0
 10
-9.3599049142082347
 20
-6.6119063305518671
 30
0.0
 40
0.0358104449869578
 50
60.7874222569299505
 51
101.2532159677120944
  0
ARC
  5
4E87
  8
0
 10
-9.3498241698143723
 20
-6.595939915895328
 30
0.0
 40
0.0169846297549829
 50
15.5783125429725207
 51
64.1837006098832887
  0
ARC
  5
4E88
  8
0
 10
-9.3472393537876162
 20
-6.5952192768514752
 30
0.0
 40
0.0143012374013211
 50
327.7979882057106238
 51
15.5783125429716698
  0
ARC
  5
4E89
  8
0
 10
-9.3526928237210498
 20
-6.5917847761244532
 30
0.0
 40
0.0207460903522246
 50
294.5421888526400949
 51
327.7979882057106806
  0
ARC
  5
4E8A
  8
0
 10
-9.3597424878993039
 20
-6.576345836116289
 30
0.0
 40
0.0377183805218454
 50
241.4464821965669046
 51
294.5421888526399812
  0
ARC
  5
4E8B
  8
0
 10
-9.3692504991677446
 20
-6.5938184747034621
 30
0.0
 40
0.017826287181054
 50
201.0840122144792019
 51
241.4464821965675867
  0
ARC
  5
4E8C
  8
0
 10
-9.3726918125783634
 20
-6.5951452639129693
 30
0.0
 40
0.0141380616461162
 50
142.2432570289163039
 51
201.0840122144786051
  0
ARC
  5
4E8D
  8
0
 10
-9.3758591218502758
 20
-6.5871263795181019
 30
0.0
 40
0.0383798599857378
 50
191.1660939523314937
 51
237.0857252520384861
  0
ARC
  5
4E8E
  8
0
 10
-9.3605185781594393
 20
-6.5639221670884504
 30
0.0
 40
0.0661957850697034
 50
236.8525800400466039
 51
270.5612916271606991
  0
ARC
  5
4E8F
  8
0
 10
-9.3605757387886364
 20
-6.5580874852943296
 30
0.0
 40
0.0720307468498838
 50
270.5612916271604149
 51
298.4556179892563819
  0
ARC
  5
4E90
  8
0
 10
-9.3456062700060123
 20
-6.5857088188238793
 30
0.0
 40
0.0406138236780565
 50
298.4556179892567229
 51
332.9437741911260105
  0
ARC
  5
4E91
  8
0
 10
-9.3363054028843564
 20
-6.5904593498208843
 30
0.0
 40
0.0301699894219883
 50
332.9437741911266926
 51
19.715712542526969
  0
ARC
  5
4E92
  8
0
 10
-9.3371812865090096
 20
-6.5907732325808377
 30
0.0
 40
0.0311004164803505
 50
19.7157125425268589
 51
54.8331801483434305
  0
ARC
  5
4E93
  8
0
 10
-9.3604153854634138
 20
-6.6237501941666093
 30
0.0
 40
0.0714402646413492
 50
54.8331801483434305
 51
104.2949392472498005
  0
ARC
  5
4E94
  8
0
 10
-9.3665725657928096
 20
-6.6062443043707271
 30
0.0
 40
0.0529816253121694
 50
102.5166793028133014
 51
141.0664828003309026
  0
ARC
  5
4E95
  8
0
 10
-9.3845378606550547
 20
-6.5906741330115111
 30
0.0
 40
0.029233837479575
 50
142.6776240063616967
 51
187.636168006965903
  0
ARC
  5
4E96
  8
0
 10
-9.3817085676484595
 20
-6.5524037119946632
 30
0.0
 40
0.0528902266416446
 50
207.4387534367899946
 51
233.0688354146961103
  0
ARC
  5
4E97
  8
0
 10
-9.3963257464877081
 20
-6.559993085368002
 30
0.0
 40
0.0364202386204419
 50
164.4484521359381972
 51
207.4387534367903925
  0
ARC
  5
4E98
  8
0
 10
-9.3892481813649589
 20
-6.5619627268661276
 30
0.0
 40
0.0437667626759333
 50
137.0346300022756054
 51
164.448452135937913
  0
ARC
  5
4E99
  8
0
 10
-9.3652767412368032
 20
-6.587743949659373
 30
0.0
 40
0.0789200915161391
 50
96.4644944651972338
 51
135.1990434438525881
  0
ARC
  5
4E9A
  8
0
 10
-9.3598590377929831
 20
-6.604908085346719
 30
0.0
 40
0.0966466853071577
 50
61.6197181887614533
 51
98.5106869862444512
  0
ARC
  5
4E9B
  8
0
 10
-9.3446382481506998
 20
-6.5744559881913327
 30
0.0
 40
0.0626291568741701
 50
40.9102408543890874
 51
60.628804821972011
  0
ARC
  5
4E9C
  8
0
 10
-9.329703584819212
 20
-6.5614327448591983
 30
0.0
 40
0.042813924073279
 50
8.5372227153911826
 51
40.8275525468781382
  0
ARC
  5
4E9D
  8
0
 10
-9.3258625680040108
 20
-6.5597184144975946
 30
0.0
 40
0.038777297864841
 50
324.0143525887010014
 51
6.8745443542275169
  0
ARC
  5
4E9E
  8
0
 10
-9.3384942422289718
 20
-6.551681961888395
 30
0.0
 40
0.0537283420409773
 50
306.6125708400750796
 51
324.9947844543247015
  0
LINE
  5
4E9F
  8
0
 10
-9.4254812327126931
 20
-6.5374128693275599
 30
0.0
 11
-9.4135159015757921
 21
-6.5945329408816029
 31
0.0
  0
LINE
  5
4EA0
  8
0
 10
-9.3062632704864185
 20
-6.5932339746077133
 30
0.0
 11
-9.2942323292727114
 21
-6.537457296489932
 31
0.0
  0
ARC
  5
4EA1
  8
0
 10
-8.3226511478959182
 20
-6.602755711558828
 30
0.0
 40
0.0262174629962694
 50
97.8569376147588628
 51
141.649035104387309
  0
ARC
  5
4EA2
  8
0
 10
-8.3192468340311247
 20
-6.6119063305518671
 30
0.0
 40
0.0358104449869578
 50
60.7874222569299505
 51
101.2532159677120944
  0
ARC
  5
4EA3
  8
0
 10
-8.3091660896372623
 20
-6.595939915895328
 30
0.0
 40
0.0169846297549829
 50
15.5783125429725207
 51
64.1837006098832887
  0
ARC
  5
4EA4
  8
0
 10
-8.306581273610508
 20
-6.5952192768514752
 30
0.0
 40
0.0143012374013211
 50
327.7979882057106238
 51
15.5783125429716698
  0
ARC
  5
4EA5
  8
0
 10
-8.3120347435439381
 20
-6.5917847761244532
 30
0.0
 40
0.0207460903522246
 50
294.5421888526400949
 51
327.7979882057106806
  0
ARC
  5
4EA6
  8
0
 10
-8.3190844077221922
 20
-6.576345836116289
 30
0.0
 40
0.0377183805218454
 50
241.4464821965669046
 51
294.5421888526399812
  0
ARC
  5
4EA7
  8
0
 10
-8.3285924189906346
 20
-6.5938184747034621
 30
0.0
 40
0.017826287181054
 50
201.0840122144792019
 51
241.4464821965675867
  0
ARC
  5
4EA8
  8
0
 10
-8.3320337324012534
 20
-6.5951452639129693
 30
0.0
 40
0.0141380616461162
 50
142.2432570289163039
 51
201.0840122144786051
  0
ARC
  5
4EA9
  8
0
 10
-8.3352010416731641
 20
-6.5871263795181019
 30
0.0
 40
0.0383798599857378
 50
191.1660939523314937
 51
237.0857252520384861
  0
ARC
  5
4EAA
  8
0
 10
-8.3198604979823294
 20
-6.5639221670884504
 30
0.0
 40
0.0661957850697034
 50
236.8525800400466039
 51
270.5612916271606991
  0
ARC
  5
4EAB
  8
0
 10
-8.3199176586115264
 20
-6.5580874852943296
 30
0.0
 40
0.0720307468498838
 50
270.5612916271604149
 51
298.4556179892563819
  0
ARC
  5
4EAC
  8
0
 10
-8.3049481898289024
 20
-6.5857088188238793
 30
0.0
 40
0.0406138236780565
 50
298.4556179892567229
 51
332.9437741911260105
  0
ARC
  5
4EAD
  8
0
 10
-8.2956473227072465
 20
-6.5904593498208843
 30
0.0
 40
0.0301699894219883
 50
332.9437741911266926
 51
19.715712542526969
  0
ARC
  5
4EAE
  8
0
 10
-8.2965232063318997
 20
-6.5907732325808377
 30
0.0
 40
0.0311004164803505
 50
19.7157125425268589
 51
54.8331801483434305
  0
ARC
  5
4EAF
  8
0
 10
-8.3197573052863039
 20
-6.6237501941666093
 30
0.0
 40
0.0714402646413492
 50
54.8331801483434305
 51
104.2949392472498005
  0
ARC
  5
4EB0
  8
0
 10
-8.3259144856156997
 20
-6.6062443043707271
 30
0.0
 40
0.0529816253121694
 50
102.5166793028133014
 51
141.0664828003309026
  0
ARC
  5
4EB1
  8
0
 10
-8.3438797804779448
 20
-6.5906741330115111
 30
0.0
 40
0.029233837479575
 50
142.6776240063616967
 51
187.636168006965903
  0
ARC
  5
4EB2
  8
0
 10
-8.3410504874713496
 20
-6.5524037119946632
 30
0.0
 40
0.0528902266416446
 50
207.4387534367899946
 51
233.0688354146961103
  0
ARC
  5
4EB3
  8
0
 10
-8.3556676663105982
 20
-6.559993085368002
 30
0.0
 40
0.0364202386204419
 50
164.4484521359381972
 51
207.4387534367903925
  0
ARC
  5
4EB4
  8
0
 10
-8.3485901011878472
 20
-6.5619627268661276
 30
0.0
 40
0.0437667626759333
 50
137.0346300022756054
 51
164.448452135937913
  0
ARC
  5
4EB5
  8
0
 10
-8.3246186610596951
 20
-6.587743949659373
 30
0.0
 40
0.0789200915161391
 50
96.4644944651972338
 51
135.1990434438525881
  0
ARC
  5
4EB6
  8
0
 10
-8.3192009576158732
 20
-6.604908085346719
 30
0.0
 40
0.0966466853071577
 50
61.6197181887614533
 51
98.5106869862444512
  0
ARC
  5
4EB7
  8
0
 10
-8.3039801679735898
 20
-6.5744559881913327
 30
0.0
 40
0.0626291568741701
 50
40.9102408543890306
 51
60.6288048219719471
  0
ARC
  5
4EB8
  8
0
 10
-8.2890455046421021
 20
-6.5614327448591983
 30
0.0
 40
0.042813924073279
 50
8.5372227153911826
 51
40.8275525468781382
  0
ARC
  5
4EB9
  8
0
 10
-8.2852044878269009
 20
-6.5597184144975946
 30
0.0
 40
0.038777297864841
 50
324.0143525887010014
 51
6.8745443542275169
  0
ARC
  5
4EBA
  8
0
 10
-8.2978361620518601
 20
-6.551681961888395
 30
0.0
 40
0.0537283420409773
 50
306.6125708400750796
 51
324.9947844543247015
  0
LINE
  5
4EBB
  8
0
 10
-8.3848231525355832
 20
-6.5374128693275599
 30
0.0
 11
-8.3728578213986822
 21
-6.5945329408816029
 31
0.0
  0
LINE
  5
4EBC
  8
0
 10
-8.2656051903093086
 20
-6.5932339746077133
 30
0.0
 11
-8.2535742490956014
 21
-6.537457296489932
 31
0.0
  0
ARC
  5
4EBD
  8
0
 10
-7.276439025436054
 20
-6.602755711558828
 30
0.0
 40
0.0262174629962694
 50
97.8569376147588628
 51
141.649035104387309
  0
ARC
  5
4EBE
  8
0
 10
-7.2730347115712606
 20
-6.6119063305518671
 30
0.0
 40
0.0358104449869578
 50
60.7874222569299505
 51
101.2532159677120944
  0
ARC
  5
4EBF
  8
0
 10
-7.2629539671773991
 20
-6.595939915895328
 30
0.0
 40
0.0169846297549829
 50
15.5783125429725207
 51
64.1837006098832887
  0
ARC
  5
4EC0
  8
0
 10
-7.2603691511506439
 20
-6.5952192768514752
 30
0.0
 40
0.0143012374013211
 50
327.7979882057106238
 51
15.5783125429716698
  0
ARC
  5
4EC1
  8
0
 10
-7.2658226210840766
 20
-6.5917847761244532
 30
0.0
 40
0.0207460903522246
 50
294.5421888526400949
 51
327.7979882057106806
  0
ARC
  5
4EC2
  8
0
 10
-7.2728722852623298
 20
-6.576345836116289
 30
0.0
 40
0.0377183805218454
 50
241.4464821965669046
 51
294.5421888526399812
  0
ARC
  5
4EC3
  8
0
 10
-7.2823802965307696
 20
-6.5938184747034621
 30
0.0
 40
0.017826287181054
 50
201.0840122144792019
 51
241.4464821965675867
  0
ARC
  5
4EC4
  8
0
 10
-7.2858216099413893
 20
-6.5951452639129693
 30
0.0
 40
0.0141380616461162
 50
142.2432570289163039
 51
201.0840122144786051
  0
ARC
  5
4EC5
  8
0
 10
-7.2889889192133008
 20
-6.5871263795181019
 30
0.0
 40
0.0383798599857378
 50
191.1660939523314937
 51
237.0857252520384861
  0
ARC
  5
4EC6
  8
0
 10
-7.273648375522467
 20
-6.5639221670884504
 30
0.0
 40
0.0661957850697034
 50
236.8525800400466039
 51
270.5612916271606991
  0
ARC
  5
4EC7
  8
0
 10
-7.2737055361516632
 20
-6.5580874852943296
 30
0.0
 40
0.0720307468498838
 50
270.5612916271604149
 51
298.4556179892563819
  0
ARC
  5
4EC8
  8
0
 10
-7.2587360673690391
 20
-6.5857088188238793
 30
0.0
 40
0.0406138236780565
 50
298.4556179892567229
 51
332.9437741911260105
  0
ARC
  5
4EC9
  8
0
 10
-7.2494352002473832
 20
-6.5904593498208843
 30
0.0
 40
0.0301699894219883
 50
332.9437741911266926
 51
19.715712542526969
  0
ARC
  5
4ECA
  8
0
 10
-7.2503110838720364
 20
-6.5907732325808377
 30
0.0
 40
0.0311004164803505
 50
19.7157125425268589
 51
54.8331801483434305
  0
ARC
  5
4ECB
  8
0
 10
-7.2735451828264397
 20
-6.6237501941666093
 30
0.0
 40
0.0714402646413492
 50
54.8331801483434305
 51
104.294939247249701
  0
ARC
  5
4ECC
  8
0
 10
-7.2797023631558364
 20
-6.6062443043707271
 30
0.0
 40
0.0529816253121694
 50
102.5166793028133014
 51
141.0664828003309026
  0
ARC
  5
4ECD
  8
0
 10
-7.2976676580180806
 20
-6.5906741330115111
 30
0.0
 40
0.029233837479575
 50
142.6776240063616967
 51
187.636168006965903
  0
ARC
  5
4ECE
  8
0
 10
-7.2948383650114872
 20
-6.5524037119946632
 30
0.0
 40
0.0528902266416446
 50
207.4387534367899946
 51
233.0688354146961103
  0
ARC
  5
4ECF
  8
0
 10
-7.3094555438507358
 20
-6.559993085368002
 30
0.0
 40
0.0364202386204419
 50
164.4484521359381972
 51
207.4387534367903925
  0
ARC
  5
4ED0
  8
0
 10
-7.3023779787279848
 20
-6.5619627268661276
 30
0.0
 40
0.0437667626759333
 50
137.0346300022756054
 51
164.448452135937913
  0
ARC
  5
4ED1
  8
0
 10
-7.2784065385998318
 20
-6.587743949659373
 30
0.0
 40
0.0789200915161391
 50
96.4644944651972338
 51
135.1990434438525881
  0
ARC
  5
4ED2
  8
0
 10
-7.2729888351560108
 20
-6.604908085346719
 30
0.0
 40
0.0966466853071577
 50
61.6197181887614533
 51
98.5106869862444512
  0
ARC
  5
4ED3
  8
0
 10
-7.2577680455137257
 20
-6.5744559881913327
 30
0.0
 40
0.0626291568741701
 50
40.9102408543890306
 51
60.6288048219719471
  0
ARC
  5
4ED4
  8
0
 10
-7.2428333821822379
 20
-6.5614327448591983
 30
0.0
 40
0.042813924073279
 50
8.5372227153911826
 51
40.8275525468781382
  0
ARC
  5
4ED5
  8
0
 10
-7.2389923653670367
 20
-6.5597184144975946
 30
0.0
 40
0.038777297864841
 50
324.0143525887010014
 51
6.8745443542275169
  0
ARC
  5
4ED6
  8
0
 10
-7.2516240395919978
 20
-6.551681961888395
 30
0.0
 40
0.0537283420409773
 50
306.6125708400750796
 51
324.9947844543247015
  0
LINE
  5
4ED7
  8
0
 10
-7.338611030075719
 20
-6.5374128693275599
 30
0.0
 11
-7.326645698938818
 21
-6.5945329408816029
 31
0.0
  0
LINE
  5
4ED8
  8
0
 10
-7.2193930678494453
 20
-6.5932339746077133
 30
0.0
 11
-7.2073621266357382
 21
-6.537457296489932
 31
0.0
  0
ARC
  5
4ED9
  8
0
 10
-6.2338759945785034
 20
-6.602755711558828
 30
0.0
 40
0.0262174629962694
 50
97.8569376147588628
 51
141.649035104387309
  0
ARC
  5
4EDA
  8
0
 10
-6.2304716807137099
 20
-6.6119063305518671
 30
0.0
 40
0.0358104449869578
 50
60.7874222569299505
 51
101.2532159677120944
  0
ARC
  5
4EDB
  8
0
 10
-6.2203909363198484
 20
-6.595939915895328
 30
0.0
 40
0.0169846297549829
 50
15.5783125429725207
 51
64.1837006098832887
  0
ARC
  5
4EDC
  8
0
 10
-6.2178061202930941
 20
-6.5952192768514752
 30
0.0
 40
0.0143012374013211
 50
327.7979882057106238
 51
15.5783125429716698
  0
ARC
  5
4EDD
  8
0
 10
-6.223259590226526
 20
-6.5917847761244532
 30
0.0
 40
0.0207460903522246
 50
294.5421888526400949
 51
327.7979882057106806
  0
ARC
  5
4EDE
  8
0
 10
-6.23030925440478
 20
-6.576345836116289
 30
0.0
 40
0.0377183805218454
 50
241.4464821965669046
 51
294.5421888526399812
  0
ARC
  5
4EDF
  8
0
 10
-6.2398172656732189
 20
-6.5938184747034621
 30
0.0
 40
0.017826287181054
 50
201.0840122144792019
 51
241.4464821965675867
  0
ARC
  5
4EE0
  8
0
 10
-6.2432585790838377
 20
-6.5951452639129693
 30
0.0
 40
0.0141380616461162
 50
142.2432570289163039
 51
201.0840122144786051
  0
ARC
  5
4EE1
  8
0
 10
-6.2464258883557511
 20
-6.5871263795181019
 30
0.0
 40
0.0383798599857378
 50
191.1660939523314937
 51
237.0857252520384861
  0
ARC
  5
4EE2
  8
0
 10
-6.2310853446649164
 20
-6.5639221670884504
 30
0.0
 40
0.0661957850697034
 50
236.8525800400466039
 51
270.5612916271606991
  0
ARC
  5
4EE3
  8
0
 10
-6.2311425052941116
 20
-6.5580874852943296
 30
0.0
 40
0.0720307468498838
 50
270.5612916271604149
 51
298.4556179892563819
  0
ARC
  5
4EE4
  8
0
 10
-6.2161730365114893
 20
-6.5857088188238793
 30
0.0
 40
0.0406138236780565
 50
298.4556179892567229
 51
332.9437741911260105
  0
ARC
  5
4EE5
  8
0
 10
-6.2068721693898317
 20
-6.5904593498208843
 30
0.0
 40
0.0301699894219883
 50
332.9437741911266926
 51
19.715712542526969
  0
ARC
  5
4EE6
  8
0
 10
-6.2077480530144848
 20
-6.5907732325808377
 30
0.0
 40
0.0311004164803505
 50
19.7157125425268589
 51
54.8331801483434305
  0
ARC
  5
4EE7
  8
0
 10
-6.230982151968889
 20
-6.6237501941666093
 30
0.0
 40
0.0714402646413492
 50
54.8331801483434305
 51
104.294939247249701
  0
ARC
  5
4EE8
  8
0
 10
-6.2371393322982849
 20
-6.6062443043707271
 30
0.0
 40
0.0529816253121694
 50
102.5166793028133014
 51
141.0664828003309026
  0
ARC
  5
4EE9
  8
0
 10
-6.25510462716053
 20
-6.5906741330115111
 30
0.0
 40
0.029233837479575
 50
142.6776240063616967
 51
187.636168006965903
  0
ARC
  5
4EEA
  8
0
 10
-6.2522753341539357
 20
-6.5524037119946632
 30
0.0
 40
0.0528902266416446
 50
207.4387534367899946
 51
233.0688354146961103
  0
ARC
  5
4EEB
  8
0
 10
-6.2668925129931861
 20
-6.559993085368002
 30
0.0
 40
0.0364202386204419
 50
164.4484521359381972
 51
207.4387534367903925
  0
ARC
  5
4EEC
  8
0
 10
-6.259814947870435
 20
-6.5619627268661276
 30
0.0
 40
0.0437667626759333
 50
137.0346300022756054
 51
164.448452135937913
  0
ARC
  5
4EED
  8
0
 10
-6.235843507742282
 20
-6.587743949659373
 30
0.0
 40
0.0789200915161391
 50
96.4644944651972338
 51
135.1990434438525881
  0
ARC
  5
4EEE
  8
0
 10
-6.230425804298461
 20
-6.604908085346719
 30
0.0
 40
0.0966466853071577
 50
61.6197181887614533
 51
98.5106869862444512
  0
ARC
  5
4EEF
  8
0
 10
-6.215205014656175
 20
-6.5744559881913327
 30
0.0
 40
0.0626291568741701
 50
40.9102408543890306
 51
60.6288048219719471
  0
ARC
  5
4EF0
  8
0
 10
-6.2002703513246882
 20
-6.5614327448591983
 30
0.0
 40
0.042813924073279
 50
8.5372227153911826
 51
40.8275525468781382
  0
ARC
  5
4EF1
  8
0
 10
-6.1964293345094861
 20
-6.5597184144975946
 30
0.0
 40
0.038777297864841
 50
324.0143525887010014
 51
6.8745443542275169
  0
ARC
  5
4EF2
  8
0
 10
-6.2090610087344471
 20
-6.551681961888395
 30
0.0
 40
0.0537283420409773
 50
306.6125708400750796
 51
324.9947844543247015
  0
LINE
  5
4EF3
  8
0
 10
-6.2960479992181693
 20
-6.5374128693275599
 30
0.0
 11
-6.2840826680812674
 21
-6.5945329408816029
 31
0.0
  0
LINE
  5
4EF4
  8
0
 10
-6.1768300369918938
 20
-6.5932339746077133
 30
0.0
 11
-6.1647990957781866
 21
-6.537457296489932
 31
0.0
  0
ARC
  5
4EF5
  8
0
 10
-5.1914504689637146
 20
-6.602755711558828
 30
0.0
 40
0.0262174629962694
 50
97.8569376147588628
 51
141.649035104387309
  0
ARC
  5
4EF6
  8
0
 10
-5.1880461550989221
 20
-6.6119063305518671
 30
0.0
 40
0.0358104449869578
 50
60.7874222569299505
 51
101.2532159677120944
  0
ARC
  5
4EF7
  8
0
 10
-5.1779654107050588
 20
-6.595939915895328
 30
0.0
 40
0.0169846297549829
 50
15.5783125429725207
 51
64.1837006098832887
  0
ARC
  5
4EF8
  8
0
 10
-5.1753805946783054
 20
-6.5952192768514752
 30
0.0
 40
0.0143012374013211
 50
327.7979882057106238
 51
15.5783125429716698
  0
ARC
  5
4EF9
  8
0
 10
-5.1808340646117372
 20
-6.5917847761244532
 30
0.0
 40
0.0207460903522246
 50
294.5421888526400949
 51
327.7979882057106806
  0
ARC
  5
4EFA
  8
0
 10
-5.1878837287899913
 20
-6.576345836116289
 30
0.0
 40
0.0377183805218454
 50
241.4464821965669046
 51
294.5421888526399812
  0
ARC
  5
4EFB
  8
0
 10
-5.1973917400584311
 20
-6.5938184747034621
 30
0.0
 40
0.017826287181054
 50
201.0840122144792019
 51
241.4464821965675867
  0
ARC
  5
4EFC
  8
0
 10
-5.2008330534690499
 20
-6.5951452639129693
 30
0.0
 40
0.0141380616461162
 50
142.2432570289163039
 51
201.0840122144786051
  0
ARC
  5
4EFD
  8
0
 10
-5.2040003627409632
 20
-6.5871263795181019
 30
0.0
 40
0.0383798599857378
 50
191.1660939523314937
 51
237.0857252520384861
  0
ARC
  5
4EFE
  8
0
 10
-5.1886598190501259
 20
-6.5639221670884504
 30
0.0
 40
0.0661957850697034
 50
236.8525800400466039
 51
270.5612916271606991
  0
ARC
  5
4EFF
  8
0
 10
-5.1887169796793229
 20
-6.5580874852943296
 30
0.0
 40
0.0720307468498838
 50
270.5612916271604149
 51
298.4556179892563819
  0
ARC
  5
4F00
  8
0
 10
-5.1737475108966988
 20
-6.5857088188238793
 30
0.0
 40
0.0406138236780565
 50
298.4556179892567229
 51
332.9437741911260105
  0
ARC
  5
4F01
  8
0
 10
-5.1644466437750429
 20
-6.5904593498208843
 30
0.0
 40
0.0301699894219883
 50
332.9437741911266926
 51
19.7157125425269193
  0
ARC
  5
4F02
  8
0
 10
-5.1653225273996961
 20
-6.5907732325808377
 30
0.0
 40
0.0311004164803505
 50
19.7157125425268589
 51
54.8331801483434305
  0
ARC
  5
4F03
  8
0
 10
-5.1885566263541012
 20
-6.6237501941666093
 30
0.0
 40
0.0714402646413492
 50
54.8331801483434305
 51
104.294939247249701
  0
ARC
  5
4F04
  8
0
 10
-5.194713806683497
 20
-6.6062443043707271
 30
0.0
 40
0.0529816253121694
 50
102.5166793028133014
 51
141.0664828003309026
  0
ARC
  5
4F05
  8
0
 10
-5.2126791015457421
 20
-6.5906741330115111
 30
0.0
 40
0.029233837479575
 50
142.6776240063616967
 51
187.636168006965903
  0
ARC
  5
4F06
  8
0
 10
-5.209849808539146
 20
-6.5524037119946632
 30
0.0
 40
0.0528902266416446
 50
207.4387534367899946
 51
233.0688354146961103
  0
ARC
  5
4F07
  8
0
 10
-5.2244669873783973
 20
-6.559993085368002
 30
0.0
 40
0.0364202386204419
 50
164.4484521359381972
 51
207.4387534367903925
  0
ARC
  5
4F08
  8
0
 10
-5.2173894222556463
 20
-6.5619627268661276
 30
0.0
 40
0.0437667626759333
 50
137.0346300022756054
 51
164.448452135937913
  0
ARC
  5
4F09
  8
0
 10
-5.1934179821274924
 20
-6.587743949659373
 30
0.0
 40
0.0789200915161391
 50
96.4644944651972338
 51
135.1990434438525881
  0
ARC
  5
4F0A
  8
0
 10
-5.1880002786836723
 20
-6.604908085346719
 30
0.0
 40
0.0966466853071577
 50
61.6197181887614533
 51
98.5106869862444512
  0
ARC
  5
4F0B
  8
0
 10
-5.1727794890413872
 20
-6.5744559881913327
 30
0.0
 40
0.0626291568741701
 50
40.9102408543890306
 51
60.6288048219719471
  0
ARC
  5
4F0C
  8
0
 10
-5.1578448257098994
 20
-6.5614327448591983
 30
0.0
 40
0.042813924073279
 50
8.5372227153911826
 51
40.8275525468781382
  0
ARC
  5
4F0D
  8
0
 10
-5.1540038088946982
 20
-6.5597184144975946
 30
0.0
 40
0.038777297864841
 50
324.0143525887010014
 51
6.8745443542275169
  0
ARC
  5
4F0E
  8
0
 10
-5.1666354831196593
 20
-6.551681961888395
 30
0.0
 40
0.0537283420409773
 50
306.6125708400750796
 51
324.9947844543247015
  0
LINE
  5
4F0F
  8
0
 10
-5.2536224736033796
 20
-6.5374128693275599
 30
0.0
 11
-5.2416571424664786
 21
-6.5945329408816029
 31
0.0
  0
LINE
  5
4F10
  8
0
 10
-5.1344045113771051
 20
-6.5932339746077133
 30
0.0
 11
-5.1223735701633979
 21
-6.537457296489932
 31
0.0
  0
ARC
  5
4F11
  8
0
 10
-4.1490645868241884
 20
-6.602755711558828
 30
0.0
 40
0.0262174629962694
 50
97.8569376147588628
 51
141.649035104387309
  0
ARC
  5
4F12
  8
0
 10
-4.1456602729593941
 20
-6.6119063305518671
 30
0.0
 40
0.0358104449869578
 50
60.7874222569300073
 51
101.2532159677120944
  0
ARC
  5
4F13
  8
0
 10
-4.1355795285655317
 20
-6.595939915895328
 30
0.0
 40
0.0169846297549829
 50
15.5783125429725207
 51
64.1837006098832177
  0
ARC
  5
4F14
  8
0
 10
-4.1329947125387783
 20
-6.5952192768514752
 30
0.0
 40
0.0143012374013211
 50
327.7979882057106238
 51
15.5783125429716698
  0
ARC
  5
4F15
  8
0
 10
-4.1384481824722101
 20
-6.5917847761244532
 30
0.0
 40
0.0207460903522246
 50
294.5421888526400949
 51
327.7979882057106806
  0
ARC
  5
4F16
  8
0
 10
-4.1454978466504642
 20
-6.576345836116289
 30
0.0
 40
0.0377183805218454
 50
241.4464821965669046
 51
294.5421888526399812
  0
ARC
  5
4F17
  8
0
 10
-4.155005857918904
 20
-6.5938184747034621
 30
0.0
 40
0.017826287181054
 50
201.0840122144792019
 51
241.4464821965675867
  0
ARC
  5
4F18
  8
0
 10
-4.1584471713295228
 20
-6.5951452639129693
 30
0.0
 40
0.0141380616461162
 50
142.2432570289163039
 51
201.0840122144786051
  0
ARC
  5
4F19
  8
0
 10
-4.1616144806014361
 20
-6.5871263795181019
 30
0.0
 40
0.0383798599857378
 50
191.1660939523314937
 51
237.0857252520384861
  0
ARC
  5
4F1A
  8
0
 10
-4.1462739369105988
 20
-6.5639221670884504
 30
0.0
 40
0.0661957850697034
 50
236.8525800400466039
 51
270.5612916271606991
  0
ARC
  5
4F1B
  8
0
 10
-4.1463310975397958
 20
-6.5580874852943296
 30
0.0
 40
0.0720307468498838
 50
270.5612916271604149
 51
298.4556179892563819
  0
ARC
  5
4F1C
  8
0
 10
-4.1313616287571717
 20
-6.5857088188238793
 30
0.0
 40
0.0406138236780565
 50
298.4556179892566092
 51
332.9437741911260105
  0
ARC
  5
4F1D
  8
0
 10
-4.1220607616355158
 20
-6.5904593498208843
 30
0.0
 40
0.0301699894219883
 50
332.9437741911266926
 51
19.7157125425269193
  0
ARC
  5
4F1E
  8
0
 10
-4.122936645260169
 20
-6.5907732325808377
 30
0.0
 40
0.0311004164803505
 50
19.7157125425268589
 51
54.8331801483434305
  0
ARC
  5
4F1F
  8
0
 10
-4.1461707442145741
 20
-6.6237501941666093
 30
0.0
 40
0.0714402646413492
 50
54.8331801483434305
 51
104.294939247249701
  0
ARC
  5
4F20
  8
0
 10
-4.152327924543969
 20
-6.6062443043707271
 30
0.0
 40
0.0529816253121694
 50
102.516679302813202
 51
141.0664828003309026
  0
ARC
  5
4F21
  8
0
 10
-4.170293219406215
 20
-6.5906741330115111
 30
0.0
 40
0.029233837479575
 50
142.6776240063616967
 51
187.636168006965903
  0
ARC
  5
4F22
  8
0
 10
-4.1674639263996189
 20
-6.5524037119946632
 30
0.0
 40
0.0528902266416446
 50
207.4387534367899946
 51
233.0688354146961103
  0
ARC
  5
4F23
  8
0
 10
-4.1820811052388702
 20
-6.559993085368002
 30
0.0
 40
0.0364202386204419
 50
164.4484521359381972
 51
207.4387534367903925
  0
ARC
  5
4F24
  8
0
 10
-4.1750035401161192
 20
-6.5619627268661276
 30
0.0
 40
0.0437667626759333
 50
137.0346300022756054
 51
164.448452135937913
  0
ARC
  5
4F25
  8
0
 10
-4.1510320999879653
 20
-6.587743949659373
 30
0.0
 40
0.0789200915161391
 50
96.4644944651972338
 51
135.1990434438525881
  0
ARC
  5
4F26
  8
0
 10
-4.1456143965441452
 20
-6.604908085346719
 30
0.0
 40
0.0966466853071577
 50
61.6197181887615102
 51
98.5106869862444512
  0
ARC
  5
4F27
  8
0
 10
-4.1303936069018601
 20
-6.5744559881913327
 30
0.0
 40
0.0626291568741701
 50
40.9102408543890306
 51
60.6288048219719471
  0
ARC
  5
4F28
  8
0
 10
-4.1154589435703723
 20
-6.5614327448591983
 30
0.0
 40
0.042813924073279
 50
8.5372227153911826
 51
40.8275525468781382
  0
ARC
  5
4F29
  8
0
 10
-4.1116179267551711
 20
-6.5597184144975946
 30
0.0
 40
0.038777297864841
 50
324.0143525887010014
 51
6.8745443542275169
  0
ARC
  5
4F2A
  8
0
 10
-4.1242496009801322
 20
-6.551681961888395
 30
0.0
 40
0.0537283420409773
 50
306.6125708400750796
 51
324.9947844543247015
  0
LINE
  5
4F2B
  8
0
 10
-4.2112365914638534
 20
-6.5374128693275599
 30
0.0
 11
-4.1992712603269524
 21
-6.5945329408816029
 31
0.0
  0
LINE
  5
4F2C
  8
0
 10
-4.092018629237578
 20
-6.5932339746077133
 30
0.0
 11
-4.0799876880238708
 21
-6.537457296489932
 31
0.0
  0
ARC
  5
4F2D
  8
0
 10
-12.4953390661990102
 20
-7.3432679743391489
 30
0.0
 40
0.0262174629962694
 50
97.8569376147588628
 51
141.649035104387309
  0
ARC
  5
4F2E
  8
0
 10
-12.4919347523342203
 20
-7.3524185933321879
 30
0.0
 40
0.0358104449869578
 50
60.7874222569300073
 51
101.2532159677120944
  0
ARC
  5
4F2F
  8
0
 10
-12.4818540079403597
 20
-7.3364521786756489
 30
0.0
 40
0.0169846297549829
 50
15.5783125429725207
 51
64.1837006098832177
  0
ARC
  5
4F30
  8
0
 10
-12.4792691919136001
 20
-7.3357315396317961
 30
0.0
 40
0.0143012374013211
 50
327.7979882057106238
 51
15.5783125429716698
  0
ARC
  5
4F31
  8
0
 10
-12.4847226618470408
 20
-7.3322970389047741
 30
0.0
 40
0.0207460903522246
 50
294.5421888526400949
 51
327.7979882057106806
  0
ARC
  5
4F32
  8
0
 10
-12.4917723260252895
 20
-7.3168580988966099
 30
0.0
 40
0.0377183805218454
 50
241.4464821965669046
 51
294.5421888526399812
  0
ARC
  5
4F33
  8
0
 10
-12.5012803372937302
 20
-7.3343307374837829
 30
0.0
 40
0.017826287181054
 50
201.0840122144792019
 51
241.4464821965675867
  0
ARC
  5
4F34
  8
0
 10
-12.5047216507043508
 20
-7.3356575266932902
 30
0.0
 40
0.0141380616461162
 50
142.2432570289163039
 51
201.0840122144786903
  0
ARC
  5
4F35
  8
0
 10
-12.5078889599762597
 20
-7.3276386422984228
 30
0.0
 40
0.0383798599857378
 50
191.1660939523314937
 51
237.0857252520384861
  0
ARC
  5
4F36
  8
0
 10
-12.4925484162854197
 20
-7.3044344298687713
 30
0.0
 40
0.0661957850697034
 50
236.8525800400466039
 51
270.5612916271606991
  0
ARC
  5
4F37
  8
0
 10
-12.4926055769146203
 20
-7.2985997480746514
 30
0.0
 40
0.0720307468498838
 50
270.5612916271604149
 51
298.4556179892563819
  0
ARC
  5
4F38
  8
0
 10
-12.4776361081319997
 20
-7.3262210816042002
 30
0.0
 40
0.0406138236780565
 50
298.4556179892567229
 51
332.9437741911260105
  0
ARC
  5
4F39
  8
0
 10
-12.4683352410103403
 20
-7.3309716126012052
 30
0.0
 40
0.0301699894219883
 50
332.9437741911266926
 51
19.715712542526969
  0
ARC
  5
4F3A
  8
0
 10
-12.4692111246350006
 20
-7.3312854953611586
 30
0.0
 40
0.0311004164803505
 50
19.7157125425268589
 51
54.8331801483434305
  0
ARC
  5
4F3B
  8
0
 10
-12.4924452235893995
 20
-7.3642624569469302
 30
0.0
 40
0.0714402646413492
 50
54.8331801483434305
 51
104.294939247249701
  0
ARC
  5
4F3C
  8
0
 10
-12.49860240391879
 20
-7.346756567151048
 30
0.0
 40
0.0529816253121694
 50
102.5166793028133014
 51
141.0664828003309026
  0
ARC
  5
4F3D
  8
0
 10
-12.5165676987810404
 20
-7.331186395791832
 30
0.0
 40
0.029233837479575
 50
142.6776240063616967
 51
187.636168006965903
  0
ARC
  5
4F3E
  8
0
 10
-12.5137384057744505
 20
-7.2929159747749841
 30
0.0
 40
0.0528902266416446
 50
207.4387534367899946
 51
233.0688354146961103
  0
ARC
  5
4F3F
  8
0
 10
-12.5283555846136903
 20
-7.3005053481483229
 30
0.0
 40
0.0364202386204419
 50
164.4484521359381972
 51
207.4387534367903925
  0
ARC
  5
4F40
  8
0
 10
-12.5212780194909392
 20
-7.3024749896464494
 30
0.0
 40
0.0437667626759333
 50
137.0346300022756054
 51
164.448452135937913
  0
ARC
  5
4F41
  8
0
 10
-12.4973065793627907
 20
-7.3282562124396931
 30
0.0
 40
0.0789200915161391
 50
96.4644944651972338
 51
135.1990434438525881
  0
ARC
  5
4F42
  8
0
 10
-12.4918888759189706
 20
-7.3454203481270399
 30
0.0
 40
0.0966466853071577
 50
61.6197181887614533
 51
98.5106869862444512
  0
ARC
  5
4F43
  8
0
 10
-12.4766680862766801
 20
-7.3149682509716536
 30
0.0
 40
0.0626291568741701
 50
40.9102408543890874
 51
60.6288048219719471
  0
ARC
  5
4F44
  8
0
 10
-12.4617334229451995
 20
-7.3019450076395191
 30
0.0
 40
0.042813924073279
 50
8.5372227153911826
 51
40.8275525468781382
  0
ARC
  5
4F45
  8
0
 10
-12.45789240613
 20
-7.3002306772779164
 30
0.0
 40
0.038777297864841
 50
324.0143525887010014
 51
6.8745443542275169
  0
ARC
  5
4F46
  8
0
 10
-12.4705240803549593
 20
-7.2921942246687159
 30
0.0
 40
0.0537283420409773
 50
306.6125708400750796
 51
324.9947844543247015
  0
LINE
  5
4F47
  8
0
 10
-12.5575110708386806
 20
-7.2779251321078808
 30
0.0
 11
-12.5455457397017796
 21
-7.3350452036619238
 31
0.0
  0
LINE
  5
4F48
  8
0
 10
-12.4382931086124007
 20
-7.3337462373880342
 30
0.0
 11
-12.4262621673987006
 21
-7.277969559270252
 31
0.0
  0
ARC
  5
4F49
  8
0
 10
-11.4462273804020693
 20
-7.3432679743391489
 30
0.0
 40
0.0262174629962694
 50
97.8569376147588628
 51
141.649035104387309
  0
ARC
  5
4F4A
  8
0
 10
-11.4428230665372705
 20
-7.3524185933321879
 30
0.0
 40
0.0358104449869578
 50
60.7874222569300073
 51
101.2532159677120944
  0
ARC
  5
4F4B
  8
0
 10
-11.4327423221434099
 20
-7.3364521786756489
 30
0.0
 40
0.0169846297549829
 50
15.5783125429725207
 51
64.1837006098832177
  0
ARC
  5
4F4C
  8
0
 10
-11.4301575061166591
 20
-7.3357315396317961
 30
0.0
 40
0.0143012374013211
 50
327.7979882057106238
 51
15.5783125429716698
  0
ARC
  5
4F4D
  8
0
 10
-11.4356109760500892
 20
-7.3322970389047741
 30
0.0
 40
0.0207460903522246
 50
294.5421888526400949
 51
327.7979882057106806
  0
ARC
  5
4F4E
  8
0
 10
-11.4426606402283504
 20
-7.3168580988966099
 30
0.0
 40
0.0377183805218454
 50
241.4464821965669046
 51
294.5421888526399812
  0
ARC
  5
4F4F
  8
0
 10
-11.4521686514967893
 20
-7.3343307374837829
 30
0.0
 40
0.017826287181054
 50
201.0840122144792019
 51
241.4464821965675867
  0
ARC
  5
4F50
  8
0
 10
-11.4556099649073992
 20
-7.3356575266932902
 30
0.0
 40
0.0141380616461162
 50
142.2432570289163039
 51
201.0840122144786051
  0
ARC
  5
4F51
  8
0
 10
-11.4587772741793206
 20
-7.3276386422984228
 30
0.0
 40
0.0383798599857378
 50
191.1660939523314937
 51
237.0857252520384861
  0
ARC
  5
4F52
  8
0
 10
-11.4434367304884805
 20
-7.3044344298687713
 30
0.0
 40
0.0661957850697034
 50
236.8525800400466039
 51
270.5612916271606991
  0
ARC
  5
4F53
  8
0
 10
-11.4434938911176793
 20
-7.2985997480746514
 30
0.0
 40
0.0720307468498838
 50
270.5612916271604149
 51
298.4556179892563819
  0
ARC
  5
4F54
  8
0
 10
-11.4285244223350499
 20
-7.3262210816042002
 30
0.0
 40
0.0406138236780565
 50
298.4556179892567229
 51
332.9437741911260105
  0
ARC
  5
4F55
  8
0
 10
-11.4192235552133994
 20
-7.3309716126012052
 30
0.0
 40
0.0301699894219883
 50
332.9437741911266926
 51
19.715712542526969
  0
ARC
  5
4F56
  8
0
 10
-11.4200994388380508
 20
-7.3312854953611586
 30
0.0
 40
0.0311004164803505
 50
19.7157125425268589
 51
54.8331801483434305
  0
ARC
  5
4F57
  8
0
 10
-11.4433335377924497
 20
-7.3642624569469302
 30
0.0
 40
0.0714402646413492
 50
54.8331801483434305
 51
104.294939247249701
  0
ARC
  5
4F58
  8
0
 10
-11.4494907181218508
 20
-7.346756567151048
 30
0.0
 40
0.0529816253121694
 50
102.5166793028133014
 51
141.0664828003309026
  0
ARC
  5
4F59
  8
0
 10
-11.4674560129840994
 20
-7.331186395791832
 30
0.0
 40
0.029233837479575
 50
142.6776240063616967
 51
187.636168006965903
  0
ARC
  5
4F5A
  8
0
 10
-11.4646267199775007
 20
-7.2929159747749841
 30
0.0
 40
0.0528902266416446
 50
207.4387534367899946
 51
233.0688354146961103
  0
ARC
  5
4F5B
  8
0
 10
-11.4792438988167493
 20
-7.3005053481483229
 30
0.0
 40
0.0364202386204419
 50
164.4484521359381972
 51
207.4387534367903925
  0
ARC
  5
4F5C
  8
0
 10
-11.4721663336940001
 20
-7.3024749896464494
 30
0.0
 40
0.0437667626759333
 50
137.0346300022756054
 51
164.448452135937913
  0
ARC
  5
4F5D
  8
0
 10
-11.4481948935658497
 20
-7.3282562124396931
 30
0.0
 40
0.0789200915161391
 50
96.4644944651972338
 51
135.1990434438525881
  0
ARC
  5
4F5E
  8
0
 10
-11.4427771901220297
 20
-7.3454203481270399
 30
0.0
 40
0.0966466853071577
 50
61.6197181887614533
 51
98.5106869862444512
  0
ARC
  5
4F5F
  8
0
 10
-11.4275564004797392
 20
-7.3149682509716536
 30
0.0
 40
0.0626291568741701
 50
40.9102408543890874
 51
60.6288048219719471
  0
ARC
  5
4F60
  8
0
 10
-11.4126217371482497
 20
-7.3019450076395191
 30
0.0
 40
0.042813924073279
 50
8.5372227153911826
 51
40.8275525468781382
  0
ARC
  5
4F61
  8
0
 10
-11.4087807203330502
 20
-7.3002306772779164
 30
0.0
 40
0.038777297864841
 50
324.0143525887010014
 51
6.8745443542275169
  0
ARC
  5
4F62
  8
0
 10
-11.4214123945580095
 20
-7.2921942246687159
 30
0.0
 40
0.0537283420409773
 50
306.6125708400750796
 51
324.9947844543247015
  0
LINE
  5
4F63
  8
0
 10
-11.5083993850417308
 20
-7.2779251321078808
 30
0.0
 11
-11.4964340539048298
 21
-7.3350452036619238
 31
0.0
  0
LINE
  5
4F64
  8
0
 10
-11.3891814228154598
 20
-7.3337462373880342
 30
0.0
 11
-11.3771504816017508
 21
-7.277969559270252
 31
0.0
  0
ARC
  5
4F65
  8
0
 10
-10.4076086603453408
 20
-7.3432679743391489
 30
0.0
 40
0.0262174629962694
 50
97.8569376147588628
 51
141.649035104387309
  0
ARC
  5
4F66
  8
0
 10
-10.4042043464805403
 20
-7.3524185933321879
 30
0.0
 40
0.0358104449869578
 50
60.7874222569299505
 51
101.2532159677120944
  0
ARC
  5
4F67
  8
0
 10
-10.3941236020866796
 20
-7.3364521786756489
 30
0.0
 40
0.0169846297549829
 50
15.5783125429725207
 51
64.1837006098832887
  0
ARC
  5
4F68
  8
0
 10
-10.3915387860599306
 20
-7.3357315396317961
 30
0.0
 40
0.0143012374013211
 50
327.7979882057106238
 51
15.5783125429716698
  0
ARC
  5
4F69
  8
0
 10
-10.3969922559933607
 20
-7.3322970389047741
 30
0.0
 40
0.0207460903522246
 50
294.5421888526400949
 51
327.7979882057106806
  0
ARC
  5
4F6A
  8
0
 10
-10.4040419201716094
 20
-7.3168580988966099
 30
0.0
 40
0.0377183805218454
 50
241.4464821965669046
 51
294.5421888526399812
  0
ARC
  5
4F6B
  8
0
 10
-10.4135499314400501
 20
-7.3343307374837829
 30
0.0
 40
0.017826287181054
 50
201.0840122144792019
 51
241.4464821965675867
  0
ARC
  5
4F6C
  8
0
 10
-10.4169912448506707
 20
-7.3356575266932902
 30
0.0
 40
0.0141380616461162
 50
142.2432570289163039
 51
201.0840122144786051
  0
ARC
  5
4F6D
  8
0
 10
-10.4201585541225796
 20
-7.3276386422984228
 30
0.0
 40
0.0383798599857378
 50
191.1660939523314937
 51
237.0857252520384861
  0
ARC
  5
4F6E
  8
0
 10
-10.4048180104317503
 20
-7.3044344298687713
 30
0.0
 40
0.0661957850697034
 50
236.8525800400466039
 51
270.5612916271606991
  0
ARC
  5
4F6F
  8
0
 10
-10.4048751710609402
 20
-7.2985997480746514
 30
0.0
 40
0.0720307468498838
 50
270.5612916271604149
 51
298.4556179892563819
  0
ARC
  5
4F70
  8
0
 10
-10.3899057022783197
 20
-7.3262210816042002
 30
0.0
 40
0.0406138236780565
 50
298.4556179892567229
 51
332.9437741911260105
  0
ARC
  5
4F71
  8
0
 10
-10.3806048351566709
 20
-7.3309716126012052
 30
0.0
 40
0.0301699894219883
 50
332.9437741911266926
 51
19.715712542526969
  0
ARC
  5
4F72
  8
0
 10
-10.3814807187813205
 20
-7.3312854953611586
 30
0.0
 40
0.0311004164803505
 50
19.7157125425268589
 51
54.8331801483434305
  0
ARC
  5
4F73
  8
0
 10
-10.4047148177357194
 20
-7.3642624569469302
 30
0.0
 40
0.0714402646413492
 50
54.8331801483434305
 51
104.294939247249701
  0
ARC
  5
4F74
  8
0
 10
-10.4108719980651205
 20
-7.346756567151048
 30
0.0
 40
0.0529816253121694
 50
102.5166793028133014
 51
141.0664828003309026
  0
ARC
  5
4F75
  8
0
 10
-10.4288372929273603
 20
-7.331186395791832
 30
0.0
 40
0.029233837479575
 50
142.6776240063616967
 51
187.636168006965903
  0
ARC
  5
4F76
  8
0
 10
-10.4260079999207704
 20
-7.2929159747749841
 30
0.0
 40
0.0528902266416446
 50
207.4387534367899946
 51
233.0688354146961103
  0
ARC
  5
4F77
  8
0
 10
-10.4406251787600208
 20
-7.3005053481483229
 30
0.0
 40
0.0364202386204419
 50
164.4484521359381972
 51
207.4387534367903925
  0
ARC
  5
4F78
  8
0
 10
-10.4335476136372698
 20
-7.3024749896464494
 30
0.0
 40
0.0437667626759333
 50
137.0346300022756054
 51
164.448452135937913
  0
ARC
  5
4F79
  8
0
 10
-10.4095761735091106
 20
-7.3282562124396931
 30
0.0
 40
0.0789200915161391
 50
96.4644944651972338
 51
135.1990434438525881
  0
ARC
  5
4F7A
  8
0
 10
-10.4041584700652905
 20
-7.3454203481270399
 30
0.0
 40
0.0966466853071577
 50
61.6197181887614533
 51
98.5106869862444512
  0
ARC
  5
4F7B
  8
0
 10
-10.3889376804230107
 20
-7.3149682509716536
 30
0.0
 40
0.0626291568741701
 50
40.9102408543890874
 51
60.628804821972011
  0
ARC
  5
4F7C
  8
0
 10
-10.3740030170915194
 20
-7.3019450076395191
 30
0.0
 40
0.042813924073279
 50
8.5372227153911826
 51
40.8275525468781382
  0
ARC
  5
4F7D
  8
0
 10
-10.37016200027632
 20
-7.3002306772779164
 30
0.0
 40
0.038777297864841
 50
324.0143525887010014
 51
6.8745443542275169
  0
ARC
  5
4F7E
  8
0
 10
-10.3827936745012792
 20
-7.2921942246687159
 30
0.0
 40
0.0537283420409773
 50
306.6125708400750796
 51
324.9947844543247015
  0
LINE
  5
4F7F
  8
0
 10
-10.4697806649850005
 20
-7.2779251321078808
 30
0.0
 11
-10.4578153338480995
 21
-7.3350452036619238
 31
0.0
  0
LINE
  5
4F80
  8
0
 10
-10.3505627027587295
 20
-7.3337462373880342
 30
0.0
 11
-10.3385317615450205
 21
-7.277969559270252
 31
0.0
  0
ARC
  5
4F81
  8
0
 10
-9.3633092280730281
 20
-7.3432679743391489
 30
0.0
 40
0.0262174629962694
 50
97.8569376147588628
 51
141.649035104387309
  0
ARC
  5
4F82
  8
0
 10
-9.3599049142082347
 20
-7.3524185933321879
 30
0.0
 40
0.0358104449869578
 50
60.7874222569299505
 51
101.2532159677120944
  0
ARC
  5
4F83
  8
0
 10
-9.3498241698143723
 20
-7.3364521786756489
 30
0.0
 40
0.0169846297549829
 50
15.5783125429725207
 51
64.1837006098832887
  0
ARC
  5
4F84
  8
0
 10
-9.3472393537876162
 20
-7.3357315396317961
 30
0.0
 40
0.0143012374013211
 50
327.7979882057106238
 51
15.5783125429716698
  0
ARC
  5
4F85
  8
0
 10
-9.3526928237210498
 20
-7.3322970389047741
 30
0.0
 40
0.0207460903522246
 50
294.5421888526400949
 51
327.7979882057106806
  0
ARC
  5
4F86
  8
0
 10
-9.3597424878993039
 20
-7.3168580988966099
 30
0.0
 40
0.0377183805218454
 50
241.4464821965669046
 51
294.5421888526399812
  0
ARC
  5
4F87
  8
0
 10
-9.3692504991677446
 20
-7.3343307374837829
 30
0.0
 40
0.017826287181054
 50
201.0840122144792019
 51
241.4464821965675867
  0
ARC
  5
4F88
  8
0
 10
-9.3726918125783634
 20
-7.3356575266932902
 30
0.0
 40
0.0141380616461162
 50
142.2432570289163039
 51
201.0840122144786051
  0
ARC
  5
4F89
  8
0
 10
-9.3758591218502758
 20
-7.3276386422984228
 30
0.0
 40
0.0383798599857378
 50
191.1660939523314937
 51
237.0857252520384861
  0
ARC
  5
4F8A
  8
0
 10
-9.3605185781594393
 20
-7.3044344298687713
 30
0.0
 40
0.0661957850697034
 50
236.8525800400466039
 51
270.5612916271606991
  0
ARC
  5
4F8B
  8
0
 10
-9.3605757387886364
 20
-7.2985997480746514
 30
0.0
 40
0.0720307468498838
 50
270.5612916271604149
 51
298.4556179892563819
  0
ARC
  5
4F8C
  8
0
 10
-9.3456062700060123
 20
-7.3262210816042002
 30
0.0
 40
0.0406138236780565
 50
298.4556179892567229
 51
332.9437741911260105
  0
ARC
  5
4F8D
  8
0
 10
-9.3363054028843564
 20
-7.3309716126012052
 30
0.0
 40
0.0301699894219883
 50
332.9437741911266926
 51
19.715712542526969
  0
ARC
  5
4F8E
  8
0
 10
-9.3371812865090096
 20
-7.3312854953611586
 30
0.0
 40
0.0311004164803505
 50
19.7157125425268589
 51
54.8331801483434305
  0
ARC
  5
4F8F
  8
0
 10
-9.3604153854634138
 20
-7.3642624569469302
 30
0.0
 40
0.0714402646413492
 50
54.8331801483434305
 51
104.294939247249701
  0
ARC
  5
4F90
  8
0
 10
-9.3665725657928096
 20
-7.346756567151048
 30
0.0
 40
0.0529816253121694
 50
102.5166793028133014
 51
141.0664828003309026
  0
ARC
  5
4F91
  8
0
 10
-9.3845378606550547
 20
-7.331186395791832
 30
0.0
 40
0.029233837479575
 50
142.6776240063616967
 51
187.636168006965903
  0
ARC
  5
4F92
  8
0
 10
-9.3817085676484595
 20
-7.2929159747749841
 30
0.0
 40
0.0528902266416446
 50
207.4387534367899946
 51
233.0688354146961103
  0
ARC
  5
4F93
  8
0
 10
-9.3963257464877081
 20
-7.3005053481483229
 30
0.0
 40
0.0364202386204419
 50
164.4484521359381972
 51
207.4387534367903925
  0
ARC
  5
4F94
  8
0
 10
-9.3892481813649589
 20
-7.3024749896464494
 30
0.0
 40
0.0437667626759333
 50
137.0346300022756054
 51
164.448452135937913
  0
ARC
  5
4F95
  8
0
 10
-9.3652767412368032
 20
-7.3282562124396931
 30
0.0
 40
0.0789200915161391
 50
96.4644944651972338
 51
135.1990434438525881
  0
ARC
  5
4F96
  8
0
 10
-9.3598590377929831
 20
-7.3454203481270399
 30
0.0
 40
0.0966466853071577
 50
61.6197181887614533
 51
98.5106869862444512
  0
ARC
  5
4F97
  8
0
 10
-9.3446382481506998
 20
-7.3149682509716536
 30
0.0
 40
0.0626291568741701
 50
40.9102408543890874
 51
60.628804821972011
  0
ARC
  5
4F98
  8
0
 10
-9.329703584819212
 20
-7.3019450076395191
 30
0.0
 40
0.042813924073279
 50
8.5372227153911826
 51
40.8275525468781382
  0
ARC
  5
4F99
  8
0
 10
-9.3258625680040108
 20
-7.3002306772779164
 30
0.0
 40
0.038777297864841
 50
324.0143525887010014
 51
6.8745443542275169
  0
ARC
  5
4F9A
  8
0
 10
-9.3384942422289718
 20
-7.2921942246687159
 30
0.0
 40
0.0537283420409773
 50
306.6125708400750796
 51
324.9947844543247015
  0
LINE
  5
4F9B
  8
0
 10
-9.4254812327126931
 20
-7.2779251321078808
 30
0.0
 11
-9.4135159015757921
 21
-7.3350452036619238
 31
0.0
  0
LINE
  5
4F9C
  8
0
 10
-9.3062632704864185
 20
-7.3337462373880342
 30
0.0
 11
-9.2942323292727114
 21
-7.277969559270252
 31
0.0
  0
ARC
  5
4F9D
  8
0
 10
-8.3226511478959182
 20
-7.3432679743391489
 30
0.0
 40
0.0262174629962694
 50
97.8569376147588628
 51
141.649035104387309
  0
ARC
  5
4F9E
  8
0
 10
-8.3192468340311247
 20
-7.3524185933321879
 30
0.0
 40
0.0358104449869578
 50
60.7874222569299505
 51
101.2532159677120944
  0
ARC
  5
4F9F
  8
0
 10
-8.3091660896372623
 20
-7.3364521786756489
 30
0.0
 40
0.0169846297549829
 50
15.5783125429725207
 51
64.1837006098832887
  0
ARC
  5
4FA0
  8
0
 10
-8.306581273610508
 20
-7.3357315396317961
 30
0.0
 40
0.0143012374013211
 50
327.7979882057106238
 51
15.5783125429716698
  0
ARC
  5
4FA1
  8
0
 10
-8.3120347435439381
 20
-7.3322970389047741
 30
0.0
 40
0.0207460903522246
 50
294.5421888526400949
 51
327.7979882057106806
  0
ARC
  5
4FA2
  8
0
 10
-8.3190844077221922
 20
-7.3168580988966099
 30
0.0
 40
0.0377183805218454
 50
241.4464821965669046
 51
294.5421888526399812
  0
ARC
  5
4FA3
  8
0
 10
-8.3285924189906346
 20
-7.3343307374837829
 30
0.0
 40
0.017826287181054
 50
201.0840122144792019
 51
241.4464821965675867
  0
ARC
  5
4FA4
  8
0
 10
-8.3320337324012534
 20
-7.3356575266932902
 30
0.0
 40
0.0141380616461162
 50
142.2432570289163039
 51
201.0840122144786051
  0
ARC
  5
4FA5
  8
0
 10
-8.3352010416731641
 20
-7.3276386422984228
 30
0.0
 40
0.0383798599857378
 50
191.1660939523314937
 51
237.0857252520384861
  0
ARC
  5
4FA6
  8
0
 10
-8.3198604979823294
 20
-7.3044344298687713
 30
0.0
 40
0.0661957850697034
 50
236.8525800400466039
 51
270.5612916271606991
  0
ARC
  5
4FA7
  8
0
 10
-8.3199176586115264
 20
-7.2985997480746514
 30
0.0
 40
0.0720307468498838
 50
270.5612916271604149
 51
298.4556179892563819
  0
ARC
  5
4FA8
  8
0
 10
-8.3049481898289024
 20
-7.3262210816042002
 30
0.0
 40
0.0406138236780565
 50
298.4556179892567229
 51
332.9437741911260105
  0
ARC
  5
4FA9
  8
0
 10
-8.2956473227072465
 20
-7.3309716126012052
 30
0.0
 40
0.0301699894219883
 50
332.9437741911266926
 51
19.715712542526969
  0
ARC
  5
4FAA
  8
0
 10
-8.2965232063318997
 20
-7.3312854953611586
 30
0.0
 40
0.0311004164803505
 50
19.7157125425268589
 51
54.8331801483434305
  0
ARC
  5
4FAB
  8
0
 10
-8.3197573052863039
 20
-7.3642624569469302
 30
0.0
 40
0.0714402646413492
 50
54.8331801483434305
 51
104.294939247249701
  0
ARC
  5
4FAC
  8
0
 10
-8.3259144856156997
 20
-7.346756567151048
 30
0.0
 40
0.0529816253121694
 50
102.5166793028133014
 51
141.0664828003309026
  0
ARC
  5
4FAD
  8
0
 10
-8.3438797804779448
 20
-7.331186395791832
 30
0.0
 40
0.029233837479575
 50
142.6776240063616967
 51
187.636168006965903
  0
ARC
  5
4FAE
  8
0
 10
-8.3410504874713496
 20
-7.2929159747749841
 30
0.0
 40
0.0528902266416446
 50
207.4387534367899946
 51
233.0688354146961103
  0
ARC
  5
4FAF
  8
0
 10
-8.3556676663105982
 20
-7.3005053481483229
 30
0.0
 40
0.0364202386204419
 50
164.4484521359381972
 51
207.4387534367903925
  0
ARC
  5
4FB0
  8
0
 10
-8.3485901011878472
 20
-7.3024749896464494
 30
0.0
 40
0.0437667626759333
 50
137.0346300022756054
 51
164.448452135937913
  0
ARC
  5
4FB1
  8
0
 10
-8.3246186610596951
 20
-7.3282562124396931
 30
0.0
 40
0.0789200915161391
 50
96.4644944651972338
 51
135.1990434438525881
  0
ARC
  5
4FB2
  8
0
 10
-8.3192009576158732
 20
-7.3454203481270399
 30
0.0
 40
0.0966466853071577
 50
61.6197181887614533
 51
98.5106869862444512
  0
ARC
  5
4FB3
  8
0
 10
-8.3039801679735898
 20
-7.3149682509716536
 30
0.0
 40
0.0626291568741701
 50
40.9102408543890235
 51
60.6288048219719471
  0
ARC
  5
4FB4
  8
0
 10
-8.2890455046421021
 20
-7.3019450076395191
 30
0.0
 40
0.042813924073279
 50
8.5372227153911826
 51
40.8275525468781382
  0
ARC
  5
4FB5
  8
0
 10
-8.2852044878269009
 20
-7.3002306772779164
 30
0.0
 40
0.038777297864841
 50
324.0143525887010014
 51
6.8745443542275169
  0
ARC
  5
4FB6
  8
0
 10
-8.2978361620518601
 20
-7.2921942246687159
 30
0.0
 40
0.0537283420409773
 50
306.6125708400750796
 51
324.9947844543247015
  0
LINE
  5
4FB7
  8
0
 10
-8.3848231525355832
 20
-7.2779251321078808
 30
0.0
 11
-8.3728578213986822
 21
-7.3350452036619238
 31
0.0
  0
LINE
  5
4FB8
  8
0
 10
-8.2656051903093086
 20
-7.3337462373880342
 30
0.0
 11
-8.2535742490956014
 21
-7.277969559270252
 31
0.0
  0
ARC
  5
4FB9
  8
0
 10
-7.276439025436054
 20
-7.3432679743391489
 30
0.0
 40
0.0262174629962694
 50
97.8569376147588628
 51
141.649035104387309
  0
ARC
  5
4FBA
  8
0
 10
-7.2730347115712606
 20
-7.3524185933321879
 30
0.0
 40
0.0358104449869578
 50
60.7874222569299505
 51
101.2532159677120944
  0
ARC
  5
4FBB
  8
0
 10
-7.2629539671773991
 20
-7.3364521786756489
 30
0.0
 40
0.0169846297549829
 50
15.5783125429725207
 51
64.1837006098832887
  0
ARC
  5
4FBC
  8
0
 10
-7.2603691511506439
 20
-7.3357315396317961
 30
0.0
 40
0.0143012374013211
 50
327.7979882057106238
 51
15.5783125429716698
  0
ARC
  5
4FBD
  8
0
 10
-7.2658226210840766
 20
-7.3322970389047741
 30
0.0
 40
0.0207460903522246
 50
294.5421888526400949
 51
327.7979882057106806
  0
ARC
  5
4FBE
  8
0
 10
-7.2728722852623298
 20
-7.3168580988966099
 30
0.0
 40
0.0377183805218454
 50
241.4464821965669046
 51
294.5421888526399812
  0
ARC
  5
4FBF
  8
0
 10
-7.2823802965307696
 20
-7.3343307374837829
 30
0.0
 40
0.017826287181054
 50
201.0840122144792019
 51
241.4464821965675867
  0
ARC
  5
4FC0
  8
0
 10
-7.2858216099413893
 20
-7.3356575266932902
 30
0.0
 40
0.0141380616461162
 50
142.2432570289163039
 51
201.0840122144786051
  0
ARC
  5
4FC1
  8
0
 10
-7.2889889192133008
 20
-7.3276386422984228
 30
0.0
 40
0.0383798599857378
 50
191.1660939523314937
 51
237.0857252520384861
  0
ARC
  5
4FC2
  8
0
 10
-7.273648375522467
 20
-7.3044344298687713
 30
0.0
 40
0.0661957850697034
 50
236.8525800400466039
 51
270.5612916271606991
  0
ARC
  5
4FC3
  8
0
 10
-7.2737055361516632
 20
-7.2985997480746514
 30
0.0
 40
0.0720307468498838
 50
270.5612916271604149
 51
298.4556179892563819
  0
ARC
  5
4FC4
  8
0
 10
-7.2587360673690391
 20
-7.3262210816042002
 30
0.0
 40
0.0406138236780565
 50
298.4556179892567229
 51
332.9437741911260105
  0
ARC
  5
4FC5
  8
0
 10
-7.2494352002473832
 20
-7.3309716126012052
 30
0.0
 40
0.0301699894219883
 50
332.9437741911266926
 51
19.715712542526969
  0
ARC
  5
4FC6
  8
0
 10
-7.2503110838720364
 20
-7.3312854953611586
 30
0.0
 40
0.0311004164803505
 50
19.7157125425268589
 51
54.8331801483434305
  0
ARC
  5
4FC7
  8
0
 10
-7.2735451828264397
 20
-7.3642624569469302
 30
0.0
 40
0.0714402646413492
 50
54.8331801483434305
 51
104.294939247249701
  0
ARC
  5
4FC8
  8
0
 10
-7.2797023631558364
 20
-7.346756567151048
 30
0.0
 40
0.0529816253121694
 50
102.5166793028133014
 51
141.0664828003309026
  0
ARC
  5
4FC9
  8
0
 10
-7.2976676580180806
 20
-7.331186395791832
 30
0.0
 40
0.029233837479575
 50
142.6776240063616967
 51
187.636168006965903
  0
ARC
  5
4FCA
  8
0
 10
-7.2948383650114872
 20
-7.2929159747749841
 30
0.0
 40
0.0528902266416446
 50
207.4387534367899946
 51
233.0688354146961103
  0
ARC
  5
4FCB
  8
0
 10
-7.3094555438507358
 20
-7.3005053481483229
 30
0.0
 40
0.0364202386204419
 50
164.4484521359381972
 51
207.4387534367903925
  0
ARC
  5
4FCC
  8
0
 10
-7.3023779787279848
 20
-7.3024749896464494
 30
0.0
 40
0.0437667626759333
 50
137.0346300022756054
 51
164.448452135937913
  0
ARC
  5
4FCD
  8
0
 10
-7.2784065385998318
 20
-7.3282562124396931
 30
0.0
 40
0.0789200915161391
 50
96.4644944651972338
 51
135.1990434438525881
  0
ARC
  5
4FCE
  8
0
 10
-7.2729888351560108
 20
-7.3454203481270399
 30
0.0
 40
0.0966466853071577
 50
61.6197181887614533
 51
98.5106869862444512
  0
ARC
  5
4FCF
  8
0
 10
-7.2577680455137257
 20
-7.3149682509716536
 30
0.0
 40
0.0626291568741701
 50
40.9102408543890235
 51
60.6288048219719471
  0
ARC
  5
4FD0
  8
0
 10
-7.2428333821822379
 20
-7.3019450076395191
 30
0.0
 40
0.042813924073279
 50
8.5372227153911826
 51
40.8275525468781382
  0
ARC
  5
4FD1
  8
0
 10
-7.2389923653670367
 20
-7.3002306772779164
 30
0.0
 40
0.038777297864841
 50
324.0143525887010014
 51
6.8745443542275169
  0
ARC
  5
4FD2
  8
0
 10
-7.2516240395919978
 20
-7.2921942246687159
 30
0.0
 40
0.0537283420409773
 50
306.6125708400750796
 51
324.9947844543247015
  0
LINE
  5
4FD3
  8
0
 10
-7.338611030075719
 20
-7.2779251321078808
 30
0.0
 11
-7.326645698938818
 21
-7.3350452036619238
 31
0.0
  0
LINE
  5
4FD4
  8
0
 10
-7.2193930678494453
 20
-7.3337462373880342
 30
0.0
 11
-7.2073621266357382
 21
-7.277969559270252
 31
0.0
  0
ARC
  5
4FD5
  8
0
 10
-6.2338759945785034
 20
-7.3432679743391489
 30
0.0
 40
0.0262174629962694
 50
97.8569376147588628
 51
141.649035104387309
  0
ARC
  5
4FD6
  8
0
 10
-6.2304716807137099
 20
-7.3524185933321879
 30
0.0
 40
0.0358104449869578
 50
60.7874222569299505
 51
101.2532159677120944
  0
ARC
  5
4FD7
  8
0
 10
-6.2203909363198484
 20
-7.3364521786756489
 30
0.0
 40
0.0169846297549829
 50
15.5783125429725207
 51
64.1837006098832887
  0
ARC
  5
4FD8
  8
0
 10
-6.2178061202930941
 20
-7.3357315396317961
 30
0.0
 40
0.0143012374013211
 50
327.7979882057106238
 51
15.5783125429716698
  0
ARC
  5
4FD9
  8
0
 10
-6.223259590226526
 20
-7.3322970389047741
 30
0.0
 40
0.0207460903522246
 50
294.5421888526400949
 51
327.7979882057106806
  0
ARC
  5
4FDA
  8
0
 10
-6.23030925440478
 20
-7.3168580988966099
 30
0.0
 40
0.0377183805218454
 50
241.4464821965669046
 51
294.5421888526399812
  0
ARC
  5
4FDB
  8
0
 10
-6.2398172656732189
 20
-7.3343307374837829
 30
0.0
 40
0.017826287181054
 50
201.0840122144792019
 51
241.4464821965675867
  0
ARC
  5
4FDC
  8
0
 10
-6.2432585790838377
 20
-7.3356575266932902
 30
0.0
 40
0.0141380616461162
 50
142.2432570289163039
 51
201.0840122144786051
  0
ARC
  5
4FDD
  8
0
 10
-6.2464258883557511
 20
-7.3276386422984228
 30
0.0
 40
0.0383798599857378
 50
191.1660939523314937
 51
237.0857252520384861
  0
ARC
  5
4FDE
  8
0
 10
-6.2310853446649164
 20
-7.3044344298687713
 30
0.0
 40
0.0661957850697034
 50
236.8525800400466039
 51
270.5612916271606991
  0
ARC
  5
4FDF
  8
0
 10
-6.2311425052941116
 20
-7.2985997480746514
 30
0.0
 40
0.0720307468498838
 50
270.5612916271604149
 51
298.4556179892563819
  0
ARC
  5
4FE0
  8
0
 10
-6.2161730365114893
 20
-7.3262210816042002
 30
0.0
 40
0.0406138236780565
 50
298.4556179892567229
 51
332.9437741911260105
  0
ARC
  5
4FE1
  8
0
 10
-6.2068721693898317
 20
-7.3309716126012052
 30
0.0
 40
0.0301699894219883
 50
332.9437741911266926
 51
19.715712542526969
  0
ARC
  5
4FE2
  8
0
 10
-6.2077480530144848
 20
-7.3312854953611586
 30
0.0
 40
0.0311004164803505
 50
19.7157125425268589
 51
54.8331801483434305
  0
ARC
  5
4FE3
  8
0
 10
-6.230982151968889
 20
-7.3642624569469302
 30
0.0
 40
0.0714402646413492
 50
54.8331801483434305
 51
104.294939247249701
  0
ARC
  5
4FE4
  8
0
 10
-6.2371393322982849
 20
-7.346756567151048
 30
0.0
 40
0.0529816253121694
 50
102.5166793028133014
 51
141.0664828003309026
  0
ARC
  5
4FE5
  8
0
 10
-6.25510462716053
 20
-7.331186395791832
 30
0.0
 40
0.029233837479575
 50
142.6776240063616967
 51
187.636168006965903
  0
ARC
  5
4FE6
  8
0
 10
-6.2522753341539357
 20
-7.2929159747749841
 30
0.0
 40
0.0528902266416446
 50
207.4387534367899946
 51
233.0688354146961103
  0
ARC
  5
4FE7
  8
0
 10
-6.2668925129931861
 20
-7.3005053481483229
 30
0.0
 40
0.0364202386204419
 50
164.4484521359381972
 51
207.4387534367903925
  0
ARC
  5
4FE8
  8
0
 10
-6.259814947870435
 20
-7.3024749896464494
 30
0.0
 40
0.0437667626759333
 50
137.0346300022756054
 51
164.448452135937913
  0
ARC
  5
4FE9
  8
0
 10
-6.235843507742282
 20
-7.3282562124396931
 30
0.0
 40
0.0789200915161391
 50
96.4644944651972338
 51
135.1990434438525881
  0
ARC
  5
4FEA
  8
0
 10
-6.230425804298461
 20
-7.3454203481270399
 30
0.0
 40
0.0966466853071577
 50
61.6197181887614533
 51
98.5106869862444512
  0
ARC
  5
4FEB
  8
0
 10
-6.215205014656175
 20
-7.3149682509716536
 30
0.0
 40
0.0626291568741701
 50
40.9102408543890235
 51
60.6288048219719471
  0
ARC
  5
4FEC
  8
0
 10
-6.2002703513246882
 20
-7.3019450076395191
 30
0.0
 40
0.042813924073279
 50
8.5372227153911826
 51
40.8275525468781382
  0
ARC
  5
4FED
  8
0
 10
-6.1964293345094861
 20
-7.3002306772779164
 30
0.0
 40
0.038777297864841
 50
324.0143525887010014
 51
6.8745443542275169
  0
ARC
  5
4FEE
  8
0
 10
-6.2090610087344471
 20
-7.2921942246687159
 30
0.0
 40
0.0537283420409773
 50
306.6125708400750796
 51
324.9947844543247015
  0
LINE
  5
4FEF
  8
0
 10
-6.2960479992181693
 20
-7.2779251321078808
 30
0.0
 11
-6.2840826680812674
 21
-7.3350452036619238
 31
0.0
  0
LINE
  5
4FF0
  8
0
 10
-6.1768300369918938
 20
-7.3337462373880342
 30
0.0
 11
-6.1647990957781866
 21
-7.277969559270252
 31
0.0
  0
ARC
  5
4FF1
  8
0
 10
-5.1914504689637146
 20
-7.3432679743391489
 30
0.0
 40
0.0262174629962694
 50
97.8569376147588628
 51
141.649035104387309
  0
ARC
  5
4FF2
  8
0
 10
-5.1880461550989221
 20
-7.3524185933321879
 30
0.0
 40
0.0358104449869578
 50
60.7874222569299505
 51
101.2532159677120944
  0
ARC
  5
4FF3
  8
0
 10
-5.1779654107050588
 20
-7.3364521786756489
 30
0.0
 40
0.0169846297549829
 50
15.5783125429725207
 51
64.1837006098832887
  0
ARC
  5
4FF4
  8
0
 10
-5.1753805946783054
 20
-7.3357315396317961
 30
0.0
 40
0.0143012374013211
 50
327.7979882057106238
 51
15.5783125429716698
  0
ARC
  5
4FF5
  8
0
 10
-5.1808340646117372
 20
-7.3322970389047741
 30
0.0
 40
0.0207460903522246
 50
294.5421888526400949
 51
327.7979882057106806
  0
ARC
  5
4FF6
  8
0
 10
-5.1878837287899913
 20
-7.3168580988966099
 30
0.0
 40
0.0377183805218454
 50
241.4464821965669046
 51
294.5421888526399812
  0
ARC
  5
4FF7
  8
0
 10
-5.1973917400584311
 20
-7.3343307374837829
 30
0.0
 40
0.017826287181054
 50
201.0840122144792019
 51
241.4464821965675867
  0
ARC
  5
4FF8
  8
0
 10
-5.2008330534690499
 20
-7.3356575266932902
 30
0.0
 40
0.0141380616461162
 50
142.2432570289163039
 51
201.0840122144786051
  0
ARC
  5
4FF9
  8
0
 10
-5.2040003627409632
 20
-7.3276386422984228
 30
0.0
 40
0.0383798599857378
 50
191.1660939523314937
 51
237.0857252520384861
  0
ARC
  5
4FFA
  8
0
 10
-5.1886598190501259
 20
-7.3044344298687713
 30
0.0
 40
0.0661957850697034
 50
236.8525800400466039
 51
270.5612916271606991
  0
ARC
  5
4FFB
  8
0
 10
-5.1887169796793229
 20
-7.2985997480746514
 30
0.0
 40
0.0720307468498838
 50
270.5612916271604149
 51
298.4556179892563819
  0
ARC
  5
4FFC
  8
0
 10
-5.1737475108966988
 20
-7.3262210816042002
 30
0.0
 40
0.0406138236780565
 50
298.4556179892567229
 51
332.9437741911260105
  0
ARC
  5
4FFD
  8
0
 10
-5.1644466437750429
 20
-7.3309716126012052
 30
0.0
 40
0.0301699894219883
 50
332.9437741911266926
 51
19.7157125425269193
  0
ARC
  5
4FFE
  8
0
 10
-5.1653225273996961
 20
-7.3312854953611586
 30
0.0
 40
0.0311004164803505
 50
19.7157125425268589
 51
54.8331801483434305
  0
ARC
  5
4FFF
  8
0
 10
-5.1885566263541012
 20
-7.3642624569469302
 30
0.0
 40
0.0714402646413492
 50
54.8331801483434305
 51
104.294939247249701
  0
ARC
  5
5000
  8
0
 10
-5.194713806683497
 20
-7.346756567151048
 30
0.0
 40
0.0529816253121694
 50
102.5166793028133014
 51
141.0664828003309026
  0
ARC
  5
5001
  8
0
 10
-5.2126791015457421
 20
-7.331186395791832
 30
0.0
 40
0.029233837479575
 50
142.6776240063616967
 51
187.636168006965903
  0
ARC
  5
5002
  8
0
 10
-5.209849808539146
 20
-7.2929159747749841
 30
0.0
 40
0.0528902266416446
 50
207.4387534367899946
 51
233.0688354146961103
  0
ARC
  5
5003
  8
0
 10
-5.2244669873783973
 20
-7.3005053481483229
 30
0.0
 40
0.0364202386204419
 50
164.4484521359381972
 51
207.4387534367903925
  0
ARC
  5
5004
  8
0
 10
-5.2173894222556463
 20
-7.3024749896464494
 30
0.0
 40
0.0437667626759333
 50
137.0346300022756054
 51
164.448452135937913
  0
ARC
  5
5005
  8
0
 10
-5.1934179821274924
 20
-7.3282562124396931
 30
0.0
 40
0.0789200915161391
 50
96.4644944651972338
 51
135.1990434438525881
  0
ARC
  5
5006
  8
0
 10
-5.1880002786836723
 20
-7.3454203481270399
 30
0.0
 40
0.0966466853071577
 50
61.6197181887614533
 51
98.5106869862444512
  0
ARC
  5
5007
  8
0
 10
-5.1727794890413872
 20
-7.3149682509716536
 30
0.0
 40
0.0626291568741701
 50
40.9102408543890235
 51
60.6288048219719471
  0
ARC
  5
5008
  8
0
 10
-5.1578448257098994
 20
-7.3019450076395191
 30
0.0
 40
0.042813924073279
 50
8.5372227153911826
 51
40.8275525468781382
  0
ARC
  5
5009
  8
0
 10
-5.1540038088946982
 20
-7.3002306772779164
 30
0.0
 40
0.038777297864841
 50
324.0143525887010014
 51
6.8745443542275169
  0
ARC
  5
500A
  8
0
 10
-5.1666354831196593
 20
-7.2921942246687159
 30
0.0
 40
0.0537283420409773
 50
306.6125708400750796
 51
324.9947844543247015
  0
LINE
  5
500B
  8
0
 10
-5.2536224736033796
 20
-7.2779251321078808
 30
0.0
 11
-5.2416571424664786
 21
-7.3350452036619238
 31
0.0
  0
LINE
  5
500C
  8
0
 10
-5.1344045113771051
 20
-7.3337462373880342
 30
0.0
 11
-5.1223735701633979
 21
-7.277969559270252
 31
0.0
  0
ARC
  5
500D
  8
0
 10
-4.1490645868241884
 20
-7.3432679743391489
 30
0.0
 40
0.0262174629962694
 50
97.8569376147588628
 51
141.649035104387309
  0
ARC
  5
500E
  8
0
 10
-4.1456602729593941
 20
-7.3524185933321879
 30
0.0
 40
0.0358104449869578
 50
60.7874222569300073
 51
101.2532159677120944
  0
ARC
  5
500F
  8
0
 10
-4.1355795285655317
 20
-7.3364521786756489
 30
0.0
 40
0.0169846297549829
 50
15.5783125429725207
 51
64.1837006098832177
  0
ARC
  5
5010
  8
0
 10
-4.1329947125387783
 20
-7.3357315396317961
 30
0.0
 40
0.0143012374013211
 50
327.7979882057106238
 51
15.5783125429716698
  0
ARC
  5
5011
  8
0
 10
-4.1384481824722101
 20
-7.3322970389047741
 30
0.0
 40
0.0207460903522246
 50
294.5421888526400949
 51
327.7979882057106806
  0
ARC
  5
5012
  8
0
 10
-4.1454978466504642
 20
-7.3168580988966099
 30
0.0
 40
0.0377183805218454
 50
241.4464821965669046
 51
294.5421888526399812
  0
ARC
  5
5013
  8
0
 10
-4.155005857918904
 20
-7.3343307374837829
 30
0.0
 40
0.017826287181054
 50
201.0840122144792019
 51
241.4464821965675867
  0
ARC
  5
5014
  8
0
 10
-4.1584471713295228
 20
-7.3356575266932902
 30
0.0
 40
0.0141380616461162
 50
142.2432570289163039
 51
201.0840122144786051
  0
ARC
  5
5015
  8
0
 10
-4.1616144806014361
 20
-7.3276386422984228
 30
0.0
 40
0.0383798599857378
 50
191.1660939523314937
 51
237.0857252520384861
  0
ARC
  5
5016
  8
0
 10
-4.1462739369105988
 20
-7.3044344298687713
 30
0.0
 40
0.0661957850697034
 50
236.8525800400466039
 51
270.5612916271606991
  0
ARC
  5
5017
  8
0
 10
-4.1463310975397958
 20
-7.2985997480746514
 30
0.0
 40
0.0720307468498838
 50
270.5612916271604149
 51
298.4556179892563819
  0
ARC
  5
5018
  8
0
 10
-4.1313616287571717
 20
-7.3262210816042002
 30
0.0
 40
0.0406138236780565
 50
298.4556179892566092
 51
332.9437741911260105
  0
ARC
  5
5019
  8
0
 10
-4.1220607616355158
 20
-7.3309716126012052
 30
0.0
 40
0.0301699894219883
 50
332.9437741911266926
 51
19.7157125425269193
  0
ARC
  5
501A
  8
0
 10
-4.122936645260169
 20
-7.3312854953611586
 30
0.0
 40
0.0311004164803505
 50
19.7157125425268589
 51
54.8331801483434305
  0
ARC
  5
501B
  8
0
 10
-4.1461707442145741
 20
-7.3642624569469302
 30
0.0
 40
0.0714402646413492
 50
54.8331801483434305
 51
104.294939247249701
  0
ARC
  5
501C
  8
0
 10
-4.152327924543969
 20
-7.346756567151048
 30
0.0
 40
0.0529816253121694
 50
102.516679302813202
 51
141.0664828003309026
  0
ARC
  5
501D
  8
0
 10
-4.170293219406215
 20
-7.331186395791832
 30
0.0
 40
0.029233837479575
 50
142.6776240063616967
 51
187.636168006965903
  0
ARC
  5
501E
  8
0
 10
-4.1674639263996189
 20
-7.2929159747749841
 30
0.0
 40
0.0528902266416446
 50
207.4387534367899946
 51
233.0688354146961103
  0
ARC
  5
501F
  8
0
 10
-4.1820811052388702
 20
-7.3005053481483229
 30
0.0
 40
0.0364202386204419
 50
164.4484521359381972
 51
207.4387534367903925
  0
ARC
  5
5020
  8
0
 10
-4.1750035401161192
 20
-7.3024749896464494
 30
0.0
 40
0.0437667626759333
 50
137.0346300022756054
 51
164.448452135937913
  0
ARC
  5
5021
  8
0
 10
-4.1510320999879653
 20
-7.3282562124396931
 30
0.0
 40
0.0789200915161391
 50
96.4644944651972338
 51
135.1990434438525881
  0
ARC
  5
5022
  8
0
 10
-4.1456143965441452
 20
-7.3454203481270399
 30
0.0
 40
0.0966466853071577
 50
61.6197181887615102
 51
98.5106869862444512
  0
ARC
  5
5023
  8
0
 10
-4.1303936069018601
 20
-7.3149682509716536
 30
0.0
 40
0.0626291568741701
 50
40.9102408543890235
 51
60.6288048219719471
  0
ARC
  5
5024
  8
0
 10
-4.1154589435703723
 20
-7.3019450076395191
 30
0.0
 40
0.042813924073279
 50
8.5372227153911826
 51
40.8275525468781382
  0
ARC
  5
5025
  8
0
 10
-4.1116179267551711
 20
-7.3002306772779164
 30
0.0
 40
0.038777297864841
 50
324.0143525887010014
 51
6.8745443542275169
  0
ARC
  5
5026
  8
0
 10
-4.1242496009801322
 20
-7.2921942246687159
 30
0.0
 40
0.0537283420409773
 50
306.6125708400750796
 51
324.9947844543247015
  0
LINE
  5
5027
  8
0
 10
-4.2112365914638534
 20
-7.2779251321078808
 30
0.0
 11
-4.1992712603269524
 21
-7.3350452036619238
 31
0.0
  0
LINE
  5
5028
  8
0
 10
-4.092018629237578
 20
-7.3337462373880342
 30
0.0
 11
-4.0799876880238708
 21
-7.277969559270252
 31
0.0
  0
ARC
  5
5029
  8
0
 10
-12.4953390661990102
 20
-8.0804296276926166
 30
0.0
 40
0.0262174629962694
 50
97.8569376147588628
 51
141.649035104387309
  0
ARC
  5
502A
  8
0
 10
-12.4919347523342203
 20
-8.0895802466856566
 30
0.0
 40
0.0358104449869578
 50
60.7874222569300073
 51
101.2532159677120944
  0
ARC
  5
502B
  8
0
 10
-12.4818540079403597
 20
-8.0736138320291175
 30
0.0
 40
0.0169846297549829
 50
15.5783125429725207
 51
64.1837006098832177
  0
ARC
  5
502C
  8
0
 10
-12.4792691919136001
 20
-8.0728931929852639
 30
0.0
 40
0.0143012374013211
 50
327.7979882057106238
 51
15.5783125429716698
  0
ARC
  5
502D
  8
0
 10
-12.4847226618470408
 20
-8.0694586922582392
 30
0.0
 40
0.0207460903522246
 50
294.5421888526400949
 51
327.7979882057106806
  0
ARC
  5
502E
  8
0
 10
-12.4917723260252895
 20
-8.0540197522500776
 30
0.0
 40
0.0377183805218454
 50
241.4464821965669046
 51
294.5421888526399812
  0
ARC
  5
502F
  8
0
 10
-12.5012803372937302
 20
-8.0714923908372516
 30
0.0
 40
0.017826287181054
 50
201.0840122144792019
 51
241.4464821965675867
  0
ARC
  5
5030
  8
0
 10
-12.5047216507043508
 20
-8.072819180046757
 30
0.0
 40
0.0141380616461162
 50
142.2432570289163039
 51
201.0840122144786903
  0
ARC
  5
5031
  8
0
 10
-12.5078889599762597
 20
-8.0648002956518923
 30
0.0
 40
0.0383798599857378
 50
191.1660939523314937
 51
237.0857252520384861
  0
ARC
  5
5032
  8
0
 10
-12.4925484162854197
 20
-8.0415960832222382
 30
0.0
 40
0.0661957850697034
 50
236.8525800400466039
 51
270.5612916271606991
  0
ARC
  5
5033
  8
0
 10
-12.4926055769146203
 20
-8.0357614014281182
 30
0.0
 40
0.0720307468498838
 50
270.5612916271604149
 51
298.4556179892563819
  0
ARC
  5
5034
  8
0
 10
-12.4776361081319997
 20
-8.0633827349576652
 30
0.0
 40
0.0406138236780565
 50
298.4556179892567229
 51
332.9437741911260105
  0
ARC
  5
5035
  8
0
 10
-12.4683352410103403
 20
-8.0681332659546712
 30
0.0
 40
0.0301699894219883
 50
332.9437741911266926
 51
19.715712542526969
  0
ARC
  5
5036
  8
0
 10
-12.4692111246350006
 20
-8.0684471487146272
 30
0.0
 40
0.0311004164803505
 50
19.7157125425268589
 51
54.8331801483434305
  0
ARC
  5
5037
  8
0
 10
-12.4924452235893995
 20
-8.1014241103003979
 30
0.0
 40
0.0714402646413492
 50
54.8331801483434305
 51
104.294939247249701
  0
ARC
  5
5038
  8
0
 10
-12.49860240391879
 20
-8.0839182205045166
 30
0.0
 40
0.0529816253121694
 50
102.5166793028133014
 51
141.0664828003309026
  0
ARC
  5
5039
  8
0
 10
-12.5165676987810404
 20
-8.0683480491452997
 30
0.0
 40
0.029233837479575
 50
142.6776240063616967
 51
187.636168006965903
  0
ARC
  5
503A
  8
0
 10
-12.5137384057744505
 20
-8.0300776281284527
 30
0.0
 40
0.0528902266416446
 50
207.4387534367899946
 51
233.0688354146961103
  0
ARC
  5
503B
  8
0
 10
-12.5283555846136903
 20
-8.0376670015017915
 30
0.0
 40
0.0364202386204419
 50
164.4484521359381972
 51
207.4387534367903925
  0
ARC
  5
503C
  8
0
 10
-12.5212780194909392
 20
-8.0396366429999162
 30
0.0
 40
0.0437667626759333
 50
137.0346300022756054
 51
164.448452135937913
  0
ARC
  5
503D
  8
0
 10
-12.4973065793627907
 20
-8.0654178657931617
 30
0.0
 40
0.0789200915161391
 50
96.4644944651972338
 51
135.1990434438525881
  0
ARC
  5
503E
  8
0
 10
-12.4918888759189706
 20
-8.0825820014805085
 30
0.0
 40
0.0966466853071577
 50
61.6197181887614533
 51
98.5106869862444512
  0
ARC
  5
503F
  8
0
 10
-12.4766680862766801
 20
-8.0521299043251222
 30
0.0
 40
0.0626291568741701
 50
40.9102408543890874
 51
60.6288048219719471
  0
ARC
  5
5040
  8
0
 10
-12.4617334229451995
 20
-8.0391066609929869
 30
0.0
 40
0.042813924073279
 50
8.5372227153911826
 51
40.8275525468781382
  0
ARC
  5
5041
  8
0
 10
-12.45789240613
 20
-8.0373923306313841
 30
0.0
 40
0.038777297864841
 50
324.0143525887010014
 51
6.8745443542275169
  0
ARC
  5
5042
  8
0
 10
-12.4705240803549593
 20
-8.0293558780221836
 30
0.0
 40
0.0537283420409773
 50
306.6125708400750796
 51
324.9947844543247015
  0
LINE
  5
5043
  8
0
 10
-12.5575110708386806
 20
-8.0150867854613495
 30
0.0
 11
-12.5455457397017796
 21
-8.0722068570153915
 31
0.0
  0
LINE
  5
5044
  8
0
 10
-12.4382931086124007
 20
-8.0709078907415002
 30
0.0
 11
-12.4262621673987006
 21
-8.0151312126237215
 31
0.0
  0
ARC
  5
5045
  8
0
 10
-11.4462273804020693
 20
-8.0804296276926166
 30
0.0
 40
0.0262174629962694
 50
97.8569376147588628
 51
141.649035104387309
  0
ARC
  5
5046
  8
0
 10
-11.4428230665372705
 20
-8.0895802466856566
 30
0.0
 40
0.0358104449869578
 50
60.7874222569300073
 51
101.2532159677120944
  0
ARC
  5
5047
  8
0
 10
-11.4327423221434099
 20
-8.0736138320291175
 30
0.0
 40
0.0169846297549829
 50
15.5783125429725207
 51
64.1837006098832177
  0
ARC
  5
5048
  8
0
 10
-11.4301575061166591
 20
-8.0728931929852639
 30
0.0
 40
0.0143012374013211
 50
327.7979882057106238
 51
15.5783125429716698
  0
ARC
  5
5049
  8
0
 10
-11.4356109760500892
 20
-8.0694586922582392
 30
0.0
 40
0.0207460903522246
 50
294.5421888526400949
 51
327.7979882057106806
  0
ARC
  5
504A
  8
0
 10
-11.4426606402283504
 20
-8.0540197522500776
 30
0.0
 40
0.0377183805218454
 50
241.4464821965669046
 51
294.5421888526399812
  0
ARC
  5
504B
  8
0
 10
-11.4521686514967893
 20
-8.0714923908372516
 30
0.0
 40
0.017826287181054
 50
201.0840122144792019
 51
241.4464821965675867
  0
ARC
  5
504C
  8
0
 10
-11.4556099649073992
 20
-8.072819180046757
 30
0.0
 40
0.0141380616461162
 50
142.2432570289163039
 51
201.0840122144786051
  0
ARC
  5
504D
  8
0
 10
-11.4587772741793206
 20
-8.0648002956518923
 30
0.0
 40
0.0383798599857378
 50
191.1660939523314937
 51
237.0857252520384861
  0
ARC
  5
504E
  8
0
 10
-11.4434367304884805
 20
-8.0415960832222382
 30
0.0
 40
0.0661957850697034
 50
236.8525800400466039
 51
270.5612916271606991
  0
ARC
  5
504F
  8
0
 10
-11.4434938911176793
 20
-8.0357614014281182
 30
0.0
 40
0.0720307468498838
 50
270.5612916271604149
 51
298.4556179892563819
  0
ARC
  5
5050
  8
0
 10
-11.4285244223350499
 20
-8.0633827349576652
 30
0.0
 40
0.0406138236780565
 50
298.4556179892567229
 51
332.9437741911260105
  0
ARC
  5
5051
  8
0
 10
-11.4192235552133994
 20
-8.0681332659546712
 30
0.0
 40
0.0301699894219883
 50
332.9437741911266926
 51
19.715712542526969
  0
ARC
  5
5052
  8
0
 10
-11.4200994388380508
 20
-8.0684471487146272
 30
0.0
 40
0.0311004164803505
 50
19.7157125425268589
 51
54.8331801483434305
  0
ARC
  5
5053
  8
0
 10
-11.4433335377924497
 20
-8.1014241103003979
 30
0.0
 40
0.0714402646413492
 50
54.8331801483434305
 51
104.294939247249701
  0
ARC
  5
5054
  8
0
 10
-11.4494907181218508
 20
-8.0839182205045166
 30
0.0
 40
0.0529816253121694
 50
102.5166793028133014
 51
141.0664828003309026
  0
ARC
  5
5055
  8
0
 10
-11.4674560129840994
 20
-8.0683480491452997
 30
0.0
 40
0.029233837479575
 50
142.6776240063616967
 51
187.636168006965903
  0
ARC
  5
5056
  8
0
 10
-11.4646267199775007
 20
-8.0300776281284527
 30
0.0
 40
0.0528902266416446
 50
207.4387534367899946
 51
233.0688354146961103
  0
ARC
  5
5057
  8
0
 10
-11.4792438988167493
 20
-8.0376670015017915
 30
0.0
 40
0.0364202386204419
 50
164.4484521359381972
 51
207.4387534367903925
  0
ARC
  5
5058
  8
0
 10
-11.4721663336940001
 20
-8.0396366429999162
 30
0.0
 40
0.0437667626759333
 50
137.0346300022756054
 51
164.448452135937913
  0
ARC
  5
5059
  8
0
 10
-11.4481948935658497
 20
-8.0654178657931617
 30
0.0
 40
0.0789200915161391
 50
96.4644944651972338
 51
135.1990434438525881
  0
ARC
  5
505A
  8
0
 10
-11.4427771901220297
 20
-8.0825820014805085
 30
0.0
 40
0.0966466853071577
 50
61.6197181887614533
 51
98.5106869862444512
  0
ARC
  5
505B
  8
0
 10
-11.4275564004797392
 20
-8.0521299043251222
 30
0.0
 40
0.0626291568741701
 50
40.9102408543890874
 51
60.6288048219719471
  0
ARC
  5
505C
  8
0
 10
-11.4126217371482497
 20
-8.0391066609929869
 30
0.0
 40
0.042813924073279
 50
8.5372227153911826
 51
40.8275525468781382
  0
ARC
  5
505D
  8
0
 10
-11.4087807203330502
 20
-8.0373923306313841
 30
0.0
 40
0.038777297864841
 50
324.0143525887010014
 51
6.8745443542275169
  0
ARC
  5
505E
  8
0
 10
-11.4214123945580095
 20
-8.0293558780221836
 30
0.0
 40
0.0537283420409773
 50
306.6125708400750796
 51
324.9947844543247015
  0
LINE
  5
505F
  8
0
 10
-11.5083993850417308
 20
-8.0150867854613495
 30
0.0
 11
-11.4964340539048298
 21
-8.0722068570153915
 31
0.0
  0
LINE
  5
5060
  8
0
 10
-11.3891814228154598
 20
-8.0709078907415002
 30
0.0
 11
-11.3771504816017508
 21
-8.0151312126237215
 31
0.0
  0
ARC
  5
5061
  8
0
 10
-10.4076086603453408
 20
-8.0804296276926166
 30
0.0
 40
0.0262174629962694
 50
97.8569376147588628
 51
141.649035104387309
  0
ARC
  5
5062
  8
0
 10
-10.4042043464805403
 20
-8.0895802466856566
 30
0.0
 40
0.0358104449869578
 50
60.7874222569299505
 51
101.2532159677120944
  0
ARC
  5
5063
  8
0
 10
-10.3941236020866796
 20
-8.0736138320291175
 30
0.0
 40
0.0169846297549829
 50
15.5783125429725207
 51
64.1837006098832887
  0
ARC
  5
5064
  8
0
 10
-10.3915387860599306
 20
-8.0728931929852639
 30
0.0
 40
0.0143012374013211
 50
327.7979882057106238
 51
15.5783125429716698
  0
ARC
  5
5065
  8
0
 10
-10.3969922559933607
 20
-8.0694586922582392
 30
0.0
 40
0.0207460903522246
 50
294.5421888526400949
 51
327.7979882057106806
  0
ARC
  5
5066
  8
0
 10
-10.4040419201716094
 20
-8.0540197522500776
 30
0.0
 40
0.0377183805218454
 50
241.4464821965669046
 51
294.5421888526399812
  0
ARC
  5
5067
  8
0
 10
-10.4135499314400501
 20
-8.0714923908372516
 30
0.0
 40
0.017826287181054
 50
201.0840122144792019
 51
241.4464821965675867
  0
ARC
  5
5068
  8
0
 10
-10.4169912448506707
 20
-8.072819180046757
 30
0.0
 40
0.0141380616461162
 50
142.2432570289163039
 51
201.0840122144786051
  0
ARC
  5
5069
  8
0
 10
-10.4201585541225796
 20
-8.0648002956518923
 30
0.0
 40
0.0383798599857378
 50
191.1660939523314937
 51
237.0857252520384861
  0
ARC
  5
506A
  8
0
 10
-10.4048180104317503
 20
-8.0415960832222382
 30
0.0
 40
0.0661957850697034
 50
236.8525800400466039
 51
270.5612916271606991
  0
ARC
  5
506B
  8
0
 10
-10.4048751710609402
 20
-8.0357614014281182
 30
0.0
 40
0.0720307468498838
 50
270.5612916271604149
 51
298.4556179892563819
  0
ARC
  5
506C
  8
0
 10
-10.3899057022783197
 20
-8.0633827349576652
 30
0.0
 40
0.0406138236780565
 50
298.4556179892567229
 51
332.9437741911260105
  0
ARC
  5
506D
  8
0
 10
-10.3806048351566709
 20
-8.0681332659546712
 30
0.0
 40
0.0301699894219883
 50
332.9437741911266926
 51
19.715712542526969
  0
ARC
  5
506E
  8
0
 10
-10.3814807187813205
 20
-8.0684471487146272
 30
0.0
 40
0.0311004164803505
 50
19.7157125425268589
 51
54.8331801483434305
  0
ARC
  5
506F
  8
0
 10
-10.4047148177357194
 20
-8.1014241103003979
 30
0.0
 40
0.0714402646413492
 50
54.8331801483434305
 51
104.294939247249701
  0
ARC
  5
5070
  8
0
 10
-10.4108719980651205
 20
-8.0839182205045166
 30
0.0
 40
0.0529816253121694
 50
102.5166793028133014
 51
141.0664828003309026
  0
ARC
  5
5071
  8
0
 10
-10.4288372929273603
 20
-8.0683480491452997
 30
0.0
 40
0.029233837479575
 50
142.6776240063616967
 51
187.636168006965903
  0
ARC
  5
5072
  8
0
 10
-10.4260079999207704
 20
-8.0300776281284527
 30
0.0
 40
0.0528902266416446
 50
207.4387534367899946
 51
233.0688354146961103
  0
ARC
  5
5073
  8
0
 10
-10.4406251787600208
 20
-8.0376670015017915
 30
0.0
 40
0.0364202386204419
 50
164.4484521359381972
 51
207.4387534367903925
  0
ARC
  5
5074
  8
0
 10
-10.4335476136372698
 20
-8.0396366429999162
 30
0.0
 40
0.0437667626759333
 50
137.0346300022756054
 51
164.448452135937913
  0
ARC
  5
5075
  8
0
 10
-10.4095761735091106
 20
-8.0654178657931617
 30
0.0
 40
0.0789200915161391
 50
96.4644944651972338
 51
135.1990434438525881
  0
ARC
  5
5076
  8
0
 10
-10.4041584700652905
 20
-8.0825820014805085
 30
0.0
 40
0.0966466853071577
 50
61.6197181887614533
 51
98.5106869862444512
  0
ARC
  5
5077
  8
0
 10
-10.3889376804230107
 20
-8.0521299043251222
 30
0.0
 40
0.0626291568741701
 50
40.9102408543890874
 51
60.628804821972011
  0
ARC
  5
5078
  8
0
 10
-10.3740030170915194
 20
-8.0391066609929869
 30
0.0
 40
0.042813924073279
 50
8.5372227153911826
 51
40.8275525468781382
  0
ARC
  5
5079
  8
0
 10
-10.37016200027632
 20
-8.0373923306313841
 30
0.0
 40
0.038777297864841
 50
324.0143525887010014
 51
6.8745443542275169
  0
ARC
  5
507A
  8
0
 10
-10.3827936745012792
 20
-8.0293558780221836
 30
0.0
 40
0.0537283420409773
 50
306.6125708400750796
 51
324.9947844543247015
  0
LINE
  5
507B
  8
0
 10
-10.4697806649850005
 20
-8.0150867854613495
 30
0.0
 11
-10.4578153338480995
 21
-8.0722068570153915
 31
0.0
  0
LINE
  5
507C
  8
0
 10
-10.3505627027587295
 20
-8.0709078907415002
 30
0.0
 11
-10.3385317615450205
 21
-8.0151312126237215
 31
0.0
  0
ARC
  5
507D
  8
0
 10
-9.3633092280730281
 20
-8.0804296276926166
 30
0.0
 40
0.0262174629962694
 50
97.8569376147588628
 51
141.649035104387309
  0
ARC
  5
507E
  8
0
 10
-9.3599049142082347
 20
-8.0895802466856566
 30
0.0
 40
0.0358104449869578
 50
60.7874222569299505
 51
101.2532159677120944
  0
ARC
  5
507F
  8
0
 10
-9.3498241698143723
 20
-8.0736138320291175
 30
0.0
 40
0.0169846297549829
 50
15.5783125429725207
 51
64.1837006098832887
  0
ARC
  5
5080
  8
0
 10
-9.3472393537876162
 20
-8.0728931929852639
 30
0.0
 40
0.0143012374013211
 50
327.7979882057106238
 51
15.5783125429716698
  0
ARC
  5
5081
  8
0
 10
-9.3526928237210498
 20
-8.0694586922582392
 30
0.0
 40
0.0207460903522246
 50
294.5421888526400949
 51
327.7979882057106806
  0
ARC
  5
5082
  8
0
 10
-9.3597424878993039
 20
-8.0540197522500776
 30
0.0
 40
0.0377183805218454
 50
241.4464821965669046
 51
294.5421888526399812
  0
ARC
  5
5083
  8
0
 10
-9.3692504991677446
 20
-8.0714923908372516
 30
0.0
 40
0.017826287181054
 50
201.0840122144792019
 51
241.4464821965675867
  0
ARC
  5
5084
  8
0
 10
-9.3726918125783634
 20
-8.072819180046757
 30
0.0
 40
0.0141380616461162
 50
142.2432570289163039
 51
201.0840122144786051
  0
ARC
  5
5085
  8
0
 10
-9.3758591218502758
 20
-8.0648002956518923
 30
0.0
 40
0.0383798599857378
 50
191.1660939523314937
 51
237.0857252520384861
  0
ARC
  5
5086
  8
0
 10
-9.3605185781594393
 20
-8.0415960832222382
 30
0.0
 40
0.0661957850697034
 50
236.8525800400466039
 51
270.5612916271606991
  0
ARC
  5
5087
  8
0
 10
-9.3605757387886364
 20
-8.0357614014281182
 30
0.0
 40
0.0720307468498838
 50
270.5612916271604149
 51
298.4556179892563819
  0
ARC
  5
5088
  8
0
 10
-9.3456062700060123
 20
-8.0633827349576652
 30
0.0
 40
0.0406138236780565
 50
298.4556179892567229
 51
332.9437741911260105
  0
ARC
  5
5089
  8
0
 10
-9.3363054028843564
 20
-8.0681332659546712
 30
0.0
 40
0.0301699894219883
 50
332.9437741911266926
 51
19.715712542526969
  0
ARC
  5
508A
  8
0
 10
-9.3371812865090096
 20
-8.0684471487146272
 30
0.0
 40
0.0311004164803505
 50
19.7157125425268589
 51
54.8331801483434305
  0
ARC
  5
508B
  8
0
 10
-9.3604153854634138
 20
-8.1014241103003979
 30
0.0
 40
0.0714402646413492
 50
54.8331801483434305
 51
104.294939247249701
  0
ARC
  5
508C
  8
0
 10
-9.3665725657928096
 20
-8.0839182205045166
 30
0.0
 40
0.0529816253121694
 50
102.5166793028133014
 51
141.0664828003309026
  0
ARC
  5
508D
  8
0
 10
-9.3845378606550547
 20
-8.0683480491452997
 30
0.0
 40
0.029233837479575
 50
142.6776240063616967
 51
187.636168006965903
  0
ARC
  5
508E
  8
0
 10
-9.3817085676484595
 20
-8.0300776281284527
 30
0.0
 40
0.0528902266416446
 50
207.4387534367899946
 51
233.0688354146961103
  0
ARC
  5
508F
  8
0
 10
-9.3963257464877081
 20
-8.0376670015017915
 30
0.0
 40
0.0364202386204419
 50
164.4484521359381972
 51
207.4387534367903925
  0
ARC
  5
5090
  8
0
 10
-9.3892481813649589
 20
-8.0396366429999162
 30
0.0
 40
0.0437667626759333
 50
137.0346300022756054
 51
164.448452135937913
  0
ARC
  5
5091
  8
0
 10
-9.3652767412368032
 20
-8.0654178657931617
 30
0.0
 40
0.0789200915161391
 50
96.4644944651972338
 51
135.1990434438525881
  0
ARC
  5
5092
  8
0
 10
-9.3598590377929831
 20
-8.0825820014805085
 30
0.0
 40
0.0966466853071577
 50
61.6197181887614533
 51
98.5106869862444512
  0
ARC
  5
5093
  8
0
 10
-9.3446382481506998
 20
-8.0521299043251222
 30
0.0
 40
0.0626291568741701
 50
40.9102408543890874
 51
60.628804821972011
  0
ARC
  5
5094
  8
0
 10
-9.329703584819212
 20
-8.0391066609929869
 30
0.0
 40
0.042813924073279
 50
8.5372227153911826
 51
40.8275525468781382
  0
ARC
  5
5095
  8
0
 10
-9.3258625680040108
 20
-8.0373923306313841
 30
0.0
 40
0.038777297864841
 50
324.0143525887010014
 51
6.8745443542275169
  0
ARC
  5
5096
  8
0
 10
-9.3384942422289718
 20
-8.0293558780221836
 30
0.0
 40
0.0537283420409773
 50
306.6125708400750796
 51
324.9947844543247015
  0
LINE
  5
5097
  8
0
 10
-9.4254812327126931
 20
-8.0150867854613495
 30
0.0
 11
-9.4135159015757921
 21
-8.0722068570153915
 31
0.0
  0
LINE
  5
5098
  8
0
 10
-9.3062632704864185
 20
-8.0709078907415002
 30
0.0
 11
-9.2942323292727114
 21
-8.0151312126237215
 31
0.0
  0
ARC
  5
5099
  8
0
 10
-8.3226511478959182
 20
-8.0804296276926166
 30
0.0
 40
0.0262174629962694
 50
97.8569376147588628
 51
141.649035104387309
  0
ARC
  5
509A
  8
0
 10
-8.3192468340311247
 20
-8.0895802466856566
 30
0.0
 40
0.0358104449869578
 50
60.7874222569299505
 51
101.2532159677120944
  0
ARC
  5
509B
  8
0
 10
-8.3091660896372623
 20
-8.0736138320291175
 30
0.0
 40
0.0169846297549829
 50
15.5783125429725207
 51
64.1837006098832887
  0
ARC
  5
509C
  8
0
 10
-8.306581273610508
 20
-8.0728931929852639
 30
0.0
 40
0.0143012374013211
 50
327.7979882057106238
 51
15.5783125429716698
  0
ARC
  5
509D
  8
0
 10
-8.3120347435439381
 20
-8.0694586922582392
 30
0.0
 40
0.0207460903522246
 50
294.5421888526400949
 51
327.7979882057106806
  0
ARC
  5
509E
  8
0
 10
-8.3190844077221922
 20
-8.0540197522500776
 30
0.0
 40
0.0377183805218454
 50
241.4464821965669046
 51
294.5421888526399812
  0
ARC
  5
509F
  8
0
 10
-8.3285924189906346
 20
-8.0714923908372516
 30
0.0
 40
0.017826287181054
 50
201.0840122144792019
 51
241.4464821965675867
  0
ARC
  5
50A0
  8
0
 10
-8.3320337324012534
 20
-8.072819180046757
 30
0.0
 40
0.0141380616461162
 50
142.2432570289163039
 51
201.0840122144786051
  0
ARC
  5
50A1
  8
0
 10
-8.3352010416731641
 20
-8.0648002956518923
 30
0.0
 40
0.0383798599857378
 50
191.1660939523314937
 51
237.0857252520384861
  0
ARC
  5
50A2
  8
0
 10
-8.3198604979823294
 20
-8.0415960832222382
 30
0.0
 40
0.0661957850697034
 50
236.8525800400466039
 51
270.5612916271606991
  0
ARC
  5
50A3
  8
0
 10
-8.3199176586115264
 20
-8.0357614014281182
 30
0.0
 40
0.0720307468498838
 50
270.5612916271604149
 51
298.4556179892563819
  0
ARC
  5
50A4
  8
0
 10
-8.3049481898289024
 20
-8.0633827349576652
 30
0.0
 40
0.0406138236780565
 50
298.4556179892567229
 51
332.9437741911260105
  0
ARC
  5
50A5
  8
0
 10
-8.2956473227072465
 20
-8.0681332659546712
 30
0.0
 40
0.0301699894219883
 50
332.9437741911266926
 51
19.715712542526969
  0
ARC
  5
50A6
  8
0
 10
-8.2965232063318997
 20
-8.0684471487146272
 30
0.0
 40
0.0311004164803505
 50
19.7157125425268589
 51
54.8331801483434305
  0
ARC
  5
50A7
  8
0
 10
-8.3197573052863039
 20
-8.1014241103003979
 30
0.0
 40
0.0714402646413492
 50
54.8331801483434305
 51
104.294939247249701
  0
ARC
  5
50A8
  8
0
 10
-8.3259144856156997
 20
-8.0839182205045166
 30
0.0
 40
0.0529816253121694
 50
102.5166793028133014
 51
141.0664828003309026
  0
ARC
  5
50A9
  8
0
 10
-8.3438797804779448
 20
-8.0683480491452997
 30
0.0
 40
0.029233837479575
 50
142.6776240063616967
 51
187.636168006965903
  0
ARC
  5
50AA
  8
0
 10
-8.3410504874713496
 20
-8.0300776281284527
 30
0.0
 40
0.0528902266416446
 50
207.4387534367899946
 51
233.0688354146961103
  0
ARC
  5
50AB
  8
0
 10
-8.3556676663105982
 20
-8.0376670015017915
 30
0.0
 40
0.0364202386204419
 50
164.4484521359381972
 51
207.4387534367903925
  0
ARC
  5
50AC
  8
0
 10
-8.3485901011878472
 20
-8.0396366429999162
 30
0.0
 40
0.0437667626759333
 50
137.0346300022756054
 51
164.448452135937913
  0
ARC
  5
50AD
  8
0
 10
-8.3246186610596951
 20
-8.0654178657931617
 30
0.0
 40
0.0789200915161391
 50
96.4644944651972338
 51
135.1990434438525881
  0
ARC
  5
50AE
  8
0
 10
-8.3192009576158732
 20
-8.0825820014805085
 30
0.0
 40
0.0966466853071577
 50
61.6197181887614533
 51
98.5106869862444512
  0
ARC
  5
50AF
  8
0
 10
-8.3039801679735898
 20
-8.0521299043251222
 30
0.0
 40
0.0626291568741701
 50
40.9102408543890235
 51
60.6288048219719471
  0
ARC
  5
50B0
  8
0
 10
-8.2890455046421021
 20
-8.0391066609929869
 30
0.0
 40
0.042813924073279
 50
8.5372227153911826
 51
40.8275525468781382
  0
ARC
  5
50B1
  8
0
 10
-8.2852044878269009
 20
-8.0373923306313841
 30
0.0
 40
0.038777297864841
 50
324.0143525887010014
 51
6.8745443542275169
  0
ARC
  5
50B2
  8
0
 10
-8.2978361620518601
 20
-8.0293558780221836
 30
0.0
 40
0.0537283420409773
 50
306.6125708400750796
 51
324.9947844543247015
  0
LINE
  5
50B3
  8
0
 10
-8.3848231525355832
 20
-8.0150867854613495
 30
0.0
 11
-8.3728578213986822
 21
-8.0722068570153915
 31
0.0
  0
LINE
  5
50B4
  8
0
 10
-8.2656051903093086
 20
-8.0709078907415002
 30
0.0
 11
-8.2535742490956014
 21
-8.0151312126237215
 31
0.0
  0
ARC
  5
50B5
  8
0
 10
-7.276439025436054
 20
-8.0804296276926166
 30
0.0
 40
0.0262174629962694
 50
97.8569376147588628
 51
141.649035104387309
  0
ARC
  5
50B6
  8
0
 10
-7.2730347115712606
 20
-8.0895802466856566
 30
0.0
 40
0.0358104449869578
 50
60.7874222569299505
 51
101.2532159677120944
  0
ARC
  5
50B7
  8
0
 10
-7.2629539671773991
 20
-8.0736138320291175
 30
0.0
 40
0.0169846297549829
 50
15.5783125429725207
 51
64.1837006098832887
  0
ARC
  5
50B8
  8
0
 10
-7.2603691511506439
 20
-8.0728931929852639
 30
0.0
 40
0.0143012374013211
 50
327.7979882057106238
 51
15.5783125429716698
  0
ARC
  5
50B9
  8
0
 10
-7.2658226210840766
 20
-8.0694586922582392
 30
0.0
 40
0.0207460903522246
 50
294.5421888526400949
 51
327.7979882057106806
  0
ARC
  5
50BA
  8
0
 10
-7.2728722852623298
 20
-8.0540197522500776
 30
0.0
 40
0.0377183805218454
 50
241.4464821965669046
 51
294.5421888526399812
  0
ARC
  5
50BB
  8
0
 10
-7.2823802965307696
 20
-8.0714923908372516
 30
0.0
 40
0.017826287181054
 50
201.0840122144792019
 51
241.4464821965675867
  0
ARC
  5
50BC
  8
0
 10
-7.2858216099413893
 20
-8.072819180046757
 30
0.0
 40
0.0141380616461162
 50
142.2432570289163039
 51
201.0840122144786051
  0
ARC
  5
50BD
  8
0
 10
-7.2889889192133008
 20
-8.0648002956518923
 30
0.0
 40
0.0383798599857378
 50
191.1660939523314937
 51
237.0857252520384861
  0
ARC
  5
50BE
  8
0
 10
-7.273648375522467
 20
-8.0415960832222382
 30
0.0
 40
0.0661957850697034
 50
236.8525800400466039
 51
270.5612916271606991
  0
ARC
  5
50BF
  8
0
 10
-7.2737055361516632
 20
-8.0357614014281182
 30
0.0
 40
0.0720307468498838
 50
270.5612916271604149
 51
298.4556179892563819
  0
ARC
  5
50C0
  8
0
 10
-7.2587360673690391
 20
-8.0633827349576652
 30
0.0
 40
0.0406138236780565
 50
298.4556179892567229
 51
332.9437741911260105
  0
ARC
  5
50C1
  8
0
 10
-7.2494352002473832
 20
-8.0681332659546712
 30
0.0
 40
0.0301699894219883
 50
332.9437741911266926
 51
19.715712542526969
  0
ARC
  5
50C2
  8
0
 10
-7.2503110838720364
 20
-8.0684471487146272
 30
0.0
 40
0.0311004164803505
 50
19.7157125425268589
 51
54.8331801483434305
  0
ARC
  5
50C3
  8
0
 10
-7.2735451828264397
 20
-8.1014241103003979
 30
0.0
 40
0.0714402646413492
 50
54.8331801483434305
 51
104.294939247249701
  0
ARC
  5
50C4
  8
0
 10
-7.2797023631558364
 20
-8.0839182205045166
 30
0.0
 40
0.0529816253121694
 50
102.5166793028133014
 51
141.0664828003309026
  0
ARC
  5
50C5
  8
0
 10
-7.2976676580180806
 20
-8.0683480491452997
 30
0.0
 40
0.029233837479575
 50
142.6776240063616967
 51
187.636168006965903
  0
ARC
  5
50C6
  8
0
 10
-7.2948383650114872
 20
-8.0300776281284527
 30
0.0
 40
0.0528902266416446
 50
207.4387534367899946
 51
233.0688354146961103
  0
ARC
  5
50C7
  8
0
 10
-7.3094555438507358
 20
-8.0376670015017915
 30
0.0
 40
0.0364202386204419
 50
164.4484521359381972
 51
207.4387534367903925
  0
ARC
  5
50C8
  8
0
 10
-7.3023779787279848
 20
-8.0396366429999162
 30
0.0
 40
0.0437667626759333
 50
137.0346300022756054
 51
164.448452135937913
  0
ARC
  5
50C9
  8
0
 10
-7.2784065385998318
 20
-8.0654178657931617
 30
0.0
 40
0.0789200915161391
 50
96.4644944651972338
 51
135.1990434438525881
  0
ARC
  5
50CA
  8
0
 10
-7.2729888351560108
 20
-8.0825820014805085
 30
0.0
 40
0.0966466853071577
 50
61.6197181887614533
 51
98.5106869862444512
  0
ARC
  5
50CB
  8
0
 10
-7.2577680455137257
 20
-8.0521299043251222
 30
0.0
 40
0.0626291568741701
 50
40.9102408543890235
 51
60.6288048219719471
  0
ARC
  5
50CC
  8
0
 10
-7.2428333821822379
 20
-8.0391066609929869
 30
0.0
 40
0.042813924073279
 50
8.5372227153911826
 51
40.8275525468781382
  0
ARC
  5
50CD
  8
0
 10
-7.2389923653670367
 20
-8.0373923306313841
 30
0.0
 40
0.038777297864841
 50
324.0143525887010014
 51
6.8745443542275169
  0
ARC
  5
50CE
  8
0
 10
-7.2516240395919978
 20
-8.0293558780221836
 30
0.0
 40
0.0537283420409773
 50
306.6125708400750796
 51
324.9947844543247015
  0
LINE
  5
50CF
  8
0
 10
-7.338611030075719
 20
-8.0150867854613495
 30
0.0
 11
-7.326645698938818
 21
-8.0722068570153915
 31
0.0
  0
LINE
  5
50D0
  8
0
 10
-7.2193930678494453
 20
-8.0709078907415002
 30
0.0
 11
-7.2073621266357382
 21
-8.0151312126237215
 31
0.0
  0
ARC
  5
50D1
  8
0
 10
-6.2338759945785034
 20
-8.0804296276926166
 30
0.0
 40
0.0262174629962694
 50
97.8569376147588628
 51
141.649035104387309
  0
ARC
  5
50D2
  8
0
 10
-6.2304716807137099
 20
-8.0895802466856566
 30
0.0
 40
0.0358104449869578
 50
60.7874222569299505
 51
101.2532159677120944
  0
ARC
  5
50D3
  8
0
 10
-6.2203909363198484
 20
-8.0736138320291175
 30
0.0
 40
0.0169846297549829
 50
15.5783125429725207
 51
64.1837006098832887
  0
ARC
  5
50D4
  8
0
 10
-6.2178061202930941
 20
-8.0728931929852639
 30
0.0
 40
0.0143012374013211
 50
327.7979882057106238
 51
15.5783125429716698
  0
ARC
  5
50D5
  8
0
 10
-6.223259590226526
 20
-8.0694586922582392
 30
0.0
 40
0.0207460903522246
 50
294.5421888526400949
 51
327.7979882057106806
  0
ARC
  5
50D6
  8
0
 10
-6.23030925440478
 20
-8.0540197522500776
 30
0.0
 40
0.0377183805218454
 50
241.4464821965669046
 51
294.5421888526399812
  0
ARC
  5
50D7
  8
0
 10
-6.2398172656732189
 20
-8.0714923908372516
 30
0.0
 40
0.017826287181054
 50
201.0840122144792019
 51
241.4464821965675867
  0
ARC
  5
50D8
  8
0
 10
-6.2432585790838377
 20
-8.072819180046757
 30
0.0
 40
0.0141380616461162
 50
142.2432570289163039
 51
201.0840122144786051
  0
ARC
  5
50D9
  8
0
 10
-6.2464258883557511
 20
-8.0648002956518923
 30
0.0
 40
0.0383798599857378
 50
191.1660939523314937
 51
237.0857252520384861
  0
ARC
  5
50DA
  8
0
 10
-6.2310853446649164
 20
-8.0415960832222382
 30
0.0
 40
0.0661957850697034
 50
236.8525800400466039
 51
270.5612916271606991
  0
ARC
  5
50DB
  8
0
 10
-6.2311425052941116
 20
-8.0357614014281182
 30
0.0
 40
0.0720307468498838
 50
270.5612916271604149
 51
298.4556179892563819
  0
ARC
  5
50DC
  8
0
 10
-6.2161730365114893
 20
-8.0633827349576652
 30
0.0
 40
0.0406138236780565
 50
298.4556179892567229
 51
332.9437741911260105
  0
ARC
  5
50DD
  8
0
 10
-6.2068721693898317
 20
-8.0681332659546712
 30
0.0
 40
0.0301699894219883
 50
332.9437741911266926
 51
19.715712542526969
  0
ARC
  5
50DE
  8
0
 10
-6.2077480530144848
 20
-8.0684471487146272
 30
0.0
 40
0.0311004164803505
 50
19.7157125425268589
 51
54.8331801483434305
  0
ARC
  5
50DF
  8
0
 10
-6.230982151968889
 20
-8.1014241103003979
 30
0.0
 40
0.0714402646413492
 50
54.8331801483434305
 51
104.294939247249701
  0
ARC
  5
50E0
  8
0
 10
-6.2371393322982849
 20
-8.0839182205045166
 30
0.0
 40
0.0529816253121694
 50
102.5166793028133014
 51
141.0664828003309026
  0
ARC
  5
50E1
  8
0
 10
-6.25510462716053
 20
-8.0683480491452997
 30
0.0
 40
0.029233837479575
 50
142.6776240063616967
 51
187.636168006965903
  0
ARC
  5
50E2
  8
0
 10
-6.2522753341539357
 20
-8.0300776281284527
 30
0.0
 40
0.0528902266416446
 50
207.4387534367899946
 51
233.0688354146961103
  0
ARC
  5
50E3
  8
0
 10
-6.2668925129931861
 20
-8.0376670015017915
 30
0.0
 40
0.0364202386204419
 50
164.4484521359381972
 51
207.4387534367903925
  0
ARC
  5
50E4
  8
0
 10
-6.259814947870435
 20
-8.0396366429999162
 30
0.0
 40
0.0437667626759333
 50
137.0346300022756054
 51
164.448452135937913
  0
ARC
  5
50E5
  8
0
 10
-6.235843507742282
 20
-8.0654178657931617
 30
0.0
 40
0.0789200915161391
 50
96.4644944651972338
 51
135.1990434438525881
  0
ARC
  5
50E6
  8
0
 10
-6.230425804298461
 20
-8.0825820014805085
 30
0.0
 40
0.0966466853071577
 50
61.6197181887614533
 51
98.5106869862444512
  0
ARC
  5
50E7
  8
0
 10
-6.215205014656175
 20
-8.0521299043251222
 30
0.0
 40
0.0626291568741701
 50
40.9102408543890235
 51
60.6288048219719471
  0
ARC
  5
50E8
  8
0
 10
-6.2002703513246882
 20
-8.0391066609929869
 30
0.0
 40
0.042813924073279
 50
8.5372227153911826
 51
40.8275525468781382
  0
ARC
  5
50E9
  8
0
 10
-6.1964293345094861
 20
-8.0373923306313841
 30
0.0
 40
0.038777297864841
 50
324.0143525887010014
 51
6.8745443542275169
  0
ARC
  5
50EA
  8
0
 10
-6.2090610087344471
 20
-8.0293558780221836
 30
0.0
 40
0.0537283420409773
 50
306.6125708400750796
 51
324.9947844543247015
  0
LINE
  5
50EB
  8
0
 10
-6.2960479992181693
 20
-8.0150867854613495
 30
0.0
 11
-6.2840826680812674
 21
-8.0722068570153915
 31
0.0
  0
LINE
  5
50EC
  8
0
 10
-6.1768300369918938
 20
-8.0709078907415002
 30
0.0
 11
-6.1647990957781866
 21
-8.0151312126237215
 31
0.0
  0
ARC
  5
50ED
  8
0
 10
-5.1914504689637146
 20
-8.0804296276926166
 30
0.0
 40
0.0262174629962694
 50
97.8569376147588628
 51
141.649035104387309
  0
ARC
  5
50EE
  8
0
 10
-5.1880461550989221
 20
-8.0895802466856566
 30
0.0
 40
0.0358104449869578
 50
60.7874222569299505
 51
101.2532159677120944
  0
ARC
  5
50EF
  8
0
 10
-5.1779654107050588
 20
-8.0736138320291175
 30
0.0
 40
0.0169846297549829
 50
15.5783125429725207
 51
64.1837006098832887
  0
ARC
  5
50F0
  8
0
 10
-5.1753805946783054
 20
-8.0728931929852639
 30
0.0
 40
0.0143012374013211
 50
327.7979882057106238
 51
15.5783125429716698
  0
ARC
  5
50F1
  8
0
 10
-5.1808340646117372
 20
-8.0694586922582392
 30
0.0
 40
0.0207460903522246
 50
294.5421888526400949
 51
327.7979882057106806
  0
ARC
  5
50F2
  8
0
 10
-5.1878837287899913
 20
-8.0540197522500776
 30
0.0
 40
0.0377183805218454
 50
241.4464821965669046
 51
294.5421888526399812
  0
ARC
  5
50F3
  8
0
 10
-5.1973917400584311
 20
-8.0714923908372516
 30
0.0
 40
0.017826287181054
 50
201.0840122144792019
 51
241.4464821965675867
  0
ARC
  5
50F4
  8
0
 10
-5.2008330534690499
 20
-8.072819180046757
 30
0.0
 40
0.0141380616461162
 50
142.2432570289163039
 51
201.0840122144786051
  0
ARC
  5
50F5
  8
0
 10
-5.2040003627409632
 20
-8.0648002956518923
 30
0.0
 40
0.0383798599857378
 50
191.1660939523314937
 51
237.0857252520384861
  0
ARC
  5
50F6
  8
0
 10
-5.1886598190501259
 20
-8.0415960832222382
 30
0.0
 40
0.0661957850697034
 50
236.8525800400466039
 51
270.5612916271606991
  0
ARC
  5
50F7
  8
0
 10
-5.1887169796793229
 20
-8.0357614014281182
 30
0.0
 40
0.0720307468498838
 50
270.5612916271604149
 51
298.4556179892563819
  0
ARC
  5
50F8
  8
0
 10
-5.1737475108966988
 20
-8.0633827349576652
 30
0.0
 40
0.0406138236780565
 50
298.4556179892567229
 51
332.9437741911260105
  0
ARC
  5
50F9
  8
0
 10
-5.1644466437750429
 20
-8.0681332659546712
 30
0.0
 40
0.0301699894219883
 50
332.9437741911266926
 51
19.7157125425269193
  0
ARC
  5
50FA
  8
0
 10
-5.1653225273996961
 20
-8.0684471487146272
 30
0.0
 40
0.0311004164803505
 50
19.7157125425268589
 51
54.8331801483434305
  0
ARC
  5
50FB
  8
0
 10
-5.1885566263541012
 20
-8.1014241103003979
 30
0.0
 40
0.0714402646413492
 50
54.8331801483434305
 51
104.294939247249701
  0
ARC
  5
50FC
  8
0
 10
-5.194713806683497
 20
-8.0839182205045166
 30
0.0
 40
0.0529816253121694
 50
102.5166793028133014
 51
141.0664828003309026
  0
ARC
  5
50FD
  8
0
 10
-5.2126791015457421
 20
-8.0683480491452997
 30
0.0
 40
0.029233837479575
 50
142.6776240063616967
 51
187.636168006965903
  0
ARC
  5
50FE
  8
0
 10
-5.209849808539146
 20
-8.0300776281284527
 30
0.0
 40
0.0528902266416446
 50
207.4387534367899946
 51
233.0688354146961103
  0
ARC
  5
50FF
  8
0
 10
-5.2244669873783973
 20
-8.0376670015017915
 30
0.0
 40
0.0364202386204419
 50
164.4484521359381972
 51
207.4387534367903925
  0
ARC
  5
5100
  8
0
 10
-5.2173894222556463
 20
-8.0396366429999162
 30
0.0
 40
0.0437667626759333
 50
137.0346300022756054
 51
164.448452135937913
  0
ARC
  5
5101
  8
0
 10
-5.1934179821274924
 20
-8.0654178657931617
 30
0.0
 40
0.0789200915161391
 50
96.4644944651972338
 51
135.1990434438525881
  0
ARC
  5
5102
  8
0
 10
-5.1880002786836723
 20
-8.0825820014805085
 30
0.0
 40
0.0966466853071577
 50
61.6197181887614533
 51
98.5106869862444512
  0
ARC
  5
5103
  8
0
 10
-5.1727794890413872
 20
-8.0521299043251222
 30
0.0
 40
0.0626291568741701
 50
40.9102408543890235
 51
60.6288048219719471
  0
ARC
  5
5104
  8
0
 10
-5.1578448257098994
 20
-8.0391066609929869
 30
0.0
 40
0.042813924073279
 50
8.5372227153911826
 51
40.8275525468781382
  0
ARC
  5
5105
  8
0
 10
-5.1540038088946982
 20
-8.0373923306313841
 30
0.0
 40
0.038777297864841
 50
324.0143525887010014
 51
6.8745443542275169
  0
ARC
  5
5106
  8
0
 10
-5.1666354831196593
 20
-8.0293558780221836
 30
0.0
 40
0.0537283420409773
 50
306.6125708400750796
 51
324.9947844543247015
  0
LINE
  5
5107
  8
0
 10
-5.2536224736033796
 20
-8.0150867854613495
 30
0.0
 11
-5.2416571424664786
 21
-8.0722068570153915
 31
0.0
  0
LINE
  5
5108
  8
0
 10
-5.1344045113771051
 20
-8.0709078907415002
 30
0.0
 11
-5.1223735701633979
 21
-8.0151312126237215
 31
0.0
  0
ARC
  5
5109
  8
0
 10
-4.1490645868241884
 20
-8.0804296276926166
 30
0.0
 40
0.0262174629962694
 50
97.8569376147588628
 51
141.649035104387309
  0
ARC
  5
510A
  8
0
 10
-4.1456602729593941
 20
-8.0895802466856566
 30
0.0
 40
0.0358104449869578
 50
60.7874222569300073
 51
101.2532159677120944
  0
ARC
  5
510B
  8
0
 10
-4.1355795285655317
 20
-8.0736138320291175
 30
0.0
 40
0.0169846297549829
 50
15.5783125429725207
 51
64.1837006098832177
  0
ARC
  5
510C
  8
0
 10
-4.1329947125387783
 20
-8.0728931929852639
 30
0.0
 40
0.0143012374013211
 50
327.7979882057106238
 51
15.5783125429716698
  0
ARC
  5
510D
  8
0
 10
-4.1384481824722101
 20
-8.0694586922582392
 30
0.0
 40
0.0207460903522246
 50
294.5421888526400949
 51
327.7979882057106806
  0
ARC
  5
510E
  8
0
 10
-4.1454978466504642
 20
-8.0540197522500776
 30
0.0
 40
0.0377183805218454
 50
241.4464821965669046
 51
294.5421888526399812
  0
ARC
  5
510F
  8
0
 10
-4.155005857918904
 20
-8.0714923908372516
 30
0.0
 40
0.017826287181054
 50
201.0840122144792019
 51
241.4464821965675867
  0
ARC
  5
5110
  8
0
 10
-4.1584471713295228
 20
-8.072819180046757
 30
0.0
 40
0.0141380616461162
 50
142.2432570289163039
 51
201.0840122144786051
  0
ARC
  5
5111
  8
0
 10
-4.1616144806014361
 20
-8.0648002956518923
 30
0.0
 40
0.0383798599857378
 50
191.1660939523314937
 51
237.0857252520384861
  0
ARC
  5
5112
  8
0
 10
-4.1462739369105988
 20
-8.0415960832222382
 30
0.0
 40
0.0661957850697034
 50
236.8525800400466039
 51
270.5612916271606991
  0
ARC
  5
5113
  8
0
 10
-4.1463310975397958
 20
-8.0357614014281182
 30
0.0
 40
0.0720307468498838
 50
270.5612916271604149
 51
298.4556179892563819
  0
ARC
  5
5114
  8
0
 10
-4.1313616287571717
 20
-8.0633827349576652
 30
0.0
 40
0.0406138236780565
 50
298.4556179892566092
 51
332.9437741911260105
  0
ARC
  5
5115
  8
0
 10
-4.1220607616355158
 20
-8.0681332659546712
 30
0.0
 40
0.0301699894219883
 50
332.9437741911266926
 51
19.7157125425269193
  0
ARC
  5
5116
  8
0
 10
-4.122936645260169
 20
-8.0684471487146272
 30
0.0
 40
0.0311004164803505
 50
19.7157125425268589
 51
54.8331801483434305
  0
ARC
  5
5117
  8
0
 10
-4.1461707442145741
 20
-8.1014241103003979
 30
0.0
 40
0.0714402646413492
 50
54.8331801483434305
 51
104.294939247249701
  0
ARC
  5
5118
  8
0
 10
-4.152327924543969
 20
-8.0839182205045166
 30
0.0
 40
0.0529816253121694
 50
102.516679302813202
 51
141.0664828003309026
  0
ARC
  5
5119
  8
0
 10
-4.170293219406215
 20
-8.0683480491452997
 30
0.0
 40
0.029233837479575
 50
142.6776240063616967
 51
187.636168006965903
  0
ARC
  5
511A
  8
0
 10
-4.1674639263996189
 20
-8.0300776281284527
 30
0.0
 40
0.0528902266416446
 50
207.4387534367899946
 51
233.0688354146961103
  0
ARC
  5
511B
  8
0
 10
-4.1820811052388702
 20
-8.0376670015017915
 30
0.0
 40
0.0364202386204419
 50
164.4484521359381972
 51
207.4387534367903925
  0
ARC
  5
511C
  8
0
 10
-4.1750035401161192
 20
-8.0396366429999162
 30
0.0
 40
0.0437667626759333
 50
137.0346300022756054
 51
164.448452135937913
  0
ARC
  5
511D
  8
0
 10
-4.1510320999879653
 20
-8.0654178657931617
 30
0.0
 40
0.0789200915161391
 50
96.4644944651972338
 51
135.1990434438525881
  0
ARC
  5
511E
  8
0
 10
-4.1456143965441452
 20
-8.0825820014805085
 30
0.0
 40
0.0966466853071577
 50
61.6197181887615102
 51
98.5106869862444512
  0
ARC
  5
511F
  8
0
 10
-4.1303936069018601
 20
-8.0521299043251222
 30
0.0
 40
0.0626291568741701
 50
40.9102408543890235
 51
60.6288048219719471
  0
ARC
  5
5120
  8
0
 10
-4.1154589435703723
 20
-8.0391066609929869
 30
0.0
 40
0.042813924073279
 50
8.5372227153911826
 51
40.8275525468781382
  0
ARC
  5
5121
  8
0
 10
-4.1116179267551711
 20
-8.0373923306313841
 30
0.0
 40
0.038777297864841
 50
324.0143525887010014
 51
6.8745443542275169
  0
ARC
  5
5122
  8
0
 10
-4.1242496009801322
 20
-8.0293558780221836
 30
0.0
 40
0.0537283420409773
 50
306.6125708400750796
 51
324.9947844543247015
  0
LINE
  5
5123
  8
0
 10
-4.2112365914638534
 20
-8.0150867854613495
 30
0.0
 11
-4.1992712603269524
 21
-8.0722068570153915
 31
0.0
  0
LINE
  5
5124
  8
0
 10
-4.092018629237578
 20
-8.0709078907415002
 30
0.0
 11
-4.0799876880238708
 21
-8.0151312126237215
 31
0.0
  0
ENDSEC
  0
EOF
