  0
SECTION
  2
HEADER
  9
$ACADVER
  1
AC1009
  9
$INSBASE
 10
-31.9122068342834417
 20
8.4601655118586923
 30
0.0
  9
$EXTMIN
 10
-37.1281110770693275
 20
2.5727123089064992
 30
-0.0000000349181948
  9
$EXTMAX
 10
-26.6991333673066684
 20
10.6560334874179894
 30
0.0000000814935746
  9
$LIMMIN
 10
0.0
 20
0.0
  9
$LIMMAX
 10
11.6929133858000007
 20
8.2677165353999982
  9
$ORTHOMODE
 70
     0
  9
$REGENMODE
 70
     1
  9
$FILLMODE
 70
     1
  9
$QTEXTMODE
 70
     0
  9
$MIRRTEXT
 70
     0
  9
$DRAGMODE
 70
     2
  9
$LTSCALE
 40
0.6431102362
  9
$OSMODE
 70
  4095
  9
$ATTMODE
 70
     1
  9
$TEXTSIZE
 40
0.2
  9
$TRACEWID
 40
0.05
  9
$TEXTSTYLE
  7
STANDARD
  9
$CLAYER
  8
0
  9
$CELTYPE
  6
BYLAYER
  9
$CECOLOR
 62
   256
  9
$DIMSCALE
 40
1.0
  9
$DIMASZ
 40
0.1875
  9
$DIMEXO
 40
0.0625
  9
$DIMDLI
 40
0.4443307087
  9
$DIMRND
 40
0.0
  9
$DIMDLE
 40
0.0
  9
$DIMEXE
 40
0.125
  9
$DIMTP
 40
0.01
  9
$DIMTM
 40
0.01
  9
$DIMTXT
 40
1.0
  9
$DIMCEN
 40
0.1052362205
  9
$DIMTSZ
 40
0.0
  9
$DIMTOL
 70
     1
  9
$DIMLIM
 70
     0
  9
$DIMTIH
 70
     1
  9
$DIMTOH
 70
     1
  9
$DIMSE1
 70
     0
  9
$DIMSE2
 70
     0
  9
$DIMTAD
 70
     0
  9
$DIMZIN
 70
     0
  9
$DIMBLK
  1

  9
$DIMASO
 70
     1
  9
$DIMSHO
 70
     1
  9
$DIMPOST
  1
\X
  9
$DIMAPOST
  1

  9
$DIMALT
 70
     1
  9
$DIMALTD
 70
     2
  9
$DIMALTF
 40
25.3999999999999986
  9
$DIMLFAC
 40
1.0
  9
$DIMTOFL
 70
     0
  9
$DIMTVP
 40
0.0
  9
$DIMTIX
 70
     0
  9
$DIMSOXD
 70
     0
  9
$DIMSAH
 70
     0
  9
$DIMBLK1
  1

  9
$DIMBLK2
  1

  9
$DIMSTYLE
  2
STANDARD
  9
$DIMCLRD
 70
     0
  9
$DIMCLRE
 70
     0
  9
$DIMCLRT
 70
     0
  9
$DIMTFAC
 40
1.0
  9
$DIMGAP
 40
0.09
  9
$LUNITS
 70
     2
  9
$LUPREC
 70
     4
  9
$SKETCHINC
 40
0.1
  9
$FILLETRAD
 40
0.0
  9
$AUNITS
 70
     0
  9
$AUPREC
 70
     0
  9
$MENU
  1
.
  9
$ELEVATION
 40
0.0
  9
$PELEVATION
 40
0.0
  9
$THICKNESS
 40
0.0
  9
$LIMCHECK
 70
     0
  9
$BLIPMODE
 70
     0
  9
$CHAMFERA
 40
0.0
  9
$CHAMFERB
 40
0.0
  9
$SKPOLY
 70
     0
  9
$TDCREATE
 40
2457704.4687268519774079
  9
$TDUPDATE
 40
2459621.5969675919041038
  9
$TDINDWG
 40
0.0515248148
  9
$TDUSRTIMER
 40
0.0515248148
  9
$USRTIMER
 70
     1
  9
$ANGBASE
 50
0.0
  9
$ANGDIR
 70
     0
  9
$PDMODE
 70
     0
  9
$PDSIZE
 40
0.3125
  9
$PLINEWID
 40
0.0
  9
$COORDS
 70
     1
  9
$SPLFRAME
 70
     0
  9
$SPLINETYPE
 70
     6
  9
$SPLINESEGS
 70
     8
  9
$ATTDIA
 70
     1
  9
$ATTREQ
 70
     1
  9
$HANDLING
 70
     1
  9
$HANDSEED
  5
9D09
  9
$SURFTAB1
 70
     6
  9
$SURFTAB2
 70
     6
  9
$SURFTYPE
 70
     6
  9
$SURFU
 70
     6
  9
$SURFV
 70
     6
  9
$UCSNAME
  2

  9
$UCSORG
 10
0.0
 20
0.0
 30
0.0
  9
$UCSXDIR
 10
1.0
 20
0.0
 30
0.0
  9
$UCSYDIR
 10
0.0
 20
1.0
 30
0.0
  9
$PUCSNAME
  2

  9
$PUCSORG
 10
0.0
 20
0.0
 30
0.0
  9
$PUCSXDIR
 10
1.0
 20
0.0
 30
0.0
  9
$PUCSYDIR
 10
0.0
 20
1.0
 30
0.0
  9
$USERI1
 70
     0
  9
$USERI2
 70
     0
  9
$USERI3
 70
     0
  9
$USERI4
 70
     0
  9
$USERI5
 70
     0
  9
$USERR1
 40
0.0
  9
$USERR2
 40
0.0
  9
$USERR3
 40
0.0
  9
$USERR4
 40
0.0
  9
$USERR5
 40
0.0
  9
$WORLDVIEW
 70
     1
  9
$SHADEDGE
 70
     3
  9
$SHADEDIF
 70
    70
  9
$TILEMODE
 70
     1
  9
$MAXACTVP
 70
    64
  9
$PLIMCHECK
 70
     0
  9
$PEXTMIN
 10
1.0000000000000000E+20
 20
1.0000000000000000E+20
 30
1.0000000000000000E+20
  9
$PEXTMAX
 10
-1.0000000000000000E+20
 20
-1.0000000000000000E+20
 30
-1.0000000000000000E+20
  9
$PLIMMIN
 10
0.0
 20
0.0
  9
$PLIMMAX
 10
12.0
 20
9.0
  9
$UNITMODE
 70
     0
  9
$VISRETAIN
 70
     1
  9
$PLINEGEN
 70
     0
  9
$PSLTSCALE
 70
     1
  0
ENDSEC
  0
SECTION
  2
TABLES
  0
TABLE
  2
VPORT
 70
     1
  0
VPORT
  2
*ACTIVE
 70
     0
 10
0.0
 20
0.0
 11
1.0
 21
1.0
 12
-35.0948310711412503
 22
10.7030333428029003
 13
0.0
 23
0.0
 14
1.0
 24
1.0
 15
0.0
 25
0.0
 16
-0.0000000000000067
 26
0.0
 36
29.7687812281221298
 17
3.1812088489532471
 27
-4.088660444640654
 37
0.0
 40
8.1411969864721918
 41
2.2831541218637992
 42
50.0
 43
0.0
 44
0.0
 50
0.0
 51
0.0
 71
     0
 72
   100
 73
     1
 74
     1
 75
     0
 76
     0
 77
     0
 78
     0
  0
ENDTAB
  0
TABLE
  2
LTYPE
 70
     2
  0
LTYPE
  2
CONTINUOUS
 70
     0
  3
Solid line
 72
    65
 73
     0
 40
0.0
  0
LTYPE
  2
PHANTOM2
 70
     0
  3
___ _ _ ___ _ _ ___ _ _ ___ _ _
 72
    65
 73
     6
 40
1.25
 49
0.625
 49
-0.125
 49
0.125
 49
-0.125
 49
0.125
 49
-0.125
  0
ENDTAB
  0
TABLE
  2
LAYER
 70
     2
  0
LAYER
  2
0
 70
     0
 62
     7
  6
CONTINUOUS
  0
LAYER
  2
DEFPOINTS
 70
     0
 62
     7
  6
CONTINUOUS
  0
ENDTAB
  0
TABLE
  2
STYLE
 70
     1
  0
STYLE
  2
STANDARD
 70
     0
 40
0.0
 41
0.8
 50
0.0
 71
     0
 42
0.2
  3
txt
  4

  0
ENDTAB
  0
TABLE
  2
VIEW
 70
     0
  0
ENDTAB
  0
TABLE
  2
UCS
 70
     0
  0
ENDTAB
  0
TABLE
  2
APPID
 70
     8
  0
APPID
  2
ACAD
 70
     0
  0
APPID
  2
ACAD_DSTYLE_DIMJAG
 70
     0
  0
APPID
  2
ACAD_DSTYLE_DIMTALN
 70
     0
  0
APPID
  2
ACAD_NAV_VCDISPLAY
 70
     0
  0
APPID
  2
ACAD_EXEMPT_FROM_CAD_STANDARDS
 70
     0
  0
APPID
  2
ACAD_MLEADERVER
 70
     0
  0
APPID
  2
ACDBATTR
 70
     0
  0
APPID
  2
ACAD_DSTYLE_DIMRADIAL_EXTENSION
 70
     0
  0
ENDTAB
  0
TABLE
  2
DIMSTYLE
 70
     1
  0
DIMSTYLE
  2
STANDARD
 70
     0
  3

  4

  5

  6

  7

 40
1.0
 41
0.1875
 42
0.0625
 43
0.38
 44
0.125
 45
0.0
 46
0.0
 47
0.01
 48
0.01
140
0.15625
141
0.09
142
0.0
143
25.3999999999999986
144
1.0
145
0.0
146
1.0
147
0.09
 71
     1
 72
     0
 73
     1
 74
     1
 75
     0
 76
     0
 77
     0
 78
     4
170
     0
171
     2
172
     0
173
     0
174
     0
175
     0
176
     0
177
     0
178
     0
  0
ENDTAB
  0
ENDSEC
  0
SECTION
  2
BLOCKS
  0
BLOCK
  8
0
  2
$MODEL_SPACE
 70
     0
 10
0.0
 20
0.0
 30
0.0
  3
$MODEL_SPACE
  1

  0
ENDBLK
  5
21
  8
0
  0
BLOCK
 67
     1
  8
0
  2
$PAPER_SPACE
 70
     0
 10
0.0
 20
0.0
 30
0.0
  3
$PAPER_SPACE
  1

  0
ENDBLK
  5
1D
 67
     1
  8
0
  0
BLOCK
  8
0
  2
_FILLED
 70
     0
 10
0.0
 20
0.0
 30
0.0
  3
_FILLED
  1

  0
SOLID
  5
92F7
  8
0
  6
BYBLOCK
 62
     0
 10
0.0
 20
0.0
 30
0.0
 11
-1.0
 21
0.1666666667
 31
0.0
 12
-1.0
 22
-0.1666666667
 32
0.0
 13
-1.0
 23
-0.1666666667
 33
0.0
  0
ENDBLK
  5
92F8
  8
0
  6
BYBLOCK
 62
     0
  0
ENDSEC
  0
SECTION
  2
ENTITIES
  0
ATTDEF
  5
8F50
  8
DEFPOINTS
 10
-31.9115149066025516
 20
8.4644817971740842
 30
0.0
 40
0.001
  1
K-13693
  3

  2
MODELNUMBER
 70
     0
1001
ACDBATTR
1070
     0
1070
     1
  0
ATTDEF
  5
8F51
  8
DEFPOINTS
 10
-31.9115149066025516
 20
8.4628151305074191
 30
0.0
 40
0.001
  1

  3

  2
TRADENAME
 70
     0
1001
ACDBATTR
1070
     0
1070
     1
  0
ATTDEF
  5
8F52
  8
DEFPOINTS
 10
-31.9115149066025516
 20
8.4611484638407521
 30
0.0
 40
0.001
  1
SHOWERHEAD
  3

  2
PRODUCT
 70
     0
1001
ACDBATTR
1070
     0
1070
     1
  0
ARC
  5
960F
  8
0
 10
-32.1340193463228871
 20
8.7570603083389251
 30
0.0
 40
0.2728390868036778
 50
145.8857003901009932
 51
179.7110841816719073
  0
ARC
  5
9610
  8
0
 10
-32.0313817013218483
 20
8.6875320340769697
 30
0.0
 40
0.3968095151049726
 50
122.986569859790194
 51
145.8857003901007943
  0
ARC
  5
9611
  8
0
 10
-31.9416682240572101
 20
8.5493144759183455
 30
0.0
 40
0.5615899793179544
 50
100.1298674760172958
 51
122.986569859790194
  0
ARC
  5
9612
  8
0
 10
-31.9062673650332691
 20
8.3401040678968528
 30
0.0
 40
0.7737678872942491
 50
90.4398087180346693
 51
99.9857044528722412
  0
ARC
  5
9613
  8
0
 10
-31.9397036296198102
 20
8.3426923765385226
 30
0.0
 40
0.7716468473313161
 50
64.3034461299044295
 51
87.9578949484212274
  0
ARC
  5
9614
  8
0
 10
-31.8333184715782593
 20
8.6360625438993033
 30
0.0
 40
0.4622248303037912
 50
44.1274203413528667
 51
60.415325510175343
  0
ARC
  5
9615
  8
0
 10
-31.7243498855930603
 20
8.7417616199870913
 30
0.0
 40
0.3104142660553574
 50
20.6243590273497688
 51
44.1274203413528667
  0
ARC
  5
9616
  8
0
 10
-31.6817296948612395
 20
8.7578021795694276
 30
0.0
 40
0.2648754890655046
 50
0.1371253275677485
 51
20.6243590273495805
  0
ARC
  5
9617
  8
0
 10
-31.6654608250704186
 20
8.7578411157419964
 30
0.0
 40
0.2486065726819281
 50
338.6013806960202146
 51
0.1371253275676467
  0
ARC
  5
9618
  8
0
 10
-31.7235245149703395
 20
8.7805944129125457
 30
0.0
 40
0.3109692587764648
 50
317.4759505452087183
 51
338.6013806960202146
  0
ARC
  5
9619
  8
0
 10
-31.8075086369632096
 20
8.8576165581743247
 30
0.0
 40
0.4249242657206072
 50
302.3972092132991065
 51
317.4759505452087183
  0
ARC
  5
961A
  8
0
 10
-31.8733598502008988
 20
8.961392639059067
 30
0.0
 40
0.5478301534911778
 50
282.8094136446223956
 51
302.3972092132991065
  0
ARC
  5
961B
  8
0
 10
-31.9121000250117213
 20
9.1317785731901147
 30
0.0
 40
0.7225647170270815
 50
269.9999999999993747
 51
282.8094136446234756
  0
ARC
  5
961C
  8
0
 10
-31.9484261183124509
 20
8.9627430026274943
 30
0.0
 40
0.5496699248269633
 50
233.428524228874096
 51
257.8714832374120078
  0
ARC
  5
961D
  8
0
 10
-32.0671554674484582
 20
8.8027074109911183
 30
0.0
 40
0.3504011391713413
 50
206.0671586179174994
 51
233.4285242288736981
  0
ARC
  5
961E
  8
0
 10
-32.1651801018765369
 20
8.7547552899689833
 30
0.0
 40
0.2412762801094382
 50
186.5870139173723032
 51
206.0671586179176984
  0
ARC
  5
961F
  8
0
 10
-32.1019668851050071
 20
8.7620547900010664
 30
0.0
 40
0.3049095534444096
 50
180.6800062261783921
 51
186.5870139173723032
  0
LINE
  5
9620
  8
0
 10
-32.4068549643762012
 20
8.6693040759303361
 30
0.0
 11
-32.4068549643762012
 21
8.75843610241402
 31
0.0
  0
ARC
  5
9621
  8
0
 10
-32.0013840321819174
 20
8.264803098530054
 30
0.0
 40
0.4124493613534849
 50
210.4402157937485072
 51
218.9582660013452085
  0
ARC
  5
9622
  8
0
 10
-31.9645417744554585
 20
8.2970170315671439
 30
0.0
 40
0.4613565487848265
 50
219.1923601367101071
 51
234.3994686948983883
  0
ARC
  5
9623
  8
0
 10
-31.9505116620756198
 20
8.3166137012509687
 30
0.0
 40
0.4854578665099598
 50
234.3994686948983883
 51
250.0021655062220134
  0
ARC
  5
9624
  8
0
 10
-31.8920308878002103
 20
8.3521743512338684
 30
0.0
 40
0.5253410503203781
 50
287.5699092733809152
 51
305.3279502566672932
  0
ARC
  5
9625
  8
0
 10
-31.833204873097479
 20
8.2691772712232847
 30
0.0
 40
0.4236109402443108
 50
305.3279502566675205
 51
318.9601478093728133
  0
ARC
  5
9626
  8
0
 10
-31.8278832025138314
 20
8.2645447110588002
 30
0.0
 40
0.4165553898420783
 50
318.9601478093728133
 51
334.8514616084218005
  0
ARC
  5
9627
  8
0
 10
-31.7718147794441812
 20
8.2382223981980243
 30
0.0
 40
0.3546156431533982
 50
334.8514616084218005
 51
335.2605645092962732
  0
ARC
  5
9628
  8
0
 10
-31.9124967386785308
 20
8.4729769164660187
 30
0.0
 40
0.5895069617724235
 50
89.9718234048998653
 51
108.1957642613116946
  0
ARC
  5
9629
  8
0
 10
-31.9541418944691813
 20
8.5996178002350057
 30
0.0
 40
0.4561944265048786
 50
108.1936015836839005
 51
127.4613601422468037
  0
ARC
  5
962A
  8
0
 10
-32.0465399361579415
 20
8.7202015645084252
 30
0.0
 40
0.3042804958919678
 50
127.4613601422472016
 51
155.8575158734803097
  0
ARC
  5
962B
  8
0
 10
-32.1353894156538828
 20
8.7600249469512281
 30
0.0
 40
0.2069145275257848
 50
155.8575158734801107
 51
196.0194169237861104
  0
ARC
  5
962C
  8
0
 10
-32.0927106600256877
 20
8.7722785373114256
 30
0.0
 40
0.2513175303373749
 50
196.0194169237861104
 51
222.6814316805796921
  0
ARC
  5
962D
  8
0
 10
-31.9945192964338716
 20
8.8628280191841107
 30
0.0
 40
0.384886810306356
 50
222.6814316805796921
 51
242.2694059703661082
  0
ARC
  5
962E
  8
0
 10
-31.9352464099093396
 20
8.9755799065836932
 30
0.0
 40
0.5122691606894409
 50
242.2694059703661082
 51
254.7175317744124072
  0
ARC
  5
962F
  8
0
 10
-31.9117767247917286
 20
9.0614738802736881
 30
0.0
 40
0.6013118517751055
 50
254.7175317744124072
 51
265.6051434828235074
  0
ARC
  5
9630
  8
0
 10
-31.911742143686439
 20
9.0613155905671121
 30
0.0
 40
0.6011502583119236
 50
269.9557102200798226
 51
286.4976272685971139
  0
ARC
  5
9631
  8
0
 10
-31.8788061043589899
 20
8.95014198318745
 30
0.0
 40
0.4852004693850055
 50
286.4965035800111082
 51
301.3780339197148805
  0
ARC
  5
9632
  8
0
 10
-31.8158900250910506
 20
8.8469799844718295
 30
0.0
 40
0.3643665709564073
 50
301.37803391971471
 51
317.8745259350775996
  0
ARC
  5
9633
  8
0
 10
-31.7378096341100395
 20
8.7763658542948502
 30
0.0
 40
0.2590912042441585
 50
317.8745259350775996
 51
342.42376798418411
  0
ARC
  5
9634
  8
0
 10
-31.67939595145711
 20
8.757862609261803
 30
0.0
 40
0.1978169976166554
 50
342.42376798418411
 51
8.8687976312311427
  0
ARC
  5
9635
  8
0
 10
-31.730982108696729
 20
8.7498132120679735
 30
0.0
 40
0.2500273836900696
 50
8.8687976312313435
 51
40.8144110751599172
  0
ARC
  5
9636
  8
0
 10
-31.8261727160926213
 20
8.6676050935247311
 30
0.0
 40
0.3758026852831024
 50
40.8144110751599172
 51
61.120509508224707
  0
ARC
  5
9637
  8
0
 10
-31.8920388613763706
 20
8.5481877647836342
 30
0.0
 40
0.5121802769109008
 50
61.120509508224707
 51
79.7362730902508332
  0
ARC
  5
9638
  8
0
 10
-31.9156904798369183
 20
8.4176379116408047
 30
0.0
 40
0.6448553050797391
 50
79.7352188646812152
 51
89.6904745036346043
  0
ARC
  5
9639
  8
0
 10
-31.8763803157320602
 20
8.2988804102810203
 30
0.0
 40
0.2200793003427479
 50
56.0275504618437665
 51
61.9078472863411804
  0
ARC
  5
963A
  8
0
 10
-31.8998551295072197
 20
8.2549014948927546
 30
0.0
 40
0.2699311998101386
 50
61.9078472863409601
 51
79.9699708305744537
  0
ARC
  5
963B
  8
0
 10
-31.9116807363327197
 20
8.2063238955659692
 30
0.0
 40
0.3198418196288573
 50
79.3995169707623489
 51
90.0942441042090962
  0
ARC
  5
963C
  8
0
 10
-31.9366475416233513
 20
8.2840226644281412
 30
0.0
 40
0.2382765972905336
 50
105.577492978490497
 51
120.1477551788630933
  0
ARC
  5
963D
  8
0
 10
-31.9114038632929784
 20
8.2405585686843814
 30
0.0
 40
0.2885396146539021
 50
120.1477551788626954
 51
123.407105753359204
  0
ARC
  5
963E
  8
0
 10
-32.1090233722595073
 20
8.7054701551508593
 30
0.0
 40
0.233147311610457
 50
152.1963893490122928
 51
173.2107127347364894
  0
ARC
  5
963F
  8
0
 10
-32.0536046235458016
 20
8.6762467002902532
 30
0.0
 40
0.2957991114487913
 50
125.316843304839594
 51
152.1963893490122928
  0
ARC
  5
9640
  8
0
 10
-31.9274282094896407
 20
8.4981523954282938
 30
0.0
 40
0.5140605805365274
 50
109.9672442978252036
 51
125.316843304839594
  0
ARC
  5
9641
  8
0
 10
-31.9364381271025302
 20
8.5229510432489288
 30
0.0
 40
0.4876758965489775
 50
98.0125430163129607
 51
109.9672442978248057
  0
ARC
  5
9642
  8
0
 10
-31.9129822239517793
 20
8.4196692810919576
 30
0.0
 40
0.5932846145115378
 50
89.9251176129724854
 51
98.8653683330329187
  0
ARC
  5
9643
  8
0
 10
-31.9321688949996698
 20
8.3658020814844853
 30
0.0
 40
0.6474591095720882
 50
62.0187491126719479
 51
88.233211809068635
  0
ARC
  5
9644
  8
0
 10
-31.8266933340309812
 20
8.6186695889350151
 30
0.0
 40
0.3755306836507779
 50
38.3011031659822123
 51
58.1258424001565928
  0
ARC
  5
9645
  8
0
 10
-31.7150717125228283
 20
8.7068265234387106
 30
0.0
 40
0.2332948531115039
 50
11.3050718519478899
 51
38.3011031659823615
  0
ARC
  5
9646
  8
0
 10
-31.7704214893833701
 20
8.6957614513403279
 30
0.0
 40
0.2897398140828256
 50
7.433321261403087
 51
11.3050718519474493
  0
ARC
  5
9647
  8
0
 10
-32.1218296180963705
 20
8.708905605571541
 30
0.0
 40
0.2125236575457428
 50
169.7168002457052864
 51
181.6127905496227015
  0
ARC
  5
9648
  8
0
 10
-32.1101751045560491
 20
8.7067911515063976
 30
0.0
 40
0.2243684286222552
 50
154.4970711444898086
 51
169.7168002457052864
  0
ARC
  5
9649
  8
0
 10
-32.0625518473111768
 20
8.6840730346835642
 30
0.0
 40
0.2771328812640323
 50
131.1867240167098885
 51
154.4970711444898086
  0
ARC
  5
964A
  8
0
 10
-31.9620655161331797
 20
8.5692347442526522
 30
0.0
 40
0.4297282144256704
 50
112.8564486524318937
 51
131.1867240167094053
  0
ARC
  5
964B
  8
0
 10
-31.9258169377264487
 20
8.4832400451583911
 30
0.0
 40
0.5230504931634986
 50
100.306776873735501
 51
112.8564486524318937
  0
ARC
  5
964C
  8
0
 10
-31.9127505102110192
 20
8.4136403855595496
 30
0.0
 40
0.593865047903147
 50
89.9475464324195855
 51
100.3456497428210952
  0
ARC
  5
964D
  8
0
 10
-31.9476368753791391
 20
8.2215277450234261
 30
0.0
 40
0.7867755863859311
 50
72.6131713246730897
 51
87.4189863281329167
  0
ARC
  5
964E
  8
0
 10
-31.871465433389659
 20
8.5483668830248352
 30
0.0
 40
0.4527977043261796
 50
55.6303108248823222
 51
69.4512430424456255
  0
ARC
  5
964F
  8
0
 10
-31.8058826816402807
 20
8.6442568575682692
 30
0.0
 40
0.3366254849922919
 50
37.2379186267721707
 51
55.6303108248823222
  0
ARC
  5
9650
  8
0
 10
-31.7323219275249286
 20
8.7001692787305451
 30
0.0
 40
0.2442275229679785
 50
15.5867506616291305
 51
37.2379186267721707
  0
ARC
  5
9651
  8
0
 10
-31.7002026390594587
 20
8.7091291393035082
 30
0.0
 40
0.2108819416562801
 50
358.2603814134295135
 51
15.5867506616291305
  0
ARC
  5
9652
  8
0
 10
-32.1069544904870483
 20
8.6827441125503562
 30
0.0
 40
0.1955401492219758
 50
193.9746764476381031
 51
199.0704022990051953
  0
ARC
  5
9653
  8
0
 10
-32.1106850337449004
 20
8.6818157347788407
 30
0.0
 40
0.191695823756401
 50
167.9555755345523949
 51
193.9746764476381031
  0
ARC
  5
9654
  8
0
 10
-32.0973488370092426
 20
8.6789702294325828
 30
0.0
 40
0.2053322105229721
 50
142.5316997405180075
 51
167.9555755345523949
  0
ARC
  5
9655
  8
0
 10
-32.0035879187554713
 20
8.6071073293866043
 30
0.0
 40
0.3234651280134386
 50
113.1482855962645999
 51
142.5316997405180075
  0
ARC
  5
9656
  8
0
 10
-31.9209583910301617
 20
8.4138366091360552
 30
0.0
 40
0.5336583965980282
 50
95.428396997832067
 51
113.1482855962645999
  0
ARC
  5
9657
  8
0
 10
-31.9249388268866703
 20
8.4599613606812927
 30
0.0
 40
0.4873641141200379
 50
88.5030238758061927
 51
95.47552743712005
  0
ARC
  5
9658
  8
0
 10
-31.9431284393444912
 20
8.3876619578514813
 30
0.0
 40
0.5603509992884635
 50
61.4153459286088577
 51
86.8366651210243958
  0
ARC
  5
9659
  8
0
 10
-31.8334617515291995
 20
8.6183274174291213
 30
0.0
 40
0.3056540546057776
 50
31.74325670672388
 51
58.7780961373992028
  0
ARC
  5
965A
  8
0
 10
-31.7366143748896192
 20
8.6782426306922353
 30
0.0
 40
0.1917714521489857
 50
1.8965443955203301
 51
31.7432567067240612
  0
ARC
  5
965B
  8
0
 10
-31.7484370770441195
 20
8.6778511450985185
 30
0.0
 40
0.2036006341665193
 50
342.095151368396273
 51
1.8965443955204311
  0
ARC
  5
965C
  8
0
 10
-31.74356278757271
 20
8.6762763369672378
 30
0.0
 40
0.1984782598633853
 50
331.3322902155134102
 51
342.095151368396273
  0
ARC
  5
965D
  8
0
 10
-32.1846172891220021
 20
8.9174236529057147
 30
0.0
 40
0.7011522111690235
 50
330.8764553193674942
 51
331.3322902155134102
  0
ARC
  5
965E
  8
0
 10
-31.7418572783360986
 20
8.6928970762471884
 30
0.0
 40
0.2437382244580136
 50
13.3266831847240699
 51
28.8393057913299202
  0
ARC
  5
965F
  8
0
 10
-31.704972284960359
 20
8.7016344587846781
 30
0.0
 40
0.2058324915151652
 50
351.1336400242678906
 51
13.3266831847242599
  0
ARC
  5
9660
  8
0
 10
-31.7532033875634205
 20
8.7191383786509711
 30
0.0
 40
0.2447324628343229
 50
337.5713214717030723
 51
353.7145377222587967
  0
ARC
  5
9661
  8
0
 10
-31.7311850219157705
 20
8.716713183132331
 30
0.0
 40
0.2225809392050773
 50
353.7145377222591947
 51
9.4319554225545961
  0
ARC
  5
9662
  8
0
 10
-31.7581829926524613
 20
8.7122282264507351
 30
0.0
 40
0.2499488996759402
 50
9.4319554225545961
 51
23.1430961523450698
  0
ARC
  5
9663
  8
0
 10
-32.0015007504370317
 20
8.3338501393753752
 30
0.0
 40
0.2823603571072459
 50
122.709043990788004
 51
134.1876424328818871
  0
ARC
  5
9664
  8
0
 10
-31.9559699796642285
 20
8.2629532937436121
 30
0.0
 40
0.3666183763558527
 50
107.4655054350802033
 51
122.7090439907877055
  0
ARC
  5
9665
  8
0
 10
-31.8855056975852094
 20
7.9933154013926808
 30
0.0
 40
0.6451196500716092
 50
92.3721174441888451
 51
106.2476718881393936
  0
ARC
  5
9666
  8
0
 10
-31.9376425550963106
 20
8.1440263109567912
 30
0.0
 40
0.4945105223054278
 50
59.8071787733752487
 51
87.0516242439188801
  0
ARC
  5
9667
  8
0
 10
-31.829677673304591
 20
8.3339094224625061
 30
0.0
 40
0.2760991475143812
 50
45.3391965215498232
 51
59.3555509611423986
  0
ARC
  5
9668
  8
0
 10
-32.1026981102195208
 20
8.6509298880859795
 30
0.0
 40
0.1687646150639167
 50
176.4532751438763114
 51
204.6924561264596036
  0
ARC
  5
9669
  8
0
 10
-32.0811930006046495
 20
8.6495969752756032
 30
0.0
 40
0.1903109928594479
 50
139.0678173685288073
 51
176.4532751438761125
  0
ARC
  5
966A
  8
0
 10
-31.9924149343520696
 20
8.5726076764905663
 30
0.0
 40
0.3078222568938322
 50
115.0031425981747049
 51
139.0678173685284094
  0
ARC
  5
966B
  8
0
 10
-31.9296792682921904
 20
8.4380898698709448
 30
0.0
 40
0.4562500308909232
 50
96.2929943853356463
 51
115.0031425981747049
  0
ARC
  5
966C
  8
0
 10
-31.9235445511510001
 20
8.3801045920236739
 30
0.0
 40
0.5145584187937197
 50
88.7374496725259547
 51
96.2642466607113647
  0
ARC
  5
966D
  8
0
 10
-31.9465888846699713
 20
8.3381147211748594
 30
0.0
 40
0.5574846090646233
 50
60.1198365203767509
 51
86.4641223961806702
  0
ARC
  5
966E
  8
0
 10
-31.8407751141464388
 20
8.5663356538991984
 30
0.0
 40
0.307670053577284
 50
38.8071910484769518
 51
56.0289210976579923
  0
ARC
  5
966F
  8
0
 10
-31.7757329364652783
 20
8.6186443491754794
 30
0.0
 40
0.2242033867035298
 50
15.1495845995907104
 51
38.8071910484771223
  0
ARC
  5
9670
  8
0
 10
-31.7382277505470185
 20
8.6287988536734197
 30
0.0
 40
0.1853478474283921
 50
357.4524654088314151
 51
15.1495845995905203
  0
ARC
  5
9671
  8
0
 10
-32.09773624671584
 20
8.6018326210956282
 30
0.0
 40
0.1719571267627518
 50
165.625962933455213
 51
173.7901666563880951
  0
ARC
  5
9672
  8
0
 10
-32.0765060668051518
 20
8.5963918905965606
 30
0.0
 40
0.193873378435968
 50
136.4314193223372911
 51
165.625962933455213
  0
ARC
  5
9673
  8
0
 10
-31.9777825353106309
 20
8.5024819195737358
 30
0.0
 40
0.3301283538616655
 50
115.5428837135550992
 51
136.4314193223368079
  0
ARC
  5
9674
  8
0
 10
-31.9383841663964496
 20
8.4200403755103892
 30
0.0
 40
0.4215003389591074
 50
95.6313348875902847
 51
115.5428837135547013
  0
ARC
  5
9675
  8
0
 10
-31.92750196861898
 20
8.3168240780692546
 30
0.0
 40
0.5252868100227045
 50
88.3314438729559726
 51
95.7078354392097879
  0
ARC
  5
9676
  8
0
 10
-31.9648556840824014
 20
8.2104279626022851
 30
0.0
 40
0.6336512322291826
 50
63.4846518981684369
 51
85.2339103494965258
  0
ARC
  5
9677
  8
0
 10
-31.852399834498911
 20
8.5045603120048483
 30
0.0
 40
0.3217193804559322
 50
38.2568427058219171
 51
58.0116454891162476
  0
ARC
  5
9678
  8
0
 10
-31.7630582418052505
 20
8.5750088471905901
 30
0.0
 40
0.2079436523991192
 50
17.0560782733553609
 51
38.25684270582164
  0
ARC
  5
9679
  8
0
 10
-31.7788788910590903
 20
8.5701550524184622
 30
0.0
 40
0.2244921347012158
 50
9.5118153540574273
 51
17.0560782733553609
  0
ARC
  5
967A
  8
0
 10
-32.0843200613808506
 20
8.5478814712749038
 30
0.0
 40
0.1836276526106381
 50
154.4224012253592093
 51
165.1975821349635112
  0
ARC
  5
967B
  8
0
 10
-32.0566505554777876
 20
8.5346377642677513
 30
0.0
 40
0.2143033324272422
 50
133.514261626865391
 51
154.4224012253590104
  0
ARC
  5
967C
  8
0
 10
-31.9731373743297702
 20
8.4466770932234105
 30
0.0
 40
0.3355944329912703
 50
107.0232802740982976
 51
133.514261626865391
  0
ARC
  5
967D
  8
0
 10
-31.9264806178135991
 20
8.3211832047022494
 30
0.0
 40
0.4693152007249621
 50
92.6909276365092722
 51
107.9844801231709965
  0
ARC
  5
967E
  8
0
 10
-31.9189824729764702
 20
8.3229414516461357
 30
0.0
 40
0.4679721876323203
 50
89.1704014127857079
 51
93.6180913716015652
  0
ARC
  5
967F
  8
0
 10
-31.943026239610731
 20
8.2328171682355435
 30
0.0
 40
0.5588978042247988
 50
65.214524499210583
 51
86.8389247985516732
  0
ARC
  5
9680
  8
0
 10
-31.8466586697551683
 20
8.4624877495365904
 30
0.0
 40
0.31010887701641
 50
44.4653656643081518
 51
63.5898221451538674
  0
ARC
  5
9681
  8
0
 10
-31.8235851797400713
 20
8.4851346047097156
 30
0.0
 40
0.2777783033946889
 50
31.6608380193986889
 51
44.4653656643081518
  0
ARC
  5
9682
  8
0
 10
-31.754805070334239
 20
8.5275491495358935
 30
0.0
 40
0.1969717624299285
 50
17.298663053196389
 51
31.6608380193989696
  0
ARC
  5
9683
  8
0
 10
-32.067931192439147
 20
8.4902905181512214
 30
0.0
 40
0.199359681268749
 50
146.8436613138030964
 51
155.1818090405502915
  0
ARC
  5
9684
  8
0
 10
-32.0319227554779928
 20
8.4667664274613639
 30
0.0
 40
0.2423711957174444
 50
123.9498458611114984
 51
146.8436613138030964
  0
ARC
  5
9685
  8
0
 10
-31.9420921668077611
 20
8.3333353067160356
 30
0.0
 40
0.4032232974885867
 50
101.724254959342602
 51
123.9498458611114984
  0
ARC
  5
9686
  8
0
 10
-31.8762500287035202
 20
7.9295877652775264
 30
0.0
 40
0.8121168116734708
 50
92.5376237339101664
 51
100.4843086830781971
  0
ARC
  5
9687
  8
0
 10
-31.9480302483449208
 20
8.1708686875758314
 30
0.0
 40
0.5711640271878342
 50
69.5449138770735544
 51
86.4040478202799846
  0
ARC
  5
9688
  8
0
 10
-31.8808747435363813
 20
8.3640997373807302
 30
0.0
 40
0.3666768027314026
 50
49.2994058025283621
 51
68.8248743239730345
  0
ARC
  5
9689
  8
0
 10
-31.8094656780896798
 20
8.4471186935175506
 30
0.0
 40
0.2571715439260948
 50
33.4518812450862413
 51
49.2994058025280708
  0
ARC
  5
968A
  8
0
 10
-31.7916425284849993
 20
8.4588940648654916
 30
0.0
 40
0.2358098016700652
 50
27.3879478954944702
 51
33.4518812450860707
  0
ARC
  5
968B
  8
0
 10
-32.0257950282335315
 20
8.4097715575208163
 30
0.0
 40
0.2491143668367266
 50
129.9137127045318891
 51
143.9741064424736123
  0
ARC
  5
968C
  8
0
 10
-31.9721573443005802
 20
8.3456527977061121
 30
0.0
 40
0.3327099199353701
 50
106.5941424828338029
 51
129.9137127045318891
  0
ARC
  5
968D
  8
0
 10
-31.9162597129174799
 20
8.1580847454804832
 30
0.0
 40
0.5284299225092943
 50
89.5605564571931296
 51
106.594355045420599
  0
ARC
  5
968E
  8
0
 10
-31.9380128242319614
 20
8.1609540293995053
 30
0.0
 40
0.5261782942293831
 50
62.4833532962191072
 51
87.1888469881046575
  0
ARC
  5
968F
  8
0
 10
-31.841765109968911
 20
8.369028663964853
 30
0.0
 40
0.2973698764922407
 50
47.5100200530077785
 51
60.4074134478540898
  0
ARC
  5
9690
  8
0
 10
-31.848587346774881
 20
8.3615808844317385
 30
0.0
 40
0.3074699920861628
 50
37.7029800377915834
 51
47.5100200530077785
  0
ARC
  5
9691
  8
0
 10
-31.9382421346408911
 20
8.2896994926624572
 30
0.0
 40
0.2236762535241726
 50
115.3065235886117961
 51
122.5095986766308016
  0
ARC
  5
9692
  8
0
 10
-31.9225402281225108
 20
8.2559729049183108
 30
0.0
 40
0.2608888787591288
 50
105.4077676822955993
 51
113.9865167874075951
  0
ARC
  5
9693
  8
0
 10
-31.8997969735664704
 20
8.1544516340230775
 30
0.0
 40
0.3649261678992523
 50
91.948804503498323
 51
103.5763931980577013
  0
ARC
  5
9694
  8
0
 10
-32.0054469870251808
 20
7.2433698526639461
 30
0.0
 40
1.279199517586546
 50
83.9761464223820866
 51
85.8200351320124497
  0
ARC
  5
9695
  8
0
 10
-31.9085841809548683
 20
8.2315823002936472
 30
0.0
 40
0.2863737114633564
 50
73.6242111325574911
 51
82.4999363606228258
  0
ARC
  5
9696
  8
0
 10
-31.9016898588885915
 20
8.2550437952618694
 30
0.0
 40
0.261920216357391
 50
63.4673643389590083
 51
73.6242111325574911
  0
ARC
  5
9697
  8
0
 10
-31.8770088302023282
 20
8.3044757491141645
 30
0.0
 40
0.2066692323058167
 50
57.252332440970477
 51
63.4673643389587809
  0
ARC
  5
9698
  8
0
 10
-31.9130660950988698
 20
8.3682896080351448
 30
0.0
 40
0.1010281590029029
 50
91.581843536489913
 51
98.9911478812967545
  0
ARC
  5
9699
  8
0
 10
-31.9130660950988698
 20
8.3682896080351448
 30
0.0
 40
0.1010281590029029
 50
103.6191942909131001
 51
111.3549559424573943
  0
ARC
  5
969A
  8
0
 10
-31.8713563822274786
 20
8.3098148742467473
 30
0.0
 40
0.1815748916773126
 50
118.4492165390463043
 51
122.536010535807506
  0
ARC
  5
969B
  8
0
 10
-31.9153606982076994
 20
8.3832004893599308
 30
0.0
 40
0.0961609906862284
 50
102.9160850977287964
 51
111.0212218321817943
  0
ARC
  5
969C
  8
0
 10
-31.9118235876959098
 20
8.3679809573190767
 30
0.0
 40
0.1117860830249875
 50
92.0667238711340445
 51
98.7635348731812854
  0
ARC
  5
969D
  8
0
 10
-31.8692160717092605
 20
8.3118807705587248
 30
0.0
 40
0.1857518837146227
 50
118.5020196392586058
 51
123.1734601485121061
  0
ARC
  5
969E
  8
0
 10
-31.9143663541892906
 20
8.3854848612258959
 30
0.0
 40
0.0996706363621145
 50
103.0398826369993941
 51
110.8583515927422951
  0
ARC
  5
969F
  8
0
 10
-31.9119673590762005
 20
8.3743037150139763
 30
0.0
 40
0.1111155999999942
 50
92.0050186094003806
 51
98.7418216987556008
  0
ARC
  5
96A0
  8
0
 10
-31.9119155224019089
 20
8.3841673685146745
 30
0.0
 40
0.1092245943400385
 50
92.0669553912355809
 51
98.9219096025218363
  0
ARC
  5
96A1
  8
0
 10
-31.9142647720609709
 20
8.3954789488637367
 30
0.0
 40
0.0976600756565355
 50
103.3744746577328044
 51
111.3724646389893991
  0
ARC
  5
96A2
  8
0
 10
-31.8912181164053301
 20
8.3557346282408194
 30
0.0
 40
0.1434874656040235
 50
117.6719701304067058
 51
123.7113410048633995
  0
ARC
  5
96A3
  8
0
 10
-32.2511357530975431
 20
8.9026511085023543
 30
0.0
 40
0.5110917714561505
 50
301.0731785061906862
 51
302.1910061396305878
  0
LINE
  5
96A4
  8
0
 10
-31.9788549643762003
 20
8.4701259983137636
 30
0.0
 11
-31.9788549643762003
 21
8.4639015100069734
 31
0.0
  0
LINE
  5
96A5
  8
0
 10
-31.9708549643762012
 20
8.4673584146139689
 30
0.0
 11
-31.9708549643762012
 21
8.4750938559139701
 31
0.0
  0
LINE
  5
96A6
  8
0
 10
-31.9578549643761995
 20
8.4751195803139705
 30
0.0
 11
-31.9578549643716414
 21
8.4828101305137071
 31
0.0
  0
LINE
  5
96A7
  8
0
 10
-31.9578549643761995
 20
8.4694627260139708
 30
0.0
 11
-31.9578549643761995
 21
8.4619301046225672
 31
0.0
  0
LINE
  5
96A8
  8
0
 10
-31.9498549643762004
 20
8.4623814143139686
 30
0.0
 11
-31.9498549643762004
 21
8.4729617378542201
 31
0.0
  0
LINE
  5
96A9
  8
0
 10
-31.9368549643761988
 20
8.4769284609139692
 30
0.0
 11
-31.9368549643761988
 21
8.4664770746997942
 31
0.0
  0
LINE
  5
96AA
  8
0
 10
-31.9498549643762004
 20
8.4864230448139661
 30
0.0
 11
-31.9498549643762004
 21
8.4786234370139688
 31
0.0
  0
LINE
  5
96AB
  8
0
 10
-31.9368549643761988
 20
8.4904903881139706
 30
0.0
 11
-31.9368549643761988
 21
8.4825853152139707
 31
0.0
  0
LINE
  5
96AC
  8
0
 10
-31.9288549643761996
 20
8.4920704144139698
 30
0.0
 11
-31.9288549643761996
 21
8.4841285088930913
 31
0.0
  0
LINE
  5
96AD
  8
0
 10
-31.9288549643761996
 20
8.4784619989798227
 30
0.0
 11
-31.9288549643761996
 21
8.4680763833035098
 31
0.0
  0
LINE
  5
96AE
  8
0
 10
-31.9158549643762015
 20
8.4692792665139702
 30
0.0
 11
-31.9158549643762015
 21
8.4796943242906746
 31
0.0
  0
LINE
  5
96AF
  8
0
 10
-31.9158549644033513
 20
8.4853512862984442
 30
0.0
 11
-31.9158549643762015
 21
8.4933208971139695
 31
0.0
  0
ARC
  5
96B0
  8
0
 10
-31.5251718209772385
 20
7.6703442068155807
 30
0.0
 40
0.9280061557980838
 50
119.2669617462925942
 51
120.1912505129945004
  0
LINE
  5
96B1
  8
0
 10
-31.9708549643762012
 20
8.4842964142139685
 30
0.0
 11
-31.9578549643761995
 21
8.4910589176139712
 31
0.0
  0
ARC
  5
96B2
  8
0
 10
-31.9153787465582894
 20
8.4186395724176233
 30
0.0
 40
0.0836647071285981
 50
104.873978373495703
 51
114.3353127285033963
  0
ARC
  5
96B3
  8
0
 10
-31.9119279034760304
 20
8.4046440705123704
 30
0.0
 40
0.0980996313016066
 50
92.2942406040621393
 51
99.9360966229367591
  0
ARC
  5
96B4
  8
0
 10
-31.9120234470023902
 20
8.4146369015890468
 30
0.0
 40
0.0902625214587705
 50
92.4328564331888458
 51
100.7470198914153059
  0
ARC
  5
96B5
  8
0
 10
-31.9112556889012211
 20
8.4064845478630161
 30
0.0
 40
0.0998706995693445
 50
92.6395360152563825
 51
100.1496978168960936
  0
ARC
  5
96B6
  8
0
 10
-31.9115251523761216
 20
8.3969021422131593
 30
0.0
 40
0.1099534629008127
 50
92.2568103548217238
 51
99.0682238525757128
  0
ARC
  5
96B7
  8
0
 10
-31.9115929246175298
 20
8.3781003207724432
 30
0.0
 40
0.1295823699607717
 50
91.8848315899553114
 51
97.6552916637375148
  0
ARC
  5
96B8
  8
0
 10
-31.9116575717144002
 20
8.366923016311361
 30
0.0
 40
0.1412685638468996
 50
91.708877044418827
 51
96.9922711176148908
  0
ARC
  5
96B9
  8
0
 10
-31.9117121284878813
 20
8.3482200027446076
 30
0.0
 40
0.1607997674802538
 50
91.4763285107192985
 51
96.1199213462099635
  0
ARC
  5
96BA
  8
0
 10
-31.9117579543688983
 20
8.3175845563372643
 30
0.0
 40
0.1927745978399571
 50
91.2177904315931585
 51
95.0881968422549306
  0
ARC
  5
96BB
  8
0
 10
-31.9117278188578304
 20
8.3365050119433821
 30
0.0
 40
0.1730250704272888
 50
91.3667993495964765
 51
95.6808114346109164
  0
ARC
  5
96BC
  8
0
 10
-31.9117680092590597
 20
8.3058127044909185
 30
0.0
 40
0.2050568847822674
 50
91.1420283962912663
 51
94.779878199623866
  0
ARC
  5
96BD
  8
0
 10
-31.9117916464022713
 20
8.2868853993814415
 30
0.0
 40
0.2248135856883299
 50
91.0394654447191556
 51
94.352927432551553
  0
ARC
  5
96BE
  8
0
 10
-31.9117920761608111
 20
8.2555429668334455
 30
0.0
 40
0.2574964115890623
 50
90.9040747670349276
 51
93.7994640568691551
  0
ARC
  5
96BF
  8
0
 10
-31.9117759490900212
 20
8.2745939267155855
 30
0.0
 40
0.2376159031898239
 50
90.9836119622135868
 51
94.1217781361363137
  0
ARC
  5
96C0
  8
0
 10
-31.9118135297674392
 20
8.1934054187181555
 30
0.0
 40
0.3223145531424227
 50
90.7184385937583642
 51
93.0307591089592449
  0
ARC
  5
96C1
  8
0
 10
-31.9118065774764013
 20
8.2126106770192493
 30
0.0
 40
0.3022795782947166
 50
90.767377072966994
 51
93.233163201548507
  0
ARC
  5
96C2
  8
0
 10
-31.9115768549760617
 20
8.2203692699102096
 30
0.0
 40
0.2940166111037621
 50
90.8337156944093351
 51
93.3689709643341388
  0
ARC
  5
96C3
  8
0
 10
-31.9117940506761002
 20
8.2436405659110488
 30
0.0
 40
0.269909417702921
 50
90.8620743876116421
 51
93.6240694116700638
  0
ARC
  5
96C4
  8
0
 10
-31.9108962018354312
 20
8.1801383305390605
 30
0.0
 40
0.3356144282758345
 50
94.4360862331680693
 51
96.6660316585994082
  0
ARC
  5
96C5
  8
0
 10
-31.9106972330765011
 20
8.1978572252169091
 30
0.0
 40
0.317076155797047
 50
94.7545483846896133
 51
97.0939257611113646
  0
ARC
  5
96C6
  8
0
 10
-31.9106022553461806
 20
8.2090927406712861
 30
0.0
 40
0.3053354129565411
 50
94.9323754460385487
 51
97.3861583346820936
  0
ARC
  5
96C7
  8
0
 10
-31.9103967395758801
 20
8.2270513147108915
 30
0.0
 40
0.2865594846030922
 50
95.3261565316066566
 51
97.9145694047788737
  0
ARC
  5
96C8
  8
0
 10
-31.91028125530487
 20
8.2382660773142717
 30
0.0
 40
0.2748416097293742
 50
95.5666724641175875
 51
98.2786410542137645
  0
ARC
  5
96C9
  8
0
 10
-31.9099666970580991
 20
8.2556724357595375
 30
0.0
 40
0.2566266806089258
 50
96.0142499463449326
 51
98.9419081485621916
  0
ARC
  5
96CA
  8
0
 10
-31.9097632905574216
 20
8.2664383168320157
 30
0.0
 40
0.2453649782219753
 50
96.3391685016544983
 51
99.4040699679363939
  0
ARC
  5
96CB
  8
0
 10
-31.9092752535082091
 20
8.2831493386864494
 30
0.0
 40
0.2278620374233965
 50
96.9519478348969841
 51
100.2584601482361961
  0
ARC
  5
96CC
  8
0
 10
-31.9089960980802907
 20
8.2937727043265674
 30
0.0
 40
0.2167520762770664
 50
97.3845807759829967
 51
100.865551356270899
  0
ARC
  5
96CD
  8
0
 10
-31.9081889300013088
 20
8.3093621802002975
 30
0.0
 40
0.2004059675818851
 50
98.2237861814493414
 51
101.999779764726398
  0
ARC
  5
96CE
  8
0
 10
-31.9074507350008396
 20
8.3180282691711973
 30
0.0
 40
0.1913016231032381
 50
98.8417629081409217
 51
102.8066472140396996
  0
ARC
  5
96CF
  8
0
 10
-31.9053144920858394
 20
8.3286962364162793
 30
0.0
 40
0.1800355655296415
 50
100.0897285554831058
 51
104.3236034700233006
  0
ARC
  5
96D0
  8
0
 10
-31.9061246494943589
 20
8.345332771147536
 30
0.0
 40
0.1628161807079168
 50
100.879400543973901
 51
105.5802043664349981
  0
ARC
  5
96D1
  8
0
 10
-31.9009508624696494
 20
8.3467504557963412
 30
0.0
 40
0.1612422292980408
 50
102.8660109278591932
 51
107.6556685880827047
  0
ARC
  5
96D2
  8
0
 10
-31.9009071744447006
 20
8.3604859486334071
 30
0.0
 40
0.1470455737396842
 50
104.1503371446243023
 51
109.4433672480757025
  0
ARC
  5
96D3
  8
0
 10
-31.7796641792745618
 20
8.0443308436739791
 30
0.0
 40
0.4833394527055858
 50
108.9787948772877968
 51
110.6166963866175053
  0
ARC
  5
96D4
  8
0
 10
-32.0215685418214235
 20
8.9206791124800624
 30
0.0
 40
0.4131277506310414
 50
277.0511387882269219
 51
278.8704502347317202
  0
ARC
  5
96D5
  8
0
 10
-31.9063917703441398
 20
8.1668684812350136
 30
0.0
 40
0.3483659549045552
 50
98.4967340905153748
 51
100.6637251963404935
  0
ARC
  5
96D6
  8
0
 10
-31.9058836440045894
 20
8.1764898411603966
 30
0.0
 40
0.3382817442271234
 50
98.8375372638760155
 51
101.0731881722720971
  0
ARC
  5
96D7
  8
0
 10
-31.9050210666588505
 20
8.1923182202072482
 30
0.0
 40
0.3217106247704166
 50
99.4523913098654049
 51
101.8082457848808957
  0
ARC
  5
96D8
  8
0
 10
-31.9045096184161494
 20
8.2023587486691767
 30
0.0
 40
0.3112146507620365
 50
99.869817531639967
 51
102.3088864029770946
  0
ARC
  5
96D9
  8
0
 10
-31.9030077220098889
 20
8.2158341696726662
 30
0.0
 40
0.2970744855273992
 50
100.6392434729128951
 51
103.2019783974911036
  0
ARC
  5
96DA
  8
0
 10
-31.9018999710530196
 20
8.2236849611813394
 30
0.0
 40
0.2888427385179041
 50
101.1700356855130991
 51
103.811504620252407
  0
ARC
  5
96DB
  8
0
 10
-31.899944365842849
 20
8.2366049347443013
 30
0.0
 40
0.2753414213246684
 50
102.1412740380632016
 51
104.923951167923903
  0
ARC
  5
96DC
  8
0
 10
-31.8980193572633617
 20
8.2421686523250983
 30
0.0
 40
0.2695217498913593
 50
102.8269176143371055
 51
105.6785596564347998
  0
ARC
  5
96DD
  8
0
 10
-31.8946035828074592
 20
8.2515698697577964
 30
0.0
 40
0.2597875515435231
 50
104.0916396074900945
 51
107.0684629044544067
  0
ARC
  5
96DE
  8
0
 10
-31.8904470004748184
 20
8.2512402842551822
 30
0.0
 40
0.2602376053400416
 50
105.0121983156109025
 51
107.9977131151653964
  0
ARC
  5
96DF
  8
0
 10
-30.3957989224302807
 20
3.7324119370222681
 30
0.0
 40
5.0178370952832143
 50
108.1376322987429006
 51
108.293903174751307
  0
ARC
  5
96E0
  8
0
 10
-31.8800833264750594
 20
8.2583280625106976
 30
0.0
 40
0.2536642593034641
 50
107.8540168253268945
 51
110.9677035856859959
  0
LINE
  5
96E1
  8
0
 10
-31.9578549643761995
 20
8.4976667802139705
 30
0.0
 11
-31.9708549643762012
 21
8.4925181928139697
 31
0.0
  0
LINE
  5
96E2
  8
0
 10
-31.9708549643762012
 20
8.4906156591139688
 30
0.0
 11
-31.9578549643761995
 21
8.4961642316139692
 31
0.0
  0
LINE
  5
96E3
  8
0
 10
-31.9578549643761995
 20
8.4932497467139694
 30
0.0
 11
-31.9708549643762012
 21
8.4869718434139703
 31
0.0
  0
ARC
  5
96E4
  8
0
 10
-31.6347864483051602
 20
7.9129074964400248
 30
0.0
 40
0.6583575576487039
 50
119.3878456981670979
 51
120.6948106940855041
  0
LINE
  5
96E5
  8
0
 10
-31.9918549643761985
 20
8.5084738553139712
 30
0.0
 11
-31.9788549643762003
 21
8.5084738553139712
 31
0.0
  0
LINE
  5
96E6
  8
0
 10
-31.9854603371761996
 20
8.5091809621139696
 30
0.0
 11
-31.9788549643762003
 21
8.5091809621139696
 31
0.0
  0
LINE
  5
96E7
  8
0
 10
-31.9788549643762003
 20
8.5091809621139696
 30
0.0
 11
-31.9788549643762003
 21
8.5076215643139683
 31
0.0
  0
LINE
  5
96E8
  8
0
 10
-31.9788549643762003
 20
8.5076215643139683
 30
0.0
 11
-31.9918549371624614
 21
8.5046465426686062
 31
0.0
  0
LINE
  5
96E9
  8
0
 10
-31.9918549371624614
 20
8.5046465426686062
 30
0.0
 11
-31.9918549371624614
 21
8.5084738553139712
 31
0.0
  0
ARC
  5
96EA
  8
0
 10
-31.8954053557909987
 20
8.1263830923281404
 30
0.0
 40
0.3894769709948445
 50
102.3721578492013009
 51
104.3378322350031056
  0
ARC
  5
96EB
  8
0
 10
-31.8932095894005592
 20
8.139106155255023
 30
0.0
 40
0.3762232239596357
 50
103.1584687166817957
 51
105.2005804216259008
  0
ARC
  5
96EC
  8
0
 10
-31.8909363605480785
 20
8.1437786831222603
 30
0.0
 40
0.3713532429106285
 50
103.6949166694903965
 51
105.7689673140540947
  0
ARC
  5
96ED
  8
0
 10
-31.8876288205297911
 20
8.1539396477471033
 30
0.0
 40
0.3608582603146142
 50
104.6434567659296988
 51
106.787822574044398
  0
ARC
  5
96EE
  8
0
 10
-31.8844978680155293
 20
8.1570005190074415
 30
0.0
 40
0.3577685401718099
 50
105.2919675951119984
 51
107.4620547016932051
  0
ARC
  5
96EF
  8
0
 10
-31.8797886032671798
 20
8.1646812163568931
 30
0.0
 40
0.350045066880064
 50
106.4399515779418977
 51
108.6718985165502005
  0
ARC
  5
96F0
  8
0
 10
-31.8741200014203407
 20
8.1618024867441719
 30
0.0
 40
0.3533769047212576
 50
107.2404961197191966
 51
109.4613602297553996
  0
ARC
  5
96F1
  8
0
 10
-31.8653875340303685
 20
8.1611804122417357
 30
0.0
 40
0.3547939553964554
 50
108.6515670553671953
 51
110.8825084778734009
  0
ARC
  5
96F2
  8
0
 10
-31.8568360232657994
 20
8.1537388513976055
 30
0.0
 40
0.3633817635662315
 50
109.6204254365920008
 51
111.8119968158754034
  0
ARC
  5
96F3
  8
0
 10
-31.8407388349750597
 20
8.1399713707112067
 30
0.0
 40
0.3796879259029891
 50
111.3314252568084015
 51
113.4532302602921021
  0
ARC
  5
96F4
  8
0
 10
-31.8242735922770912
 20
8.1187240590161185
 30
0.0
 40
0.4040298762976736
 50
112.4947702504995988
 51
114.5051294883110984
  0
ARC
  5
96F5
  8
0
 10
-31.7847052976434199
 20
8.0634629738997212
 30
0.0
 40
0.4677303768894098
 50
114.5249348039866959
 51
116.2879504191881068
  0
ARC
  5
96F6
  8
0
 10
-31.7511332964703108
 20
8.0162854046023533
 30
0.0
 40
0.5227802006130247
 50
115.8233237450270963
 51
117.4170763981875041
  0
ARC
  5
96F7
  8
0
 10
-31.6587219451746193
 20
7.8798044297109806
 30
0.0
 40
0.6827222098033818
 50
117.9633403382999006
 51
119.2057879171937032
  0
ARC
  5
96F8
  8
0
 10
-30.9818215741190492
 20
6.8218764365840094
 30
0.0
 40
1.929870628317891
 50
121.1066188760582065
 51
121.5584725926917002
  0
ARC
  5
96F9
  8
0
 10
-31.7278480844355215
 20
7.9933138434956081
 30
0.0
 40
0.5498941486038877
 50
119.646882120595393
 51
120.3995118015963044
  0
ARC
  5
96FA
  8
0
 10
-31.5714373123467809
 20
7.6751628243600472
 30
0.0
 40
0.9083498266614256
 50
118.1410584542528994
 51
119.0750949500692997
  0
ARC
  5
96FB
  8
0
 10
-31.6496996843048208
 20
7.7953782288604829
 30
0.0
 40
0.7679008885656775
 50
117.1286620456829013
 51
118.2239730500884036
  0
ARC
  5
96FC
  8
0
 10
-31.7266764661745313
 20
7.909474561410434
 30
0.0
 40
0.6349326089039077
 50
115.483301180833493
 51
116.7900533448906941
  0
ARC
  5
96FD
  8
0
 10
-31.7596561734826786
 20
7.9573326751215268
 30
0.0
 40
0.5795286839842153
 50
114.4861095013910983
 51
115.9065533204962009
  0
ARC
  5
96FE
  8
0
 10
-31.7956658164845614
 20
8.0052942467329569
 30
0.0
 40
0.5239466072792545
 50
112.9366834198442007
 51
114.4894250044287958
  0
ARC
  5
96FF
  8
0
 10
-31.8771414479497395
 20
8.0579668673885934
 30
0.0
 40
0.4602937402312667
 50
105.461944120743297
 51
107.1480083651590007
  0
ARC
  5
9700
  8
0
 10
-31.8737727368009693
 20
8.0696929499213486
 30
0.0
 40
0.4483107841623402
 50
106.3341328491267035
 51
108.0734647028174038
  0
ARC
  5
9701
  8
0
 10
-31.8675220581550711
 20
8.0642534101003811
 30
0.0
 40
0.4542597581862181
 50
106.9367291971980052
 51
108.6589022141244953
  0
ARC
  5
9702
  8
0
 10
-31.8601640643779014
 20
8.0661282712190197
 30
0.0
 40
0.4528717359946724
 50
107.9661917045928021
 51
109.7040201340131063
  0
ARC
  5
9703
  8
0
 10
-31.8535529260948707
 20
8.0623112882146852
 30
0.0
 40
0.4573937220608101
 50
108.6544693789030021
 51
110.3822755848053987
  0
ARC
  5
9704
  8
0
 10
-31.8419596682872417
 20
8.0561824834424591
 30
0.0
 40
0.4649585619214588
 50
109.851897724536002
 51
111.5645689732553052
  0
ARC
  5
9705
  8
0
 10
-31.8321549329055102
 20
8.0470542510293477
 30
0.0
 40
0.4755671277710808
 50
110.6483646715618931
 51
112.3316635511625066
  0
ARC
  5
9706
  8
0
 10
-31.8128743767824886
 20
8.0273978380288131
 30
0.0
 40
0.4985247579838804
 50
112.0285021474694958
 51
113.6497456452220973
  0
LINE
  5
9707
  8
0
 10
-32.0338549643762107
 20
8.4936246129139708
 30
0.0
 11
-32.0208549643761984
 21
8.4936246129139708
 31
0.0
  0
LINE
  5
9708
  8
0
 10
-32.0208549643761984
 20
8.4936246129139708
 30
0.0
 11
-32.0208549588625502
 21
8.4932028082813851
 31
0.0
  0
LINE
  5
9709
  8
0
 10
-32.0208549588625502
 20
8.4932028082813851
 30
0.0
 11
-32.0338549643762107
 21
8.4886911356951682
 31
0.0
  0
LINE
  5
970A
  8
0
 10
-32.0338549643762107
 20
8.4886911356951682
 30
0.0
 11
-32.0338549643762107
 21
8.4936246129139708
 31
0.0
  0
LINE
  5
970B
  8
0
 10
-32.0285972056971033
 20
8.4943317196660306
 30
0.0
 11
-32.0208549643761984
 21
8.4943317196660306
 31
0.0
  0
LINE
  5
970C
  8
0
 10
-32.0208549643761984
 20
8.4943317196660306
 30
0.0
 11
-32.0208549643761984
 21
8.4936246129139708
 31
0.0
  0
ARC
  5
970D
  8
0
 10
-32.067036764699921
 20
8.5406196075863807
 30
0.0
 40
0.0620451374856866
 50
281.3228795942512761
 51
293.9451928960116902
  0
ARC
  5
970E
  8
0
 10
-31.7554852351725216
 20
7.799315517504481
 30
0.0
 40
0.7395494250751828
 50
112.7817476177967961
 51
113.6468903928711001
  0
ARC
  5
970F
  8
0
 10
-31.7362639211901687
 20
7.7736266094027773
 30
0.0
 40
0.7690622164664194
 50
113.4129570345423019
 51
114.0185344939281009
  0
ARC
  5
9710
  8
0
 10
-31.7217634714807311
 20
7.7725781362251922
 30
0.0
 40
0.7730354383312329
 50
114.4608213271357045
 51
114.6796889531991042
  0
ARC
  5
9711
  8
0
 10
-31.8312564007865397
 20
7.9598460997418696
 30
0.0
 40
0.5647914767702489
 50
109.6149017883467991
 51
111.0212327772369036
  0
ARC
  5
9712
  8
0
 10
-31.8173089749883786
 20
7.94938046925229
 30
0.0
 40
0.5772429019812224
 50
110.6475012145381953
 51
112.0328607345766017
  0
ARC
  5
9713
  8
0
 10
-31.8058470210694608
 20
7.9371654369974483
 30
0.0
 40
0.5913303150178431
 50
111.321473319526504
 51
112.6800443264856995
  0
ARC
  5
9714
  8
0
 10
-31.7844422823756183
 20
7.9138424843126236
 30
0.0
 40
0.6184871786014657
 50
112.4727165132023998
 51
113.782282914499504
  0
ARC
  5
9715
  8
0
 10
-31.7661340069283291
 20
7.88983276117927
 30
0.0
 40
0.6460953998404348
 50
113.2189988450573992
 51
114.4794913441301958
  0
ARC
  5
9716
  8
0
 10
-31.7304720451484101
 20
7.8426376290252309
 30
0.0
 40
0.7008358851871206
 50
114.4776323326321972
 51
115.650922810629595
  0
ARC
  5
9717
  8
0
 10
-31.6998031755702101
 20
7.7986001291246536
 30
0.0
 40
0.7517968836222467
 50
115.2802338608141071
 51
116.3106730360275947
  0
ARC
  5
9718
  8
0
 10
-31.6463851795066695
 20
7.72684544597222
 30
0.0
 40
0.8363514852106623
 50
116.5989125719289063
 51
117.0996696813331965
  0
ARC
  5
9719
  8
0
 10
-31.6170415420257598
 20
7.6936654173061259
 30
0.0
 40
0.8769973709112633
 50
117.4161477390573936
 51
117.6268693258056004
  0
LINE
  5
971A
  8
0
 10
-32.0418549643761992
 20
8.4839144401139706
 30
0.0
 11
-32.0418549644254114
 21
8.4811701429904822
 31
0.0
  0
LINE
  5
971B
  8
0
 10
-32.0548549643761973
 20
8.4797820959139703
 30
0.0
 11
-32.0548549643761973
 21
8.4774323060320782
 31
0.0
  0
LINE
  5
971C
  8
0
 10
-32.0418549644374977
 20
8.4793679268011921
 30
0.0
 11
-32.0418549643923427
 21
8.4762294881613478
 31
0.0
  0
LINE
  5
971D
  8
0
 10
-32.0338549501023735
 20
8.4870493243596972
 30
0.0
 11
-32.033854894591272
 21
8.4844666609924975
 31
0.0
  0
LINE
  5
971E
  8
0
 10
-32.0338549467916778
 20
8.4827696225266198
 30
0.0
 11
-32.0338548766291495
 21
8.4798104586027971
 31
0.0
  0
LINE
  5
971F
  8
0
 10
-32.0338549433689082
 20
8.4778504189807613
 30
0.0
 11
-32.0338548593264889
 21
8.4744048377559462
 31
0.0
  0
LINE
  5
9720
  8
0
 10
-32.0208549643761984
 20
8.4918628259047342
 30
0.0
 11
-32.0208549643761984
 21
8.4895456274139711
 31
0.0
  0
LINE
  5
9721
  8
0
 10
-32.0208549508642903
 20
8.4880221620943157
 30
0.0
 11
-32.0208549552249835
 21
8.4853627711009576
 31
0.0
  0
LINE
  5
9722
  8
0
 10
-32.0208549643761984
 20
8.4835974448139684
 30
0.0
 11
-32.0208549643761984
 21
8.4804845528139712
 31
0.0
  0
LINE
  5
9723
  8
0
 10
-32.0208549852518374
 20
8.4783973707520897
 30
0.0
 11
-32.0208549644071496
 21
8.4746797772319429
 31
0.0
  0
LINE
  5
9724
  8
0
 10
-32.0208549644403533
 20
8.4721633996176315
 30
0.0
 11
-32.0208549644403533
 21
8.4701382051107856
 31
0.0
  0
LINE
  5
9725
  8
0
 10
-32.0128549536218827
 20
8.4977988485748952
 30
0.0
 11
-32.0128549644382474
 21
8.4958838615462966
 31
0.0
  0
LINE
  5
9726
  8
0
 10
-32.0128549643762028
 20
8.4946372786139701
 30
0.0
 11
-32.0128548946267699
 21
8.4924829587981971
 31
0.0
  0
LINE
  5
9727
  8
0
 10
-32.0128549643762028
 20
8.4910674865139697
 30
0.0
 11
-32.0128549643762028
 21
8.4885957835139703
 31
0.0
  0
LINE
  5
9728
  8
0
 10
-32.0128549394852229
 20
8.4869537857398605
 30
0.0
 11
-32.0128548370080281
 21
8.4840538900536053
 31
0.0
  0
LINE
  5
9729
  8
0
 10
-32.0128549334092725
 20
8.4821054617530205
 30
0.0
 11
-32.0128549643762028
 21
8.4786232542139697
 31
0.0
  0
LINE
  5
972A
  8
0
 10
-32.0128549293533098
 20
8.4762560934509157
 30
0.0
 11
-32.0128549643762028
 21
8.4719800447139662
 31
0.0
  0
LINE
  5
972B
  8
0
 10
-32.0128549314651423
 20
8.4690456199462165
 30
0.0
 11
-32.0128549314651423
 21
8.4687183326649862
 31
0.0
  0
LINE
  5
972C
  8
0
 10
-31.9998549643762011
 20
8.5016015371139684
 30
0.0
 11
-31.9998549643762011
 21
8.4999089783139699
 31
0.0
  0
LINE
  5
972D
  8
0
 10
-31.9998549643762011
 20
8.4988105753139713
 30
0.0
 11
-31.9998549573645086
 21
8.4969173886296527
 31
0.0
  0
LINE
  5
972E
  8
0
 10
-31.9998549643762011
 20
8.4956757198139687
 30
0.0
 11
-31.9998549546789306
 21
8.4935102127706532
 31
0.0
  0
LINE
  5
972F
  8
0
 10
-31.9998549643762011
 20
8.4920719950139691
 30
0.0
 11
-31.9998549512897803
 21
8.4895289872492601
 31
0.0
  0
LINE
  5
9730
  8
0
 10
-31.9998549643762011
 20
8.487815582181172
 30
0.0
 11
-31.9998549478572585
 21
8.4847395809820991
 31
0.0
  0
LINE
  5
9731
  8
0
 10
-31.9998549643762011
 20
8.4826350328054918
 30
0.0
 11
-31.999854946062861
 21
8.4787983539103031
 31
0.0
  0
LINE
  5
9732
  8
0
 10
-31.9998549643762011
 20
8.476135809563317
 30
0.0
 11
-31.9998549644045802
 21
8.4712216085698824
 31
0.0
  0
LINE
  5
9733
  8
0
 10
-31.9918549643761985
 20
8.5037288011139704
 30
0.0
 11
-31.9918549253827287
 21
8.5021667726945171
 31
0.0
  0
LINE
  5
9734
  8
0
 10
-31.9918549643761985
 20
8.5011561676139706
 30
0.0
 11
-31.9918549075601391
 21
8.4994184558086552
 31
0.0
  0
LINE
  5
9735
  8
0
 10
-31.9918549461208386
 20
8.4982816144659452
 30
0.0
 11
-31.9918549643761985
 21
8.4963025057139703
 31
0.0
  0
LINE
  5
9736
  8
0
 10
-31.9918549643761985
 20
8.4949896943139684
 30
0.0
 11
-31.9918548273240511
 21
8.4926691368053824
 31
0.0
  0
LINE
  5
9737
  8
0
 10
-31.9918549643761985
 20
8.4911054052139701
 30
0.0
 11
-31.9918547634794415
 21
8.4882914781250243
 31
0.0
  0
LINE
  5
9738
  8
0
 10
-31.9918549656783391
 20
8.4863605972302452
 30
0.0
 11
-31.9918549643761985
 21
8.4828204837139705
 31
0.0
  0
LINE
  5
9739
  8
0
 10
-31.9918549512955295
 20
8.4803459858320043
 30
0.0
 11
-31.9918547711820409
 21
8.4757340698490804
 31
0.0
  0
LINE
  5
973A
  8
0
 10
-31.9918549432051904
 20
8.4724678186278215
 30
0.0
 11
-31.9918549643761985
 21
8.4663317240910132
 31
0.0
  0
LINE
  5
973B
  8
0
 10
-31.9788549644008313
 20
8.5068150491327508
 30
0.0
 11
-31.9788549643762003
 21
8.5054513258139703
 31
0.0
  0
LINE
  5
973C
  8
0
 10
-31.9788549643762003
 20
8.5045744011139703
 30
0.0
 11
-31.9788549643762003
 21
8.503076404213969
 31
0.0
  0
LINE
  5
973D
  8
0
 10
-31.9788549643762003
 20
8.5021020500139706
 30
0.0
 11
-31.9788549643762003
 21
8.5004153447139679
 31
0.0
  0
LINE
  5
973E
  8
0
 10
-31.9788549643762003
 20
8.4993018561139682
 30
0.0
 11
-31.9788549643762003
 21
8.4973409290139692
 31
0.0
  0
LINE
  5
973F
  8
0
 10
-31.9788550348811995
 20
8.4960218730286883
 30
0.0
 11
-31.9788549442957617
 21
8.4936475805735956
 31
0.0
  0
LINE
  5
9740
  8
0
 10
-31.9788550603000488
 20
8.4920131034374364
 30
0.0
 11
-31.9788551318922707
 21
8.4889950494548465
 31
0.0
  0
LINE
  5
9741
  8
0
 10
-31.9788550771076494
 20
8.4868615714195368
 30
0.0
 11
-31.978854846694631
 21
8.4828173160767637
 31
0.0
  0
LINE
  5
9742
  8
0
 10
-31.9788550178667599
 20
8.4798916001529001
 30
0.0
 11
-31.9788549643762003
 21
8.4742459657016411
 31
0.0
  0
LINE
  5
9743
  8
0
 10
-31.9578638978625911
 20
8.5124925660585227
 30
0.0
 11
-31.9578638978625911
 21
8.5114108714067989
 31
0.0
  0
LINE
  5
9744
  8
0
 10
-31.9578549644334799
 20
8.5107554845194215
 30
0.0
 11
-31.9578549643761995
 21
8.5096607880139707
 31
0.0
  0
LINE
  5
9745
  8
0
 10
-31.9578549643892984
 20
8.5089673475569771
 30
0.0
 11
-31.9578549643761995
 21
8.5078016849139715
 31
0.0
  0
LINE
  5
9746
  8
0
 10
-31.9578549643761995
 20
8.5070560364814192
 30
0.0
 11
-31.9578549643761995
 21
8.5057875138139671
 31
0.0
  0
LINE
  5
9747
  8
0
 10
-31.9578549643920091
 20
8.5049645308773432
 30
0.0
 11
-31.9578549643761995
 21
8.5035397780139697
 31
0.0
  0
LINE
  5
9748
  8
0
 10
-31.9578549643761995
 20
8.5025961627139708
 30
0.0
 11
-31.9578549643761995
 21
8.5009200933139724
 31
0.0
  0
LINE
  5
9749
  8
0
 10
-31.9578549643761995
 20
8.4997760461141016
 30
0.0
 11
-31.9578549643761995
 21
8.4976667802139705
 31
0.0
  0
LINE
  5
974A
  8
0
 10
-31.9578549643761995
 20
8.4961642316139692
 30
0.0
 11
-31.9578549643761995
 21
8.4932497467139694
 31
0.0
  0
LINE
  5
974B
  8
0
 10
-31.9578549643761995
 20
8.4910589176139712
 30
0.0
 11
-31.9578549643761995
 21
8.4865462395848894
 31
0.0
  0
LINE
  5
974C
  8
0
 10
-31.9708549695556208
 20
8.5106758540423915
 30
0.0
 11
-31.9708549643762012
 21
8.5092182076139711
 31
0.0
  0
LINE
  5
974D
  8
0
 10
-31.9708549643762012
 20
8.5084736751139705
 30
0.0
 11
-31.9708549394896302
 21
8.5072207881203603
 31
0.0
  0
LINE
  5
974E
  8
0
 10
-31.9708549553659083
 20
8.5064193595906801
 30
0.0
 11
-31.9708549260520414
 21
8.5050572788030276
 31
0.0
  0
LINE
  5
974F
  8
0
 10
-31.9708549503773298
 20
8.5041762060017518
 30
0.0
 11
-31.9708548983509289
 21
8.5026586787068865
 31
0.0
  0
LINE
  5
9750
  8
0
 10
-31.9708549643762012
 20
8.5016622900139716
 30
0.0
 11
-31.9708549148547014
 21
8.4999150052003891
 31
0.0
  0
LINE
  5
9751
  8
0
 10
-31.9708549643762012
 20
8.4987441641729582
 30
0.0
 11
-31.9708549643762012
 21
8.4966419461139697
 31
0.0
  0
LINE
  5
9752
  8
0
 10
-31.9708549643762012
 20
8.4951952535708362
 30
0.0
 11
-31.9708549643762012
 21
8.4925181928139697
 31
0.0
  0
LINE
  5
9753
  8
0
 10
-31.9708549643762012
 20
8.4906156591139688
 30
0.0
 11
-31.9708549643762012
 21
8.4869718434139703
 31
0.0
  0
LINE
  5
9754
  8
0
 10
-31.9708549643762012
 20
8.4842964142139685
 30
0.0
 11
-31.9708549643762012
 21
8.4790281781139694
 31
0.0
  0
ARC
  5
9755
  8
0
 10
-31.9149719493615613
 20
8.4047598700843658
 30
0.0
 40
0.0923872062678873
 50
103.7014045637740054
 51
112.1834967189421945
  0
ARC
  5
9756
  8
0
 10
-31.9119784522754593
 20
8.3920033135408936
 30
0.0
 40
0.1055024860980255
 50
92.1057114208461201
 51
99.2047584736158541
  0
LINE
  5
9757
  8
0
 10
-31.9158549643762015
 20
8.4974345576139712
 30
0.0
 11
-31.9158549644348213
 21
8.5026650675167712
 31
0.0
  0
LINE
  5
9758
  8
0
 10
-31.9158474050333787
 20
8.5048183859695552
 30
0.0
 11
-31.9158549643762015
 21
8.5062492876139704
 31
0.0
  0
LINE
  5
9759
  8
0
 10
-31.9158549643762015
 20
8.5067703211000616
 30
0.0
 11
-31.9158549644521798
 21
8.5076125812773782
 31
0.0
  0
LINE
  5
975A
  8
0
 10
-31.9158549644083784
 20
8.5089663934731075
 30
0.0
 11
-31.9158703569818414
 21
8.5081287512220083
 31
0.0
  0
LINE
  5
975B
  8
0
 10
-31.9158549662061795
 20
8.5094808531788946
 30
0.0
 11
-31.9158549644388998
 21
8.5103156126848152
 31
0.0
  0
LINE
  5
975C
  8
0
 10
-31.9158549643762015
 20
8.5108288570118322
 30
0.0
 11
-31.9158700119810703
 21
8.5116619890082301
 31
0.0
  0
LINE
  5
975D
  8
0
 10
-31.9158549644506699
 20
8.5121748162719708
 30
0.0
 11
-31.9158549643906717
 21
8.5130073234354331
 31
0.0
  0
LINE
  5
975E
  8
0
 10
-31.9158549643915102
 20
8.5135194327097032
 30
0.0
 11
-31.9158549643762015
 21
8.5143547549003724
 31
0.0
  0
LINE
  5
975F
  8
0
 10
-31.9158549643762015
 20
8.5148631443665668
 30
0.0
 11
-31.9158549643762015
 21
8.51569463351397
 31
0.0
  0
LINE
  5
9760
  8
0
 10
-31.9288549643761996
 20
8.5152691486938625
 30
0.0
 11
-31.9288549643761996
 21
8.5144091129962192
 31
0.0
  0
LINE
  5
9761
  8
0
 10
-31.9288549643761996
 20
8.5138777613384775
 30
0.0
 11
-31.9288549643761996
 21
8.5130102356744572
 31
0.0
  0
LINE
  5
9762
  8
0
 10
-31.9288549643761996
 20
8.5124734240139688
 30
0.0
 11
-31.9288549643761996
 21
8.5115952446139662
 31
0.0
  0
LINE
  5
9763
  8
0
 10
-31.9288549643761996
 20
8.5110504981139705
 30
0.0
 11
-31.9288549643761996
 21
8.5101564393139686
 31
0.0
  0
LINE
  5
9764
  8
0
 10
-31.9288549612213188
 20
8.5095994982794103
 30
0.0
 11
-31.9288549643761996
 21
8.5086803176139707
 31
0.0
  0
LINE
  5
9765
  8
0
 10
-31.9288549578234608
 20
8.5081033621791491
 30
0.0
 11
-31.9288549643761996
 21
8.5071409068139694
 31
0.0
  0
LINE
  5
9766
  8
0
 10
-31.9288549643989583
 20
8.5065277811819477
 30
0.0
 11
-31.9288549643772015
 21
8.5054813373653051
 31
0.0
  0
LINE
  5
9767
  8
0
 10
-31.9288549643761996
 20
8.5047923407139692
 30
0.0
 11
-31.9288549643761996
 21
8.5033162272686553
 31
0.0
  0
LINE
  5
9768
  8
0
 10
-31.9288549643761996
 20
8.496147242371034
 30
0.0
 11
-31.9288549644305206
 21
8.5012722872451345
 31
0.0
  0
LINE
  5
9769
  8
0
 10
-31.9368549643761988
 20
8.4945180426139704
 30
0.0
 11
-31.9368549643761988
 21
8.499500906113969
 31
0.0
  0
LINE
  5
976A
  8
0
 10
-31.9368549643761988
 20
8.5013954820139706
 30
0.0
 11
-31.9368549643761988
 21
8.5030698087139704
 31
0.0
  0
LINE
  5
976B
  8
0
 10
-31.9368549643761988
 20
8.5039444505139681
 30
0.0
 11
-31.9368549643761988
 21
8.5052225971139688
 31
0.0
  0
LINE
  5
976C
  8
0
 10
-31.9368549643761988
 20
8.5059474803139707
 30
0.0
 11
-31.9368549643761988
 21
8.5070565800052478
 31
0.0
  0
LINE
  5
976D
  8
0
 10
-31.9368549643761988
 20
8.5077073599139705
 30
0.0
 11
-31.9368549643761988
 21
8.5087269928139708
 31
0.0
  0
LINE
  5
976E
  8
0
 10
-31.9368549643761988
 20
8.5093361368139693
 30
0.0
 11
-31.9368549643761988
 21
8.5103030616139694
 31
0.0
  0
LINE
  5
976F
  8
0
 10
-31.9368549643761988
 20
8.5108866091139692
 30
0.0
 11
-31.9369419864598889
 21
8.5118115321346952
 31
0.0
  0
LINE
  5
9770
  8
0
 10
-31.9369966648990911
 20
8.5123735574274182
 30
0.0
 11
-31.9368549643761988
 21
8.5132974573900224
 31
0.0
  0
LINE
  5
9771
  8
0
 10
-31.9369788255159115
 20
8.5138422983989859
 30
0.0
 11
-31.9368549643761988
 21
8.5147473368647528
 31
0.0
  0
LINE
  5
9772
  8
0
 10
-31.9498549643762004
 20
8.5134838859139705
 30
0.0
 11
-31.9498549567366688
 21
8.5125061744488857
 31
0.0
  0
LINE
  5
9773
  8
0
 10
-31.949854961500229
 20
8.5118945561627477
 30
0.0
 11
-31.9498549525397095
 21
8.5108811715718122
 31
0.0
  0
LINE
  5
9774
  8
0
 10
-31.9498549598242683
 20
8.5102437093894938
 30
0.0
 11
-31.949854945091321
 21
8.5091801888346552
 31
0.0
  0
LINE
  5
9775
  8
0
 10
-31.9498549569259715
 20
8.5085057265047421
 30
0.0
 11
-31.9498549404505283
 21
8.5073688675112251
 31
0.0
  0
LINE
  5
9776
  8
0
 10
-31.9498549512047809
 20
8.5066388986641623
 30
0.0
 11
-31.9498549200778115
 21
8.5053889567217134
 31
0.0
  0
LINE
  5
9777
  8
0
 10
-31.9498549643762004
 20
8.50457100511397
 30
0.0
 11
-31.9498549643762004
 21
8.5031351976139682
 31
0.0
  0
LINE
  5
9778
  8
0
 10
-31.9498549643762004
 20
8.5021663398139662
 30
0.0
 11
-31.9498549643762004
 21
8.5003976013139688
 31
0.0
  0
LINE
  5
9779
  8
0
 10
-31.9498549643762004
 20
8.4991456566139671
 30
0.0
 11
-31.9498549643762004
 21
8.4967157718139692
 31
0.0
  0
LINE
  5
977A
  8
0
 10
-31.9498549643762004
 20
8.4948706266139684
 30
0.0
 11
-31.9498549643762004
 21
8.4903085179139701
 31
0.0
  0
ARC
  5
977B
  8
0
 10
-31.9145808416535317
 20
8.3682896080351448
 30
0.0
 40
0.1010281590029029
 50
81.0088521187032455
 51
88.4181564635101012
  0
ARC
  5
977C
  8
0
 10
-31.9145808416535317
 20
8.3682896080351448
 30
0.0
 40
0.1010281590029029
 50
68.6450440575425631
 51
76.3808057090869141
  0
ARC
  5
977D
  8
0
 10
-31.9562905545249194
 20
8.3098148742467473
 30
0.0
 40
0.1815748916773126
 50
57.2701929316580802
 51
61.5507834609535109
  0
ARC
  5
977E
  8
0
 10
-31.9122862385446986
 20
8.3832004893599308
 30
0.0
 40
0.0961609906862284
 50
68.9787781678181773
 51
77.083914902270962
  0
ARC
  5
977F
  8
0
 10
-31.9158233490564918
 20
8.3679809573190767
 30
0.0
 40
0.1117860830249875
 50
81.236465126818544
 51
87.9332761288659412
  0
ARC
  5
9780
  8
0
 10
-31.958430865043141
 20
8.3118807705587248
 30
0.0
 40
0.1857518837146227
 50
56.8265398514877518
 51
61.4979803607414084
  0
ARC
  5
9781
  8
0
 10
-31.913280582563111
 20
8.3854848612258959
 30
0.0
 40
0.0996706363621145
 50
69.1416484072578612
 51
76.9601173630003643
  0
ARC
  5
9782
  8
0
 10
-31.915679577676201
 20
8.3743037150139763
 30
0.0
 40
0.1111155999999942
 50
81.2581783012441861
 51
87.9949813905996052
  0
ARC
  5
9783
  8
0
 10
-31.9157314143504998
 20
8.3841673685146745
 30
0.0
 40
0.1092245943400385
 50
81.0780903974781779
 51
87.9330446087644333
  0
ARC
  5
9784
  8
0
 10
-31.9133821646914413
 20
8.3954789488637367
 30
0.0
 40
0.0976600756565355
 50
68.6275353610105867
 51
76.6255253422671814
  0
ARC
  5
9785
  8
0
 10
-31.9364288203470714
 20
8.3557346282408194
 30
0.0
 40
0.1434874656040235
 50
56.2886589951367782
 51
62.3280298695935073
  0
ARC
  5
9786
  8
0
 10
-31.5765111836548691
 20
8.9026511085023543
 30
0.0
 40
0.5110917714561505
 50
237.8089938603694122
 51
239.0122733526573029
  0
LINE
  5
9787
  8
0
 10
-31.8487919723762012
 20
8.4701259983137636
 30
0.0
 11
-31.8487919723762012
 21
8.4634698133574489
 31
0.0
  0
LINE
  5
9788
  8
0
 10
-31.8567919723762003
 20
8.4673584146139689
 30
0.0
 11
-31.8567919723762003
 21
8.4750938559139701
 31
0.0
  0
LINE
  5
9789
  8
0
 10
-31.8697919723761984
 20
8.4751195803139705
 30
0.0
 11
-31.8697919723807601
 21
8.4828101305137071
 31
0.0
  0
LINE
  5
978A
  8
0
 10
-31.8697919723761984
 20
8.4694627260139708
 30
0.0
 11
-31.8697919723761984
 21
8.4616295474257281
 31
0.0
  0
LINE
  5
978B
  8
0
 10
-31.8777919723762011
 20
8.4623814143139686
 30
0.0
 11
-31.8777919723762011
 21
8.4729617378542201
 31
0.0
  0
LINE
  5
978C
  8
0
 10
-31.8907919723761992
 20
8.4769284609139692
 30
0.0
 11
-31.8907919723761992
 21
8.4664770746997942
 31
0.0
  0
LINE
  5
978D
  8
0
 10
-31.8777919723762011
 20
8.4864230448139661
 30
0.0
 11
-31.8777919723762011
 21
8.4786234370139688
 31
0.0
  0
LINE
  5
978E
  8
0
 10
-31.8907919723761992
 20
8.4904903881139706
 30
0.0
 11
-31.8907919723761992
 21
8.4825853152139707
 31
0.0
  0
LINE
  5
978F
  8
0
 10
-31.8987919723761983
 20
8.4920704144139698
 30
0.0
 11
-31.8987919723761983
 21
8.4841285088930913
 31
0.0
  0
LINE
  5
9790
  8
0
 10
-31.8987919723761983
 20
8.4784619989798227
 30
0.0
 11
-31.8987919723761983
 21
8.4680763833035098
 31
0.0
  0
LINE
  5
9791
  8
0
 10
-31.9117919723762
 20
8.4692792665139702
 30
0.0
 11
-31.9117919723762
 21
8.4796943242906746
 31
0.0
  0
LINE
  5
9792
  8
0
 10
-31.9117919723490502
 20
8.4853512862984442
 30
0.0
 11
-31.9117919723762
 21
8.4933208971139695
 31
0.0
  0
ARC
  5
9793
  8
0
 10
-32.3024751157751666
 20
7.6703442068155807
 30
0.0
 40
0.9280061557980838
 50
59.8087494870054286
 51
60.73303825370715
  0
LINE
  5
9794
  8
0
 10
-31.8567919723762003
 20
8.4842964142139685
 30
0.0
 11
-31.8697919723761984
 21
8.4910589176139712
 31
0.0
  0
ARC
  5
9795
  8
0
 10
-31.9122681901941085
 20
8.4186395724176233
 30
0.0
 40
0.0836647071285981
 50
65.6646872714965895
 51
75.1260216265043113
  0
ARC
  5
9796
  8
0
 10
-31.9157190332763712
 20
8.4046440705123704
 30
0.0
 40
0.0980996313016066
 50
80.0639033770632551
 51
87.7057593959378607
  0
ARC
  5
9797
  8
0
 10
-31.9156234897500184
 20
8.4146369015890468
 30
0.0
 40
0.0902625214587705
 50
79.2529801085848931
 51
87.5671435668109552
  0
ARC
  5
9798
  8
0
 10
-31.9163912478511804
 20
8.4064845478630161
 30
0.0
 40
0.0998706995693445
 50
79.8503021831039348
 51
87.3604639847434044
  0
ARC
  5
9799
  8
0
 10
-31.9161217843762799
 20
8.3969021422131593
 30
0.0
 40
0.1099534629008127
 50
80.9317761474243014
 51
87.7431896451783047
  0
ARC
  5
979A
  8
0
 10
-31.9160540121348717
 20
8.3781003207724432
 30
0.0
 40
0.1295823699607717
 50
82.3447083362624852
 51
88.1151684100447028
  0
ARC
  5
979B
  8
0
 10
-31.9159893650380013
 20
8.366923016311361
 30
0.0
 40
0.1412685638468996
 50
83.0077288823849102
 51
88.291122955580974
  0
ARC
  5
979C
  8
0
 10
-31.9159348082645202
 20
8.3482200027446076
 30
0.0
 40
0.1607997674802538
 50
83.8800786537900365
 51
88.5236714892809147
  0
ARC
  5
979D
  8
0
 10
-31.9158889823834997
 20
8.3175845563372643
 30
0.0
 40
0.1927745978399571
 50
84.9118031577450552
 51
88.7822095684068273
  0
ARC
  5
979E
  8
0
 10
-31.9159191178945782
 20
8.3365050119433821
 30
0.0
 40
0.1730250704272888
 50
84.3191885653888846
 51
88.6332006504037366
  0
ARC
  5
979F
  8
0
 10
-31.9158789274933383
 20
8.3058127044909185
 30
0.0
 40
0.2050568847822674
 50
85.2201218003761625
 51
88.8579716037087337
  0
ARC
  5
97A0
  8
0
 10
-31.9158552903501409
 20
8.2868853993814415
 30
0.0
 40
0.2248135856883299
 50
85.6470725674484612
 51
88.9605345552806313
  0
ARC
  5
97A1
  8
0
 10
-31.915854860591601
 20
8.2555429668334455
 30
0.0
 40
0.2574964115890623
 50
86.2005359431306459
 51
89.0959252329650866
  0
ARC
  5
97A2
  8
0
 10
-31.9158709876623803
 20
8.2745939267155855
 30
0.0
 40
0.2376159031898239
 50
85.8782218638637147
 51
89.0163880377864132
  0
ARC
  5
97A3
  8
0
 10
-31.9158334069849694
 20
8.1934054187181555
 30
0.0
 40
0.3223145531424227
 50
86.9692408910407408
 51
89.2815614062416643
  0
ARC
  5
97A4
  8
0
 10
-31.9158403592760109
 20
8.2126106770192493
 30
0.0
 40
0.3022795782947166
 50
86.7668367984514646
 51
89.2326229270330344
  0
ARC
  5
97A5
  8
0
 10
-31.9160700817763399
 20
8.2203692699102096
 30
0.0
 40
0.2940166111037621
 50
86.6310290356658754
 51
89.166284305590878
  0
ARC
  5
97A6
  8
0
 10
-31.9158528860763013
 20
8.2436405659110488
 30
0.0
 40
0.269909417702921
 50
86.3759305883299362
 51
89.1379256123883437
  0
ARC
  5
97A7
  8
0
 10
-31.9167507349169703
 20
8.1801383305390605
 30
0.0
 40
0.3356144282758345
 50
83.3339683414003929
 51
85.5639137668319449
  0
ARC
  5
97A8
  8
0
 10
-31.9169497036759005
 20
8.1978572252169091
 30
0.0
 40
0.317076155797047
 50
82.906074238888408
 51
85.2454516153103867
  0
ARC
  5
97A9
  8
0
 10
-31.917044681406221
 20
8.2090927406712861
 30
0.0
 40
0.3053354129565411
 50
82.6138416653177075
 51
85.0676245539614513
  0
ARC
  5
97AA
  8
0
 10
-31.9172501971765215
 20
8.2270513147108915
 30
0.0
 40
0.2865594846030922
 50
82.0854305952211263
 51
84.6738434683933292
  0
ARC
  5
97AB
  8
0
 10
-31.9173656814475386
 20
8.2382660773142717
 30
0.0
 40
0.2748416097293742
 50
81.7213589457864771
 51
84.4333275358824267
  0
ARC
  5
97AC
  8
0
 10
-31.9176802396943096
 20
8.2556724357595375
 30
0.0
 40
0.2566266806089258
 50
81.0580918514375952
 51
83.9857500536550532
  0
ARC
  5
97AD
  8
0
 10
-31.91788364619498
 20
8.2664383168320157
 30
0.0
 40
0.2453649782219753
 50
80.5959300320634071
 51
83.660831498345317
  0
ARC
  5
97AE
  8
0
 10
-31.9183716832441888
 20
8.2831493386864494
 30
0.0
 40
0.2278620374233965
 50
79.7415398517637755
 51
83.048052165102817
  0
ARC
  5
97AF
  8
0
 10
-31.9186508386721108
 20
8.2937727043265674
 30
0.0
 40
0.2167520762770664
 50
79.13444864372903
 51
82.6154192240170175
  0
ARC
  5
97B0
  8
0
 10
-31.9194580067510891
 20
8.3093621802002975
 30
0.0
 40
0.2004059675818851
 50
78.0002202352737299
 51
81.7762138185506586
  0
ARC
  5
97B1
  8
0
 10
-31.920196201751569
 20
8.3180282691711973
 30
0.0
 40
0.1913016231032381
 50
77.1933527859602862
 51
81.1582370918590783
  0
ARC
  5
97B2
  8
0
 10
-31.9223324446665693
 20
8.3286962364162793
 30
0.0
 40
0.1800355655296415
 50
75.6763965299764436
 51
79.9102714445169084
  0
ARC
  5
97B3
  8
0
 10
-31.9215222872580391
 20
8.345332771147536
 30
0.0
 40
0.1628161807079168
 50
74.4197956335651725
 51
79.120599456025829
  0
ARC
  5
97B4
  8
0
 10
-31.9266960742827592
 20
8.3467504557963412
 30
0.0
 40
0.1612422292980408
 50
72.3443314119173237
 51
77.1339890721407215
  0
ARC
  5
97B5
  8
0
 10
-31.9267397623077009
 20
8.3604859486334071
 30
0.0
 40
0.1470455737396842
 50
70.5566327519240133
 51
75.8496628553754988
  0
ARC
  5
97B6
  8
0
 10
-32.0479827574778398
 20
8.0443308436739791
 30
0.0
 40
0.4833394527055858
 50
69.3833036133822532
 51
71.0212051227123595
  0
ARC
  5
97B7
  8
0
 10
-31.8060783949309815
 20
8.9206791124800624
 30
0.0
 40
0.4131277506310414
 50
261.1295497652681092
 51
262.9488612117729076
  0
ARC
  5
97B8
  8
0
 10
-31.9212551664082689
 20
8.1668684812350136
 30
0.0
 40
0.3483659549045552
 50
79.336274803659478
 51
81.5032659094848242
  0
ARC
  5
97B9
  8
0
 10
-31.9217632927478192
 20
8.1764898411603966
 30
0.0
 40
0.3382817442271234
 50
78.9268118277281161
 51
81.1624627361241977
  0
ARC
  5
97BA
  8
0
 10
-31.9226258700935617
 20
8.1923182202072482
 30
0.0
 40
0.3217106247704166
 50
78.1917542151191611
 51
80.5476086901345951
  0
ARC
  5
97BB
  8
0
 10
-31.9231373183362592
 20
8.2023587486691767
 30
0.0
 40
0.3112146507620365
 50
77.6911135970226781
 51
80.1301824683598056
  0
ARC
  5
97BC
  8
0
 10
-31.9246392147425091
 20
8.2158341696726662
 30
0.0
 40
0.2970744855273992
 50
76.7980216025088822
 51
79.3607565270870623
  0
ARC
  5
97BD
  8
0
 10
-31.9257469656993891
 20
8.2236849611813394
 30
0.0
 40
0.2888427385179041
 50
76.1884953797475646
 51
78.829964314486844
  0
ARC
  5
97BE
  8
0
 10
-31.927702570909549
 20
8.2366049347443013
 30
0.0
 40
0.2753414213246684
 50
75.0760488320760544
 51
77.8587259619367558
  0
ARC
  5
97BF
  8
0
 10
-31.9296275794890505
 20
8.2421686523250983
 30
0.0
 40
0.2695217498913593
 50
74.3214403435653566
 51
77.1730823856630934
  0
ARC
  5
97C0
  8
0
 10
-31.9330433539449388
 20
8.2515698697577964
 30
0.0
 40
0.2597875515435231
 50
72.9315370955457638
 51
75.9083603925100761
  0
ARC
  5
97C1
  8
0
 10
-31.9371999362775902
 20
8.2512402842551822
 30
0.0
 40
0.2602376053400416
 50
72.0022868848343194
 51
74.9878016843890265
  0
ARC
  5
97C2
  8
0
 10
-33.4318480143221279
 20
3.7324119370222681
 30
0.0
 40
5.0178370952832143
 50
71.7060968252487072
 51
71.8623677012573268
  0
ARC
  5
97C3
  8
0
 10
-31.9475636102773386
 20
8.2583280625106976
 30
0.0
 40
0.2536642593034641
 50
69.032296414314402
 51
72.1459831746730771
  0
LINE
  5
97C4
  8
0
 10
-31.8697919723761984
 20
8.4976667802139705
 30
0.0
 11
-31.8567919723762003
 21
8.4925181928139697
 31
0.0
  0
LINE
  5
97C5
  8
0
 10
-31.8567919723762003
 20
8.4906156591139688
 30
0.0
 11
-31.8697919723761984
 21
8.4961642316139692
 31
0.0
  0
LINE
  5
97C6
  8
0
 10
-31.8697919723761984
 20
8.4932497467139694
 30
0.0
 11
-31.8567919723762003
 21
8.4869718434139703
 31
0.0
  0
ARC
  5
97C7
  8
0
 10
-32.192860488447252
 20
7.9129074964400248
 30
0.0
 40
0.6583575576487039
 50
59.3051893059143325
 51
60.6121543018328808
  0
LINE
  5
97C8
  8
0
 10
-31.8357919723761995
 20
8.5084738553139712
 30
0.0
 11
-31.8487919723762012
 21
8.5084738553139712
 31
0.0
  0
LINE
  5
97C9
  8
0
 10
-31.8382495918172985
 20
8.5091809621139696
 30
0.0
 11
-31.8487919723762012
 21
8.5091809621139696
 31
0.0
  0
LINE
  5
97CA
  8
0
 10
-31.8487919723762012
 20
8.5091809621139696
 30
0.0
 11
-31.8487919723762012
 21
8.5076215643139683
 31
0.0
  0
LINE
  5
97CB
  8
0
 10
-31.8487919723762012
 20
8.5076215643139683
 30
0.0
 11
-31.8357919995899508
 21
8.5046465426686062
 31
0.0
  0
LINE
  5
97CC
  8
0
 10
-31.8357919995899508
 20
8.5046465426686062
 30
0.0
 11
-31.8357919995899508
 21
8.5084738553139712
 31
0.0
  0
ARC
  5
97CD
  8
0
 10
-31.9322415809613993
 20
8.1263830923281404
 30
0.0
 40
0.3894769709948445
 50
75.6621677649969087
 51
77.6278421507984433
  0
ARC
  5
97CE
  8
0
 10
-31.9344373473518388
 20
8.139106155255023
 30
0.0
 40
0.3762232239596357
 50
74.7994195783743123
 51
76.8415312833183748
  0
ARC
  5
97CF
  8
0
 10
-31.9367105762043302
 20
8.1437786831222603
 30
0.0
 40
0.3713532429106285
 50
74.2310326859460616
 51
76.3050833305093619
  0
ARC
  5
97D0
  8
0
 10
-31.9400181162226104
 20
8.1539396477471033
 30
0.0
 40
0.3608582603146142
 50
73.2121774259555451
 51
75.3565432340700596
  0
ARC
  5
97D1
  8
0
 10
-31.9431490687368793
 20
8.1570005190074415
 30
0.0
 40
0.3577685401718099
 50
72.5379452983067949
 51
74.7080324048877458
  0
ARC
  5
97D2
  8
0
 10
-31.9478583334852289
 20
8.1646812163568931
 30
0.0
 40
0.350045066880064
 50
71.3281014834497427
 51
73.5600484220582729
  0
ARC
  5
97D3
  8
0
 10
-31.9535269353320714
 20
8.1618024867441719
 30
0.0
 40
0.3533769047212576
 50
70.538639770244373
 51
72.7595038802808034
  0
ARC
  5
97D4
  8
0
 10
-31.9622594027220295
 20
8.1611804122417357
 30
0.0
 40
0.3547939553964554
 50
69.1174915221266701
 51
71.3484329446327763
  0
ARC
  5
97D5
  8
0
 10
-31.9708109134866092
 20
8.1537388513976055
 30
0.0
 40
0.3633817635662315
 50
68.1880031841246108
 51
70.3795745634078145
  0
ARC
  5
97D6
  8
0
 10
-31.9869081017773382
 20
8.1399713707112067
 30
0.0
 40
0.3796879259029891
 50
66.5467697397080968
 51
68.6685747431914137
  0
ARC
  5
97D7
  8
0
 10
-32.0033733444753068
 20
8.1187240590161185
 30
0.0
 40
0.4040298762976736
 50
65.4948705116887169
 51
67.5052297495005149
  0
ARC
  5
97D8
  8
0
 10
-32.0429416391089816
 20
8.0634629738997212
 30
0.0
 40
0.4677303768894098
 50
63.7120495808119003
 51
65.4750651960131052
  0
ARC
  5
97D9
  8
0
 10
-32.0765136402821014
 20
8.0162854046023533
 30
0.0
 40
0.5227802006130247
 50
62.5829236018127091
 51
64.1766762549729037
  0
ARC
  5
97DA
  8
0
 10
-32.1689249915777893
 20
7.8798044297109806
 30
0.0
 40
0.6827222098033818
 50
60.79421208280624
 51
62.0366596617000923
  0
ARC
  5
97DB
  8
0
 10
-32.8458253626333487
 20
6.8218764365840094
 30
0.0
 40
1.929870628317891
 50
58.4415274073082784
 51
58.8933811239417508
  0
ARC
  5
97DC
  8
0
 10
-32.09979885231688
 20
7.9933138434956081
 30
0.0
 40
0.5498941486038877
 50
59.4967047889852267
 51
60.3531178794046426
  0
ARC
  5
97DD
  8
0
 10
-32.2562096244056278
 20
7.6751628243600472
 30
0.0
 40
0.9083498266614256
 50
60.9249050499306932
 51
61.8589415457469087
  0
ARC
  5
97DE
  8
0
 10
-32.1779472524475878
 20
7.7953782288604829
 30
0.0
 40
0.7679008885656775
 50
61.7760269499117669
 51
62.8713379543169069
  0
ARC
  5
97DF
  8
0
 10
-32.1009704705778702
 20
7.909474561410434
 30
0.0
 40
0.6349326089039077
 50
63.2099466551094196
 51
64.5166988191666348
  0
ARC
  5
97E0
  8
0
 10
-32.0679907632697265
 20
7.9573326751215268
 30
0.0
 40
0.5795286839842153
 50
64.0934466795035434
 51
65.5138904986091006
  0
ARC
  5
97E1
  8
0
 10
-32.0319811202678508
 20
8.0052942467329569
 30
0.0
 40
0.5239466072792545
 50
65.5105749955713321
 51
67.0633165801558135
  0
ARC
  5
97E2
  8
0
 10
-31.9505054888026585
 20
8.0579668673885934
 30
0.0
 40
0.4602937402312667
 50
72.8519916348412124
 51
74.5380558792569303
  0
ARC
  5
97E3
  8
0
 10
-31.9538741999514286
 20
8.0696929499213486
 30
0.0
 40
0.4483107841623402
 50
71.9265352971826246
 51
73.6658671508732539
  0
ARC
  5
97E4
  8
0
 10
-31.9601248785973304
 20
8.0642534101003811
 30
0.0
 40
0.4542597581862181
 50
71.3410977858755047
 51
73.0632708028019948
  0
ARC
  5
97E5
  8
0
 10
-31.9674828723745108
 20
8.0661282712190197
 30
0.0
 40
0.4528717359946724
 50
70.2959798659868937
 51
72.0338082954072121
  0
ARC
  5
97E6
  8
0
 10
-31.9740940106575309
 20
8.0623112882146852
 30
0.0
 40
0.4573937220608101
 50
69.6177244151946013
 51
71.3455306210968132
  0
ARC
  5
97E7
  8
0
 10
-31.9856872684651705
 20
8.0561824834424591
 30
0.0
 40
0.4649585619214588
 50
68.4354310267449364
 51
70.1481022754637422
  0
ARC
  5
97E8
  8
0
 10
-31.9954920038468913
 20
8.0470542510293477
 30
0.0
 40
0.4755671277710808
 50
67.668336448837465
 51
69.3516353284382205
  0
ARC
  5
97E9
  8
0
 10
-32.0147725599699129
 20
8.0273978380288131
 30
0.0
 40
0.4985247579838804
 50
66.3502543547781016
 51
67.9714978525303195
  0
LINE
  5
97EA
  8
0
 10
-31.7937919723762015
 20
8.4936246129139708
 30
0.0
 11
-31.8067919723761996
 21
8.4936246129139708
 31
0.0
  0
LINE
  5
97EB
  8
0
 10
-31.8067919723761996
 20
8.4936246129139708
 30
0.0
 11
-31.8067919778898585
 21
8.4932028082813851
 31
0.0
  0
LINE
  5
97EC
  8
0
 10
-31.8067919778898585
 20
8.4932028082813851
 30
0.0
 11
-31.7937919723762015
 21
8.4886911356951682
 31
0.0
  0
LINE
  5
97ED
  8
0
 10
-31.7937919723762015
 20
8.4886911356951682
 30
0.0
 11
-31.7937919723762015
 21
8.4936246129139708
 31
0.0
  0
LINE
  5
97EE
  8
0
 10
-31.7951840422819316
 20
8.4943317196660306
 30
0.0
 11
-31.8067919723761996
 21
8.4943317196660306
 31
0.0
  0
LINE
  5
97EF
  8
0
 10
-31.8067919723761996
 20
8.4943317196660306
 30
0.0
 11
-31.8067919723761996
 21
8.4936246129139708
 31
0.0
  0
ARC
  5
97F0
  8
0
 10
-31.7606101720524805
 20
8.5406196075863807
 30
0.0
 40
0.0620451374856866
 50
246.0548071039881961
 51
258.6771204057483828
  0
ARC
  5
97F1
  8
0
 10
-32.072161701579887
 20
7.799315517504481
 30
0.0
 40
0.7395494250751828
 50
66.2314925725907244
 51
67.2182523822033318
  0
ARC
  5
97F2
  8
0
 10
-32.0913830155622435
 20
7.7736266094027773
 30
0.0
 40
0.7690622164664194
 50
65.8671416612239682
 51
66.5870429654576697
  0
ARC
  5
97F3
  8
0
 10
-32.1058834652716669
 20
7.7725781362251922
 30
0.0
 40
0.7730354383312329
 50
65.2110525856690089
 51
65.5391786728642529
  0
ARC
  5
97F4
  8
0
 10
-31.9963905359658689
 20
7.9598460997418696
 30
0.0
 40
0.5647914767702489
 50
68.9787672227630395
 51
70.385098211653002
  0
ARC
  5
97F5
  8
0
 10
-32.0103379617640229
 20
7.94938046925229
 30
0.0
 40
0.5772429019812224
 50
67.9671392654235547
 51
69.3524987854616484
  0
ARC
  5
97F6
  8
0
 10
-32.0217999156829478
 20
7.9371654369974483
 30
0.0
 40
0.5913303150178431
 50
67.3199556735142295
 51
68.6785266804734533
  0
ARC
  5
97F7
  8
0
 10
-32.0432046543767868
 20
7.9138424843126236
 30
0.0
 40
0.6184871786014657
 50
66.2177170855007375
 51
67.5272834867976286
  0
ARC
  5
97F8
  8
0
 10
-32.0615129298240831
 20
7.88983276117927
 30
0.0
 40
0.6460953998404348
 50
65.5205086558700174
 51
66.781001154942615
  0
ARC
  5
97F9
  8
0
 10
-32.0971748916039985
 20
7.8426376290252309
 30
0.0
 40
0.7008358851871206
 50
64.3490771893702771
 51
65.522367667367746
  0
ARC
  5
97FA
  8
0
 10
-32.1278437611821914
 20
7.7986001291246536
 30
0.0
 40
0.7517968836222467
 50
63.5880387121139066
 51
64.7197661391858361
  0
ARC
  5
97FB
  8
0
 10
-32.1812617572457285
 20
7.72684544597222
 30
0.0
 40
0.8363514852106623
 50
62.8140473546756368
 51
63.4010874280708521
  0
ARC
  5
97FC
  8
0
 10
-32.2106053947266417
 20
7.6936654173061259
 30
0.0
 40
0.8769973709112633
 50
62.2937966762973474
 51
62.583852260942372
  0
LINE
  5
97FD
  8
0
 10
-31.7857919723761988
 20
8.4839144401139706
 30
0.0
 11
-31.7857919723269902
 21
8.4811701429904822
 31
0.0
  0
LINE
  5
97FE
  8
0
 10
-31.7727919723762007
 20
8.4797820959139703
 30
0.0
 11
-31.7727919723762007
 21
8.4764446658910213
 31
0.0
  0
LINE
  5
97FF
  8
0
 10
-31.7857919723149109
 20
8.4793679268011921
 30
0.0
 11
-31.7857919723600588
 21
8.4762294881613478
 31
0.0
  0
LINE
  5
9800
  8
0
 10
-31.7937919866500316
 20
8.4870493243596972
 30
0.0
 11
-31.7937920421611295
 21
8.4844666609924975
 31
0.0
  0
LINE
  5
9801
  8
0
 10
-31.7937919899607202
 20
8.4827696225266198
 30
0.0
 11
-31.7937920601232484
 21
8.4798104586027971
 31
0.0
  0
LINE
  5
9802
  8
0
 10
-31.7937919933834898
 20
8.4778504189807613
 30
0.0
 11
-31.7937920774259091
 21
8.4744048377559462
 31
0.0
  0
LINE
  5
9803
  8
0
 10
-31.8067919723761996
 20
8.4918628259047342
 30
0.0
 11
-31.8067919723761996
 21
8.4895456274139711
 31
0.0
  0
LINE
  5
9804
  8
0
 10
-31.8067919858881183
 20
8.4880221620943157
 30
0.0
 11
-31.8067919815274216
 21
8.4853627711009576
 31
0.0
  0
LINE
  5
9805
  8
0
 10
-31.8067919723761996
 20
8.4835974448139684
 30
0.0
 11
-31.8067919723761996
 21
8.4804845528139712
 31
0.0
  0
LINE
  5
9806
  8
0
 10
-31.8067919515005606
 20
8.4783973707520897
 30
0.0
 11
-31.806791972345259
 21
8.4746797772319429
 31
0.0
  0
LINE
  5
9807
  8
0
 10
-31.8067919723120589
 20
8.4721633996176315
 30
0.0
 11
-31.8067919723120589
 21
8.4693977493310637
 31
0.0
  0
LINE
  5
9808
  8
0
 10
-31.8147919831305188
 20
8.4977988485748952
 30
0.0
 11
-31.8147919723141612
 21
8.4958838615462966
 31
0.0
  0
LINE
  5
9809
  8
0
 10
-31.8147919723761987
 20
8.4946372786139701
 30
0.0
 11
-31.8147920421256316
 21
8.4924829587981971
 31
0.0
  0
LINE
  5
980A
  8
0
 10
-31.8147919723761987
 20
8.4910674865139697
 30
0.0
 11
-31.8147919723761987
 21
8.4885957835139703
 31
0.0
  0
LINE
  5
980B
  8
0
 10
-31.8147919972671787
 20
8.4869537857398605
 30
0.0
 11
-31.8147920997443698
 21
8.4840538900536053
 31
0.0
  0
LINE
  5
980C
  8
0
 10
-31.8147920033431397
 20
8.4821054617530205
 30
0.0
 11
-31.8147919723761987
 21
8.4786232542139697
 31
0.0
  0
LINE
  5
980D
  8
0
 10
-31.8147920073990917
 20
8.4762560934509157
 30
0.0
 11
-31.8147919723761987
 21
8.4719800447139662
 31
0.0
  0
LINE
  5
980E
  8
0
 10
-31.8147920052872593
 20
8.4690456199462165
 30
0.0
 11
-31.8147920052872593
 21
8.4680348292601515
 31
0.0
  0
LINE
  5
980F
  8
0
 10
-31.8277919723762004
 20
8.5016015371139684
 30
0.0
 11
-31.8277919723762004
 21
8.4999089783139699
 31
0.0
  0
LINE
  5
9810
  8
0
 10
-31.8277919723762004
 20
8.4988105753139713
 30
0.0
 11
-31.8277919793879001
 21
8.4969173886296527
 31
0.0
  0
LINE
  5
9811
  8
0
 10
-31.8277919723762004
 20
8.4956757198139687
 30
0.0
 11
-31.8277919820734709
 21
8.4935102127706532
 31
0.0
  0
LINE
  5
9812
  8
0
 10
-31.8277919723762004
 20
8.4920719950139691
 30
0.0
 11
-31.8277919854626212
 21
8.4895289872492601
 31
0.0
  0
LINE
  5
9813
  8
0
 10
-31.8277919723762004
 20
8.487815582181172
 30
0.0
 11
-31.8277919888951502
 21
8.4847395809820991
 31
0.0
  0
LINE
  5
9814
  8
0
 10
-31.8277919723762004
 20
8.4826350328054918
 30
0.0
 11
-31.8277919906895512
 21
8.4787983539103031
 31
0.0
  0
LINE
  5
9815
  8
0
 10
-31.8277919723762004
 20
8.476135809563317
 30
0.0
 11
-31.8277919723478213
 21
8.4712216085698824
 31
0.0
  0
LINE
  5
9816
  8
0
 10
-31.8357919723761995
 20
8.5037288011139704
 30
0.0
 11
-31.83579201136968
 21
8.5021667726945171
 31
0.0
  0
LINE
  5
9817
  8
0
 10
-31.8357919723761995
 20
8.5011561676139706
 30
0.0
 11
-31.8357920291922589
 21
8.4994184558086552
 31
0.0
  0
LINE
  5
9818
  8
0
 10
-31.8357919906315701
 20
8.4982816144659452
 30
0.0
 11
-31.8357919723761995
 21
8.4963025057139703
 31
0.0
  0
LINE
  5
9819
  8
0
 10
-31.8357919723761995
 20
8.4949896943139684
 30
0.0
 11
-31.8357921094283611
 21
8.4926691368053824
 31
0.0
  0
LINE
  5
981A
  8
0
 10
-31.8357919723761995
 20
8.4911054052139701
 30
0.0
 11
-31.8357921732729601
 21
8.4882914781250243
 31
0.0
  0
LINE
  5
981B
  8
0
 10
-31.8357919710740696
 20
8.4863605972302452
 30
0.0
 11
-31.8357919723761995
 21
8.4828204837139705
 31
0.0
  0
LINE
  5
981C
  8
0
 10
-31.8357919854568792
 20
8.4803459858320043
 30
0.0
 11
-31.8357921655703713
 21
8.4757340698490804
 31
0.0
  0
LINE
  5
981D
  8
0
 10
-31.8357919935472182
 20
8.4724678186278215
 30
0.0
 11
-31.8357919723761995
 21
8.4663317240910132
 31
0.0
  0
LINE
  5
981E
  8
0
 10
-31.8487919723515702
 20
8.5068150491327508
 30
0.0
 11
-31.8487919723762012
 21
8.5054513258139703
 31
0.0
  0
LINE
  5
981F
  8
0
 10
-31.8487919723762012
 20
8.5045744011139703
 30
0.0
 11
-31.8487919723762012
 21
8.503076404213969
 31
0.0
  0
LINE
  5
9820
  8
0
 10
-31.8487919723762012
 20
8.5021020500139706
 30
0.0
 11
-31.8487919723762012
 21
8.5004153447139679
 31
0.0
  0
LINE
  5
9821
  8
0
 10
-31.8487919723762012
 20
8.4993018561139682
 30
0.0
 11
-31.8487919723762012
 21
8.4973409290139692
 31
0.0
  0
LINE
  5
9822
  8
0
 10
-31.8487919018711985
 20
8.4960218730286883
 30
0.0
 11
-31.8487919924566398
 21
8.4936475805735956
 31
0.0
  0
LINE
  5
9823
  8
0
 10
-31.8487918764523492
 20
8.4920131034374364
 30
0.0
 11
-31.8487918048601308
 21
8.4889950494548465
 31
0.0
  0
LINE
  5
9824
  8
0
 10
-31.8487918596447592
 20
8.4868615714195368
 30
0.0
 11
-31.8487920900577812
 21
8.4828173160767637
 31
0.0
  0
LINE
  5
9825
  8
0
 10
-31.8487919188856488
 20
8.4798916001529001
 30
0.0
 11
-31.8487919723762012
 21
8.4742459657016411
 31
0.0
  0
LINE
  5
9826
  8
0
 10
-31.8697830388898105
 20
8.5124925660585227
 30
0.0
 11
-31.8697830388898105
 21
8.5114108714067989
 31
0.0
  0
LINE
  5
9827
  8
0
 10
-31.8697919723189287
 20
8.5107554845194215
 30
0.0
 11
-31.8697919723761984
 21
8.5096607880139707
 31
0.0
  0
LINE
  5
9828
  8
0
 10
-31.8697919723631102
 20
8.5089673475569771
 30
0.0
 11
-31.8697919723761984
 21
8.5078016849139715
 31
0.0
  0
LINE
  5
9829
  8
0
 10
-31.8697919723761984
 20
8.5070560364814192
 30
0.0
 11
-31.8697919723761984
 21
8.5057875138139671
 31
0.0
  0
LINE
  5
982A
  8
0
 10
-31.8697919723603995
 20
8.5049645308773432
 30
0.0
 11
-31.8697919723761984
 21
8.5035397780139697
 31
0.0
  0
LINE
  5
982B
  8
0
 10
-31.8697919723761984
 20
8.5025961627139708
 30
0.0
 11
-31.8697919723761984
 21
8.5009200933139724
 31
0.0
  0
LINE
  5
982C
  8
0
 10
-31.8697919723761984
 20
8.4997760461141016
 30
0.0
 11
-31.8697919723761984
 21
8.4976667802139705
 31
0.0
  0
LINE
  5
982D
  8
0
 10
-31.8697919723761984
 20
8.4961642316139692
 30
0.0
 11
-31.8697919723761984
 21
8.4932497467139694
 31
0.0
  0
LINE
  5
982E
  8
0
 10
-31.8697919723761984
 20
8.4910589176139712
 30
0.0
 11
-31.8697919723761984
 21
8.4865462395848894
 31
0.0
  0
LINE
  5
982F
  8
0
 10
-31.8567919671967807
 20
8.5106758540423915
 30
0.0
 11
-31.8567919723762003
 21
8.5092182076139711
 31
0.0
  0
LINE
  5
9830
  8
0
 10
-31.8567919723762003
 20
8.5084736751139705
 30
0.0
 11
-31.8567919972627713
 21
8.5072207881203603
 31
0.0
  0
LINE
  5
9831
  8
0
 10
-31.8567919813864897
 20
8.5064193595906801
 30
0.0
 11
-31.8567920107003602
 21
8.5050572788030276
 31
0.0
  0
LINE
  5
9832
  8
0
 10
-31.8567919863750717
 20
8.5041762060017518
 30
0.0
 11
-31.8567920384014691
 21
8.5026586787068865
 31
0.0
  0
LINE
  5
9833
  8
0
 10
-31.8567919723762003
 20
8.5016622900139716
 30
0.0
 11
-31.8567920218977001
 21
8.4999150052003891
 31
0.0
  0
LINE
  5
9834
  8
0
 10
-31.8567919723762003
 20
8.4987441641729582
 30
0.0
 11
-31.8567919723762003
 21
8.4966419461139697
 31
0.0
  0
LINE
  5
9835
  8
0
 10
-31.8567919723762003
 20
8.4951952535708362
 30
0.0
 11
-31.8567919723762003
 21
8.4925181928139697
 31
0.0
  0
LINE
  5
9836
  8
0
 10
-31.8567919723762003
 20
8.4906156591139688
 30
0.0
 11
-31.8567919723762003
 21
8.4869718434139703
 31
0.0
  0
LINE
  5
9837
  8
0
 10
-31.8567919723762003
 20
8.4842964142139685
 30
0.0
 11
-31.8567919723762003
 21
8.4790281781139694
 31
0.0
  0
ARC
  5
9838
  8
0
 10
-31.9126749873908402
 20
8.4047598700843658
 30
0.0
 40
0.0923872062678873
 50
67.8165032810575354
 51
76.2985954362259662
  0
ARC
  5
9839
  8
0
 10
-31.9156684844769494
 20
8.3920033135408936
 30
0.0
 40
0.1055024860980255
 50
80.7952415263843591
 51
87.8942885791538941
  0
LINE
  5
983A
  8
0
 10
-31.9117919723762
 20
8.4974345576139712
 30
0.0
 11
-31.9117919723175909
 21
8.5026650675167712
 31
0.0
  0
LINE
  5
983B
  8
0
 10
-31.9117995317190193
 20
8.5048183859695552
 30
0.0
 11
-31.9117919723762
 21
8.5062492876139704
 31
0.0
  0
LINE
  5
983C
  8
0
 10
-31.9117919723762
 20
8.5067703211000616
 30
0.0
 11
-31.9117919723002217
 21
8.5076125812773782
 31
0.0
  0
LINE
  5
983D
  8
0
 10
-31.9117919723440302
 20
8.5089663934731075
 30
0.0
 11
-31.9117765797705601
 21
8.5081287512220083
 31
0.0
  0
LINE
  5
983E
  8
0
 10
-31.9117919705462292
 20
8.5094808531788946
 30
0.0
 11
-31.9117919723135088
 21
8.5103156126848152
 31
0.0
  0
LINE
  5
983F
  8
0
 10
-31.9117919723762
 20
8.5108288570118322
 30
0.0
 11
-31.9117769247713383
 21
8.5116619890082301
 31
0.0
  0
LINE
  5
9840
  8
0
 10
-31.9117919723017316
 20
8.5121748162719708
 30
0.0
 11
-31.9117919723617405
 21
8.5130073234354331
 31
0.0
  0
LINE
  5
9841
  8
0
 10
-31.9117919723608914
 20
8.5135194327097032
 30
0.0
 11
-31.9117919723762
 21
8.5143547549003724
 31
0.0
  0
LINE
  5
9842
  8
0
 10
-31.9117919723762
 20
8.5148631443665668
 30
0.0
 11
-31.9117919723762
 21
8.51569463351397
 31
0.0
  0
LINE
  5
9843
  8
0
 10
-31.8987919723761983
 20
8.5152691486938625
 30
0.0
 11
-31.8987919723761983
 21
8.5144091129962192
 31
0.0
  0
LINE
  5
9844
  8
0
 10
-31.8987919723761983
 20
8.5138777613384775
 30
0.0
 11
-31.8987919723761983
 21
8.5130102356744572
 31
0.0
  0
LINE
  5
9845
  8
0
 10
-31.8987919723761983
 20
8.5124734240139688
 30
0.0
 11
-31.8987919723761983
 21
8.5115952446139662
 31
0.0
  0
LINE
  5
9846
  8
0
 10
-31.8987919723761983
 20
8.5110504981139705
 30
0.0
 11
-31.8987919723761983
 21
8.5101564393139686
 31
0.0
  0
LINE
  5
9847
  8
0
 10
-31.8987919755310898
 20
8.5095994982794103
 30
0.0
 11
-31.8987919723761983
 21
8.5086803176139707
 31
0.0
  0
LINE
  5
9848
  8
0
 10
-31.8987919789289407
 20
8.5081033621791491
 30
0.0
 11
-31.8987919723761983
 21
8.5071409068139694
 31
0.0
  0
LINE
  5
9849
  8
0
 10
-31.8987919723534503
 20
8.5065277811819477
 30
0.0
 11
-31.8987919723752107
 21
8.5054813373653051
 31
0.0
  0
LINE
  5
984A
  8
0
 10
-31.8987919723761983
 20
8.5047923407139692
 30
0.0
 11
-31.8987919723761983
 21
8.5033162272686553
 31
0.0
  0
LINE
  5
984B
  8
0
 10
-31.8987919723761983
 20
8.496147242371034
 30
0.0
 11
-31.8987919723218809
 21
8.5012722872451345
 31
0.0
  0
LINE
  5
984C
  8
0
 10
-31.8907919723761992
 20
8.4945180426139704
 30
0.0
 11
-31.8907919723761992
 21
8.499500906113969
 31
0.0
  0
LINE
  5
984D
  8
0
 10
-31.8907919723761992
 20
8.5013954820139706
 30
0.0
 11
-31.8907919723761992
 21
8.5030698087139704
 31
0.0
  0
LINE
  5
984E
  8
0
 10
-31.8907919723761992
 20
8.5039444505139681
 30
0.0
 11
-31.8907919723761992
 21
8.5052225971139688
 31
0.0
  0
LINE
  5
984F
  8
0
 10
-31.8907919723761992
 20
8.5059474803139707
 30
0.0
 11
-31.8907919723761992
 21
8.5070565800052478
 31
0.0
  0
LINE
  5
9850
  8
0
 10
-31.8907919723761992
 20
8.5077073599139705
 30
0.0
 11
-31.8907919723761992
 21
8.5087269928139708
 31
0.0
  0
LINE
  5
9851
  8
0
 10
-31.8907919723761992
 20
8.5093361368139693
 30
0.0
 11
-31.8907919723761992
 21
8.5103030616139694
 31
0.0
  0
LINE
  5
9852
  8
0
 10
-31.8907919723761992
 20
8.5108866091139692
 30
0.0
 11
-31.8907049502925091
 21
8.5118115321346952
 31
0.0
  0
LINE
  5
9853
  8
0
 10
-31.8906502718533105
 20
8.5123735574274182
 30
0.0
 11
-31.8907919723761992
 21
8.5132974573900224
 31
0.0
  0
LINE
  5
9854
  8
0
 10
-31.89066811123649
 20
8.5138422983989859
 30
0.0
 11
-31.8907919723761992
 21
8.5147473368647528
 31
0.0
  0
LINE
  5
9855
  8
0
 10
-31.8777919723762011
 20
8.5134838859139705
 30
0.0
 11
-31.8777919800157292
 21
8.5125061744488857
 31
0.0
  0
LINE
  5
9856
  8
0
 10
-31.877791975252169
 20
8.5118945561627477
 30
0.0
 11
-31.8777919842126884
 21
8.5108811715718122
 31
0.0
  0
LINE
  5
9857
  8
0
 10
-31.8777919769281404
 20
8.5102437093894938
 30
0.0
 11
-31.8777919916610806
 21
8.5091801888346552
 31
0.0
  0
LINE
  5
9858
  8
0
 10
-31.87779197982643
 20
8.5085057265047421
 30
0.0
 11
-31.8777919963018697
 21
8.5073688675112251
 31
0.0
  0
LINE
  5
9859
  8
0
 10
-31.8777919855476313
 20
8.5066388986641623
 30
0.0
 11
-31.8777920166746007
 21
8.5053889567217134
 31
0.0
  0
LINE
  5
985A
  8
0
 10
-31.8777919723762011
 20
8.50457100511397
 30
0.0
 11
-31.8777919723762011
 21
8.5031351976139682
 31
0.0
  0
LINE
  5
985B
  8
0
 10
-31.8777919723762011
 20
8.5021663398139662
 30
0.0
 11
-31.8777919723762011
 21
8.5003976013139688
 31
0.0
  0
LINE
  5
985C
  8
0
 10
-31.8777919723762011
 20
8.4991456566139671
 30
0.0
 11
-31.8777919723762011
 21
8.4967157718139692
 31
0.0
  0
LINE
  5
985D
  8
0
 10
-31.8777919723762011
 20
8.4948706266139684
 30
0.0
 11
-31.8777919723762011
 21
8.4903085179139701
 31
0.0
  0
ARC
  5
985E
  8
0
 10
-32.1164477318920305
 20
7.91127978140719
 30
0.0
 40
0.3022273313280537
 50
144.4893080882254139
 51
159.3597230046050015
  0
ARC
  5
985F
  8
0
 10
-32.1602240995872108
 20
7.9277693665763911
 30
0.0
 40
0.2554483105213247
 50
159.3597230046050015
 51
189.9177893977060023
  0
ARC
  5
9860
  8
0
 10
-32.1433044136935209
 20
7.9307277380750749
 30
0.0
 40
0.2726246818687757
 50
189.9177893977058886
 51
209.5598593644382959
  0
ARC
  5
9861
  8
0
 10
-32.0768146293758107
 20
7.9684376026558894
 30
0.0
 40
0.3490637118555501
 50
209.5598593644382959
 51
230.4685005794169115
  0
ARC
  5
9862
  8
0
 10
-31.9651971376516784
 20
8.1036888815227321
 30
0.0
 40
0.5244244055525782
 50
230.4685005794171104
 51
254.3121604323852125
  0
ARC
  5
9863
  8
0
 10
-31.9039121319004906
 20
8.3212713295205116
 30
0.0
 40
0.7504729705420434
 50
254.2992855417018063
 51
269.3667178776286733
  0
ARC
  5
9864
  8
0
 10
-31.9066656677965099
 20
8.2310398211950417
 30
0.0
 40
0.6602188753681716
 50
269.5191152622488744
 51
289.3469305161185048
  0
ARC
  5
9865
  8
0
 10
-31.8699256344362887
 20
8.1265142239109505
 30
0.0
 40
0.549424340909707
 50
289.3430393686624029
 51
308.4658277523107017
  0
ARC
  5
9866
  8
0
 10
-31.7376504281414711
 20
7.9600177682311024
 30
0.0
 40
0.3367795668044213
 50
308.4658277523108154
 51
335.9942501089490179
  0
ARC
  5
9867
  8
0
 10
-31.6597978716935309
 20
7.9253462148692799
 30
0.0
 40
0.2515555258417865
 50
335.9942501089490179
 51
355.0061947802320788
  0
ARC
  5
9868
  8
0
 10
-31.6827394897037991
 20
7.9273508469739236
 30
0.0
 40
0.2745845594038836
 50
355.0061947802320788
 51
7.9885648095448021
  0
ARC
  5
9869
  8
0
 10
-31.6523096402454698
 20
7.931621290391468
 30
0.0
 40
0.2438565196837903
 50
7.9885648095448021
 51
25.3513647412984895
  0
ARC
  5
986A
  8
0
 10
-31.7768857684422912
 20
7.8725977316685682
 30
0.0
 40
0.3817078606305755
 50
25.3513647412987595
 51
32.5987522886073933
  0
ARC
  5
986B
  8
0
 10
-31.7223957495162203
 20
7.8959106095125806
 30
0.0
 40
0.31470015602775
 50
28.2079855496698109
 51
33.4606233316225783
  0
ARC
  5
986C
  8
0
 10
-31.6991725587603703
 20
7.9083669427371941
 30
0.0
 40
0.2883472277979501
 50
13.5802705444044705
 51
28.2079855496698109
  0
ARC
  5
986D
  8
0
 10
-31.6364385701633317
 20
7.9235210273559353
 30
0.0
 40
0.2238088701652566
 50
355.7759295061979969
 51
13.5802705444030405
  0
ARC
  5
986E
  8
0
 10
-31.4089982571622315
 20
7.9071326070914738
 30
0.0
 40
0.0042404954136255
 50
181.3067927246976012
 51
266.6528633039812917
  0
ARC
  5
986F
  8
0
 10
-31.6162633416136494
 20
7.927071115225198
 30
0.0
 40
0.1735866779560146
 50
354.9725338770443273
 51
14.4051353479630908
  0
ARC
  5
9870
  8
0
 10
-31.7383831364861599
 20
7.8957044138887538
 30
0.0
 40
0.2996704368325378
 50
14.4051353479630908
 51
29.0209996466063203
  0
LINE
  5
9871
  8
0
 10
-31.4433444857332312
 20
7.9118591447804159
 30
0.0
 11
-31.43409777924035
 21
7.8980869685107331
 31
0.0
  0
ARC
  5
9872
  8
0
 10
-31.4348556468108704
 20
7.9435789184567041
 30
0.0
 40
0.0086124081674249
 50
144.5508735793154074
 51
179.6876191486290963
  0
ARC
  5
9873
  8
0
 10
-31.4317736263163496
 20
7.9413846608787413
 30
0.0
 40
0.0123957422323855
 50
122.5929752836984932
 51
144.5508735793162884
  0
ARC
  5
9874
  8
0
 10
-31.4292959033404316
 20
7.9375093067112727
 30
0.0
 40
0.0169954684273591
 50
100.748545339487606
 51
122.5929752836999995
  0
ARC
  5
9875
  8
0
 10
-31.4284442510921984
 20
7.9330229035346154
 30
0.0
 40
0.0215619906287112
 50
80.6118691063143729
 51
100.7485453394859007
  0
ARC
  5
9876
  8
0
 10
-31.4277873980287694
 20
7.9369957386133896
 30
0.0
 40
0.0175352208922986
 50
61.4691682661856191
 51
80.6118691063122981
  0
ARC
  5
9877
  8
0
 10
-31.4257931439168914
 20
7.9406639890888044
 30
0.0
 40
0.0133599231767914
 50
33.8363069272561177
 51
61.469168266184198
  0
ARC
  5
9878
  8
0
 10
-31.42056199394289
 20
7.9441707412134006
 30
0.0
 40
0.0070621266959726
 50
15.9940355242167591
 51
33.8363069272489483
  0
ARC
  5
9879
  8
0
 10
-31.4285477716049684
 20
7.8781386410688627
 30
0.0
 40
0.0207059979832012
 50
88.5180226220042385
 51
105.5475880536768045
  0
ARC
  5
987A
  8
0
 10
-31.4285679884942901
 20
7.8773571958723441
 30
0.0
 40
0.0214877046531072
 50
65.3326624346798752
 51
88.5180226220044233
  0
ARC
  5
987B
  8
0
 10
-31.4246784705021298
 20
7.8858263285438879
 30
0.0
 40
0.0121681253482488
 50
35.211288338373862
 51
65.3326624346780562
  0
ARC
  5
987C
  8
0
 10
-31.4208374083406206
 20
7.8885370333348339
 30
0.0
 40
0.0074668830664442
 50
0.5306174688520504
 51
35.2112883383780968
  0
ARC
  5
987D
  8
0
 10
-32.1163574797141322
 20
7.8820956225683778
 30
0.0
 40
0.7030167816762228
 50
359.4030342371356141
 51
0.5306174688521521
  0
ARC
  5
987E
  8
0
 10
-31.558065034110971
 20
7.8992960261349712
 30
0.0
 40
0.1449316609192111
 50
348.295538634319314
 51
356.1852594675669934
  0
ARC
  5
987F
  8
0
 10
-31.9506160706959506
 20
7.980621315316788
 30
0.0
 40
0.5458183269290048
 50
346.2426304062821032
 51
348.295538634319314
  0
ARC
  5
9880
  8
0
 10
-31.6447317226049591
 20
7.9057301904373762
 30
0.0
 40
0.2308994246815291
 50
342.5493650081733108
 51
346.2426304062821032
  0
ARC
  5
9881
  8
0
 10
-31.4301098699501686
 20
7.8827224195632191
 30
0.0
 40
0.0158736506471258
 50
104.5502049104847941
 51
131.7232094661663098
  0
ARC
  5
9882
  8
0
 10
-31.4350416245715216
 20
7.8882531872591146
 30
0.0
 40
0.0084634148242064
 50
131.7232094661723067
 51
171.8556345584495091
  0
LINE
  5
9883
  8
0
 10
-31.438404045176199
 20
7.9045433294139684
 30
0.0
 11
-31.4384031252761993
 21
7.8962804645139686
 31
0.0
  0
ARC
  5
9884
  8
0
 10
-31.6799960876184592
 20
7.9175948623144201
 30
0.0
 40
0.2382440589024958
 50
338.6655558530279109
 51
353.2160761715844046
  0
ARC
  5
9885
  8
0
 10
-31.7347315574816307
 20
7.938973245997281
 30
0.0
 40
0.2970063508083921
 50
305.3574937551937865
 51
338.6655558530279109
  0
ARC
  5
9886
  8
0
 10
-31.9216931738378911
 20
8.2024675658750859
 30
0.0
 40
0.6200913281725703
 50
291.4308062992370765
 51
305.3574937551936159
  0
ARC
  5
9887
  8
0
 10
-31.8763429947945909
 20
8.0869304457739712
 30
0.0
 40
0.4959725751151878
 50
275.0833137962802084
 51
291.4308062992370765
  0
ARC
  5
9888
  8
0
 10
-31.9117262248609883
 20
8.2411618382558647
 30
0.0
 40
0.6530890471426729
 50
269.9578359274181025
 51
276.9767505169123183
  0
ARC
  5
9889
  8
0
 10
-31.9987709248716214
 20
8.0243959423119957
 30
0.0
 40
0.4201160200079233
 50
225.1717848967321061
 51
253.39993894555829
  0
ARC
  5
988A
  8
0
 10
-32.0655411637100798
 20
7.9572241155547143
 30
0.0
 40
0.3254042514442724
 50
201.8000027379937933
 51
225.1717848967321061
  0
ARC
  5
988B
  8
0
 10
-32.1775993006314991
 20
7.9124040522571732
 30
0.0
 40
0.2047151296300174
 50
173.9544533304853928
 51
201.8000027379941912
  0
ARC
  5
988C
  8
0
 10
-32.1003157394699912
 20
7.9042191030412861
 30
0.0
 40
0.2824309080760434
 50
151.0994652742026858
 51
173.9544533304855065
  0
ARC
  5
988D
  8
0
 10
-32.0965735703449013
 20
7.892960459085276
 30
0.0
 40
0.3202836779182809
 50
145.6345774259434052
 51
149.3121355276140036
  0
ARC
  5
988E
  8
0
 10
-32.1129191131410465
 20
7.9026610501584811
 30
0.0
 40
0.3012763573162073
 50
149.3121355276140036
 51
159.2898811724352868
  0
ARC
  5
988F
  8
0
 10
-32.1459897399250423
 20
7.915164073563278
 30
0.0
 40
0.2659211320991728
 50
159.2898811724355994
 51
173.7346614801691089
  0
ARC
  5
9890
  8
0
 10
-32.1560287691819013
 20
7.9162662459184707
 30
0.0
 40
0.2558217810150423
 50
173.7346614801695921
 51
184.055904590115091
  0
ARC
  5
9891
  8
0
 10
-32.1621652699609299
 20
7.9158311227911984
 30
0.0
 40
0.2496698728600891
 50
184.0559045901154036
 51
192.4088884816457039
  0
ARC
  5
9892
  8
0
 10
-32.1193974350188469
 20
7.9252411968229337
 30
0.0
 40
0.2934607075051971
 50
192.408888481645505
 51
197.634571554596107
  0
ARC
  5
9893
  8
0
 10
-32.1087811821307199
 20
7.88275467999794
 30
0.0
 40
0.3075071626282467
 50
168.9413781818591076
 51
174.8869858453226129
  0
LINE
  5
9894
  8
0
 10
-32.4117856344217188
 20
7.9102371840056751
 30
0.0
 11
-32.4118549643761966
 21
7.8837722390139771
 31
0.0
  0
ARC
  5
9895
  8
0
 10
-31.9061543431989989
 20
8.1675956583938127
 30
0.0
 40
0.3586207021207475
 50
90.9670346901834961
 51
105.2751562523212954
  0
ARC
  5
9896
  8
0
 10
-31.8739094120756583
 20
10.0421954014742205
 30
0.0
 40
1.582493369396758
 50
266.9592388149457065
 51
268.6132675522209183
  0
ARC
  5
9897
  8
0
 10
-31.8377155399100502
 20
9.8319451589188862
 30
0.0
 40
1.4246744931615829
 50
260.8643476935665717
 51
267.0071368428114056
  0
ARC
  5
9898
  8
0
 10
-31.9128644927815799
 20
8.2337991048855592
 30
0.0
 40
0.6457264718372592
 50
251.4029348397307899
 51
270.0583545269739716
  0
ARC
  5
9899
  8
0
 10
-31.9127174608726598
 20
8.3732950345593622
 30
0.0
 40
0.5518824709688187
 50
270.0530126506686202
 51
288.9555941408215745
  0
ARC
  5
989A
  8
0
 10
-32.3233584522583683
 20
8.0711347824947151
 30
0.0
 40
0.0369374966887042
 50
185.2801309260092069
 51
204.4606299395942131
  0
ARC
  5
989B
  8
0
 10
-32.0225811761521229
 20
8.6992432784989084
 30
0.0
 40
0.3854383221301848
 50
184.4549789780641902
 51
201.1909038294180903
  0
ARC
  5
989C
  8
0
 10
-29.9807405849375392
 20
9.499844988569329
 30
0.0
 40
2.5786244930029261
 50
201.3772922662253109
 51
202.8795180084759124
  0
LINE
  5
989D
  8
0
 10
-32.3564903777834374
 20
8.4972896545816106
 30
0.0
 11
-32.3563470381834506
 21
8.0879985554816098
 31
0.0
  0
ARC
  5
989E
  8
0
 10
-32.8186173711919906
 20
8.0870986688226978
 30
0.0
 40
0.4622712088978011
 50
357.6506360330085954
 51
0.1115356941285792
  0
ARC
  5
989F
  8
0
 10
-32.410746020478463
 20
8.0703648768175551
 30
0.0
 40
0.0540567327608614
 50
350.6440497918476922
 51
357.6506360330076859
  0
ARC
  5
98A0
  8
0
 10
-32.3600880554809009
 20
8.0620185139448992
 30
0.0
 40
0.0027158018100499
 50
321.0135060776491969
 51
350.6440497918612778
  0
ARC
  5
98A1
  8
0
 10
-32.3566143304583917
 20
8.0620730660136957
 30
0.0
 40
0.0022284139429467
 50
193.6364054362429101
 51
232.2995967647181033
  0
ARC
  5
98A2
  8
0
 10
-32.2173414382052101
 20
8.0958604116744297
 30
0.0
 40
0.1455410904351576
 50
191.1421091489966102
 51
193.6364054362429101
  0
ARC
  5
98A3
  8
0
 10
-31.8734172727128708
 20
8.1366566752421203
 30
0.0
 40
0.4915774201085306
 50
185.4470888330538969
 51
188.0596458070696997
  0
ARC
  5
98A4
  8
0
 10
-28.4563206850777988
 20
8.4325660297802205
 30
0.0
 40
3.9214462387974338
 50
181.6072885105938042
 51
185.0116823232559113
  0
ARC
  5
98A5
  8
0
 10
-11.2351875736924303
 20
8.4861129125048365
 30
0.0
 40
21.1416690032540586
 50
179.8356101893267862
 51
180.4432087495443966
  0
ARC
  5
98A6
  8
0
 10
-31.8504992557568087
 20
8.6963452435014226
 30
0.0
 40
0.433832426863619
 50
341.5348103828060857
 51
4.7613772823848519
  0
ARC
  5
98A7
  8
0
 10
-30.8996704178948001
 20
8.3788445895772306
 30
0.0
 40
0.5686056730469405
 50
161.5348103828063131
 51
164.4366129392834068
  0
ARC
  5
98A8
  8
0
 10
-31.4363943052147015
 20
8.5293805468520532
 30
0.0
 40
0.0112174088355755
 50
169.6081708008798046
 51
179.7253560608066039
  0
LINE
  5
98A9
  8
0
 10
-31.4476115851788904
 20
8.5294343166336741
 30
0.0
 11
-31.4476116093834399
 21
8.1217227048816092
 31
0.0
  0
ARC
  5
98AA
  8
0
 10
-32.112394547478182
 20
8.1215206291017452
 30
0.0
 40
0.6647829688074772
 50
359.1402052260684172
 51
0.0174163449570424
  0
ARC
  5
98AB
  8
0
 10
-31.5922019128414995
 20
8.1113572539463572
 30
0.0
 40
0.1445156072478527
 50
353.1396311903550895
 51
0.0744766231553755
  0
ARC
  5
98AC
  8
0
 10
-31.4790089101692097
 20
8.0990909772125494
 30
0.0
 40
0.0306972040101156
 50
342.4184476219979274
 51
350.6331437880173212
  0
ARC
  5
98AD
  8
0
 10
-31.9757784054442205
 20
7.111753451551837
 30
0.0
 40
1.5040467284319301
 50
105.6676535195757936
 51
117.7847659210166995
  0
ARC
  5
98AE
  8
0
 10
-32.1529364878972217
 20
7.4479803151295476
 30
0.0
 40
1.1240026652369779
 50
117.784765921016799
 51
141.148315563754494
  0
ARC
  5
98AF
  8
0
 10
-32.4944564143546373
 20
7.72307698017456
 30
0.0
 40
0.6854664235346846
 50
141.1483155637544087
 51
186.7734506888560873
  0
ARC
  5
98B0
  8
0
 10
-32.5393629706462306
 20
7.7177433007204481
 30
0.0
 40
0.6402442283813196
 50
186.7734506888560873
 51
214.9468428598771936
  0
ARC
  5
98B1
  8
0
 10
-32.1713274682724304
 20
7.9749360024552924
 30
0.0
 40
1.0892411290757571
 50
214.9468428598771084
 51
245.3471204835630033
  0
ARC
  5
98B2
  8
0
 10
-31.9111706384912104
 20
8.5417850225874954
 30
0.0
 40
1.7129392833993451
 50
245.3471204835630033
 51
262.0738787543081116
  0
ARC
  5
98B3
  8
0
 10
-31.794285917529681
 20
9.6956340089940305
 30
0.0
 40
2.872210205895311
 50
262.9385357050621792
 51
267.6470140171743992
  0
ARC
  5
98B4
  8
0
 10
-31.9296151849450709
 20
8.590132116094189
 30
0.0
 40
1.764372505366699
 50
270.5653234801853841
 51
293.3227811163699812
  0
ARC
  5
98B5
  8
0
 10
-31.6937906669977103
 20
8.0282258406982976
 30
0.0
 40
1.1550298122334339
 50
293.6159312604681872
 51
322.0339422686138846
  0
ARC
  5
98B6
  8
0
 10
-31.2995174930027211
 20
7.7205618444038757
 30
0.0
 40
0.6549213536487598
 50
322.0339422686138846
 51
352.9836572716831142
  0
ARC
  5
98B7
  8
0
 10
-31.3191709359107406
 20
7.7229806743132574
 30
0.0
 40
0.6747230847920099
 50
352.9836572716831142
 51
23.2471512089780497
  0
ARC
  5
98B8
  8
0
 10
-31.4367172858014996
 20
7.6724857000343301
 30
0.0
 40
0.8026562188897503
 50
23.2471512089780497
 51
51.9116352333485409
  0
ARC
  5
98B9
  8
0
 10
-31.8696194448151715
 20
7.1201541527131411
 30
0.0
 40
1.5044214342181501
 50
51.9116352333485409
 51
67.2066138104069921
  0
ARC
  5
98BA
  8
0
 10
-31.7351688096596192
 20
7.4401029537893262
 30
0.0
 40
1.157370705067756
 50
67.2066138104069637
 51
75.1733094458470106
  0
ARC
  5
98BB
  8
0
 10
-31.8176035176500598
 20
7.5988082720613104
 30
0.0
 40
0.9485324612749378
 50
57.4715659343032286
 51
67.0378913591751342
  0
ARC
  5
98BC
  8
0
 10
-186.3682092507958998
 20
-118.4886208747088006
 30
0.0
 40
200.3600665104110021
 50
39.1693500016663165
 51
39.2936909709668001
  0
ARC
  5
98BD
  8
0
 10
-31.4755611989186015
 20
7.9258313479717852
 30
0.0
 40
0.4633781907930491
 50
1.179732358686209
 51
17.0549023154899295
  0
ARC
  5
98BE
  8
0
 10
-31.4601946528938186
 20
7.9261477931631008
 30
0.0
 40
0.4480083868160726
 50
342.6541940238647044
 51
1.179732358686107
  0
ARC
  5
98BF
  8
0
 10
-65.5160644314831444
 20
35.6675718250670712
 30
0.0
 40
44.3410334493850229
 50
320.4875539562885933
 51
321.0494050877467771
  0
ARC
  5
98C0
  8
0
 10
-31.8590348288204517
 20
8.3355839204232645
 30
0.0
 40
1.0383585296274609
 50
282.3353603614377789
 51
302.0799482190989238
  0
LINE
  5
98C1
  8
0
 10
-31.6372068342834503
 20
7.321197023381611
 30
0.0
 11
-32.1872068342834368
 21
7.321197023381611
 31
0.0
  0
ARC
  5
98C2
  8
0
 10
-31.9580273814539417
 20
8.3535912425279903
 30
0.0
 40
1.0575259076382451
 50
238.1007272736378866
 51
257.4839641579898739
  0
ARC
  5
98C3
  8
0
 10
12.82463797021083
 20
44.7576178136002696
 30
0.0
 40
58.7135276611375474
 50
219.0193630934944053
 51
219.4436778624705937
  0
ARC
  5
98C4
  8
0
 10
-32.335641436477971
 20
7.9315965981088299
 30
0.0
 40
0.4769223820531048
 50
179.782554751755498
 51
196.9470630017005135
  0
ARC
  5
98C5
  8
0
 10
-32.1399110083847219
 20
7.8907016854977199
 30
0.0
 40
0.6740036278722554
 50
165.3000776872943902
 51
176.3673040711283022
  0
LINE
  5
98C6
  8
0
 10
-32.791853214783437
 20
8.0617345767816104
 30
0.0
 11
-32.5168532147834384
 21
8.3985394163816114
 31
0.0
  0
ARC
  5
98C7
  8
0
 10
-32.01665979472115
 20
7.6175330966965671
 30
0.0
 40
0.9274504455018548
 50
112.8531409843192961
 51
122.6374223387635993
  0
ARC
  5
98C8
  8
0
 10
-32.1992937651021904
 20
7.8643278823078653
 30
0.0
 40
0.6147481865706049
 50
175.529034058455693
 51
195.4408182015679074
  0
LINE
  5
98C9
  8
0
 10
-32.791853214783437
 20
7.7006555526816101
 30
0.0
 11
-32.5168532147834384
 21
7.3638507130816091
 31
0.0
  0
ARC
  5
98CA
  8
0
 10
-31.9758436236709116
 20
8.2180266576964893
 30
0.0
 40
1.011092439905706
 50
237.6510488262493936
 51
257.9336425755815867
  0
LINE
  5
98CB
  8
0
 10
-32.1872068342834368
 20
7.2292731417816087
 30
0.0
 11
-31.6372068342834503
 21
7.2292731417816087
 31
0.0
  0
ARC
  5
98CC
  8
0
 10
-31.8662798779927208
 20
8.2614067117971413
 30
0.0
 40
1.057248393570422
 50
282.5134673866767798
 51
301.9018412236562199
  0
LINE
  5
98CD
  8
0
 10
-31.3075604538834398
 20
7.3638507130816091
 30
0.0
 11
-31.0325604538834483
 21
7.7006555526816101
 31
0.0
  0
ARC
  5
98CE
  8
0
 10
-31.4770921975536595
 20
7.8368509012336691
 30
0.0
 40
0.4649275686574174
 50
342.9660169691928786
 51
0.7720265048346246
  0
LINE
  5
98CF
  8
0
 10
-31.0122068342834503
 20
7.84311533375541
 30
0.0
 11
-31.0122068342834503
 21
7.9218548880560711
 31
0.0
  0
LINE
  5
98D0
  8
0
 10
-32.791853214783437
 20
7.7925794342816088
 30
0.0
 11
-32.791853214783437
 21
7.7006555526816083
 31
0.0
  0
LINE
  5
98D1
  8
0
 10
-32.5168532147834384
 20
7.4557745945816079
 30
0.0
 11
-32.5168532147834384
 21
7.3638507130816091
 31
0.0
  0
LINE
  5
98D2
  8
0
 10
-32.1872068342834368
 20
7.321197023381611
 30
0.0
 11
-32.1872068342834368
 21
7.2292731417816087
 31
0.0
  0
LINE
  5
98D3
  8
0
 10
-31.6372068342834503
 20
7.321197023381611
 30
0.0
 11
-31.6372068342834503
 21
7.2292731417816087
 31
0.0
  0
LINE
  5
98D4
  8
0
 10
-31.3075604538834504
 20
7.4557745945816096
 30
0.0
 11
-31.3075604538834398
 21
7.36385071308161
 31
0.0
  0
LINE
  5
98D5
  8
0
 10
-31.0325604538834483
 20
7.7925794342816088
 30
0.0
 11
-31.0325604538834483
 21
7.7006555526816101
 31
0.0
  0
ARC
  5
98D6
  8
0
 10
-32.3639603928369013
 20
7.8352281269069026
 30
0.0
 40
0.4592177701968499
 50
167.6551592273627875
 51
192.7548435868523882
  0
ARC
  5
98D7
  8
0
 10
-32.2864295002122503
 20
7.8527784667168126
 30
0.0
 40
0.5387102461843208
 50
192.754843586852104
 51
231.6076697773131059
  0
ARC
  5
98D8
  8
0
 10
-32.0110065755281994
 20
8.1501544772550787
 30
0.0
 40
0.9433516989534044
 50
229.713151261133703
 51
253.0894380836490996
  0
ARC
  5
98D9
  8
0
 10
-31.9152850689786085
 20
8.4308083798149749
 30
0.0
 40
1.2397533550771409
 50
252.629760193530899
 51
270.142262198268611
  0
ARC
  5
98DA
  8
0
 10
-31.9093221510221312
 20
8.4328238117072232
 30
0.0
 40
1.241768316054161
 50
269.8668992253819852
 51
286.9850115298178252
  0
ARC
  5
98DB
  8
0
 10
-31.8142980629919414
 20
8.1508894589869954
 30
0.0
 40
0.9444114515179585
 50
286.4681015164468931
 51
310.5811083322341801
  0
ARC
  5
98DC
  8
0
 10
-31.6331198053193283
 20
7.9185480052852126
 30
0.0
 40
0.6502316496173401
 50
311.7744019178119856
 51
338.8333626030504888
  0
ARC
  5
98DD
  8
0
 10
-31.4598760710977992
 20
7.8345554372107626
 30
0.0
 40
0.4586190076245319
 50
340.8040162980963146
 51
12.5787871791241805
  0
ARC
  5
98DE
  8
0
 10
-31.9114689016623707
 20
8.379834075488624
 30
0.0
 40
0.5584217632454648
 50
248.4559239477530923
 51
269.9242858358311992
  0
ARC
  5
98DF
  8
0
 10
-31.9189230375172102
 20
3.9715821233517672
 30
0.0
 40
6.684020574501119
 50
89.9424283393338868
 51
111.6044529826901055
  0
ARC
  5
98E0
  8
0
 10
-32.6246100354537987
 20
5.7535393860490203
 30
0.0
 40
4.767417896548217
 50
111.604452982690006
 51
140.2380833352069942
  0
ARC
  5
98E1
  8
0
 10
-33.7537034388965722
 20
6.6929937979777723
 30
0.0
 40
3.2985998323243368
 50
140.2380833352069942
 51
171.9333792726637
  0
ARC
  5
98E2
  8
0
 10
-34.1788755586114092
 20
6.8201313679885942
 30
0.0
 40
2.8605605576323159
 50
173.2598069106134062
 51
196.8710965334313983
  0
ARC
  5
98E3
  8
0
 10
-33.8249182182718684
 20
7.0061934446733733
 30
0.0
 40
3.2541544407460261
 50
198.1975241713809908
 51
217.0303295047982033
  0
ARC
  5
98E4
  8
0
 10
-33.1002502455428171
 20
7.5528715997781477
 30
0.0
 40
4.1618992705126372
 50
217.0303295047982033
 51
235.353402468005612
  0
ARC
  5
98E5
  8
0
 10
-32.4249630075867969
 20
8.5300549615284496
 30
0.0
 40
5.3497124613081768
 50
235.353402468005612
 51
254.5899637867977958
  0
ARC
  5
98E6
  8
0
 10
-31.9130210823782008
 20
10.2079835437000099
 30
0.0
 40
7.1062568861634698
 50
259.4004379647195719
 51
270.0065650567034936
  0
ARC
  5
98E7
  8
0
 10
-32.0253422316360812
 20
9.6077754164648077
 30
0.0
 40
6.4956294739309381
 50
253.7177717107014985
 51
259.4004379647195719
  0
ARC
  5
98E8
  8
0
 10
-31.9198530599636108
 20
9.5982276628933256
 30
0.0
 40
7.0253800107812552
 50
251.3246881938540014
 51
270.0623591245594071
  0
ARC
  5
98E9
  8
0
 10
-32.4230742938961427
 20
8.1094124592946564
 30
0.0
 40
5.4538195376377221
 50
231.9760434996057086
 51
251.3246881938536035
  0
ARC
  5
98EA
  8
0
 10
-33.5281590810421903
 20
6.6961868055250759
 30
0.0
 40
3.6598242379632508
 50
196.1846827394423087
 51
231.9760434996057086
  0
ARC
  5
98EB
  8
0
 10
-34.3512181617739998
 20
6.3457057090004252
 30
0.0
 40
2.7737646834206822
 50
174.4124096066854008
 51
193.9702682813008039
  0
ARC
  5
98EC
  8
0
 10
-34.3055204008091934
 20
6.3385529809513432
 30
0.0
 40
2.8199430174706732
 50
164.9145486093281932
 51
174.3581751542241136
  0
ARC
  5
98ED
  8
0
 10
-31.9098371642890299
 20
10.3970749637332407
 30
0.0
 40
7.0390408931655211
 50
255.6226341930347985
 51
269.9806790195549979
  0
ARC
  5
98EE
  8
0
 10
-32.2126395832183476
 20
9.2084801516717221
 30
0.0
 40
5.812483543851231
 50
235.7384212838954909
 51
255.6047170007595923
  0
ARC
  5
98EF
  8
0
 10
-33.3825129090366701
 20
7.4910371997384892
 30
0.0
 40
3.7344522900905108
 50
211.4464474959563063
 51
235.7384212838954909
  0
ARC
  5
98F0
  8
0
 10
-34.2441442868098065
 20
6.9641359421314357
 30
0.0
 40
2.7244851785313631
 50
187.2260413244198958
 51
211.4464474959563063
  0
ARC
  5
98F1
  8
0
 10
-34.3624085067722831
 20
6.9491410838607042
 30
0.0
 40
2.605274140880089
 50
165.9492851087341023
 51
187.2260413244198958
  0
ARC
  5
98F2
  8
0
 10
-33.686001187899592
 20
6.7798577221035421
 30
0.0
 40
3.3025428965205159
 50
145.0738057386039941
 51
165.9492851087341023
  0
ARC
  5
98F3
  8
0
 10
-34.4063291257769919
 20
6.5140206986149103
 30
0.0
 40
2.6058535396156759
 50
182.2409008572359141
 51
197.623855839461811
  0
ARC
  5
98F4
  8
0
 10
-34.0624912540501228
 20
6.6232500845071023
 30
0.0
 40
2.9666242989297351
 50
197.623855839461811
 51
218.7080953699579879
  0
ARC
  5
98F5
  8
0
 10
-33.0762314582716783
 20
7.4136219916441224
 30
0.0
 40
4.2305056764174909
 50
218.7080953699579879
 51
238.4252943911029092
  0
ARC
  5
98F6
  8
0
 10
-32.2534376289060631
 20
8.7523782037293465
 30
0.0
 40
5.8018929237371717
 50
238.4252943911029092
 51
254.484178938665508
  0
ARC
  5
98F7
  8
0
 10
-31.9139407115567693
 20
9.9752531882134647
 30
0.0
 40
7.0710191525129797
 50
254.484178938665508
 51
270.0140494388159027
  0
ARC
  5
98F8
  8
0
 10
-31.9054906310496804
 20
3.9715821233517672
 30
0.0
 40
6.684020574501119
 50
68.3955470173097382
 51
90.0575716606663121
  0
ARC
  5
98F9
  8
0
 10
-31.1998036331130884
 20
5.7535393860490203
 30
0.0
 40
4.767417896548217
 50
39.7619166647929774
 51
68.3955470173101361
  0
ARC
  5
98FA
  8
0
 10
-30.0707102296703184
 20
6.6929937979777723
 30
0.0
 40
3.2985998323243368
 50
8.0666207273362591
 51
39.7619166647929774
  0
ARC
  5
98FB
  8
0
 10
-29.6455381099554813
 20
6.8201313679885942
 30
0.0
 40
2.8605605576323159
 50
343.1289034665686017
 51
6.7401930893865618
  0
ARC
  5
98FC
  8
0
 10
-29.9994954502950115
 20
7.0061934446733733
 30
0.0
 40
3.2541544407460261
 50
322.9696704952019104
 51
341.8024758286190945
  0
ARC
  5
98FD
  8
0
 10
-30.7241634230240699
 20
7.5528715997781477
 30
0.0
 40
4.1618992705126372
 50
304.6465975319944732
 51
322.9696704952019104
  0
ARC
  5
98FE
  8
0
 10
-31.3994506609800901
 20
8.5300549615284496
 30
0.0
 40
5.3497124613081768
 50
285.4100362132019768
 51
304.6465975319944732
  0
ARC
  5
98FF
  8
0
 10
-31.9113925861886898
 20
10.2079835437000099
 30
0.0
 40
7.1062568861634698
 50
269.9934349432965064
 51
280.5995620352804281
  0
ARC
  5
9900
  8
0
 10
-31.7990714369308094
 20
9.6077754164648077
 30
0.0
 40
6.4956294739309381
 50
280.5995620352805986
 51
286.2822282892985868
  0
ARC
  5
9901
  8
0
 10
-31.9045606086032798
 20
9.5982276628933256
 30
0.0
 40
7.0253800107812552
 50
269.9376408754405929
 51
288.6753118061461123
  0
ARC
  5
9902
  8
0
 10
-31.4013393746707514
 20
8.1094124592946564
 30
0.0
 40
5.4538195376377221
 50
288.6753118061461123
 51
308.0239565003943198
  0
ARC
  5
9903
  8
0
 10
-30.2962545875247002
 20
6.6961868055250759
 30
0.0
 40
3.6598242379632508
 50
308.0239565003946041
 51
343.815317260557606
  0
ARC
  5
9904
  8
0
 10
-29.4731955067928908
 20
6.3457057090004252
 30
0.0
 40
2.7737646834206822
 50
346.0297317186992245
 51
5.5875903933145148
  0
ARC
  5
9905
  8
0
 10
-29.5188932677577007
 20
6.3385529809513432
 30
0.0
 40
2.8199430174706732
 50
5.6418248457758811
 51
15.0854513906717091
  0
ARC
  5
9906
  8
0
 10
-31.9145764723408405
 20
10.3970747968194601
 30
0.0
 40
7.0390407235490722
 50
270.0192556327182274
 51
284.3773658925059067
  0
ARC
  5
9907
  8
0
 10
-31.6117740853485394
 20
9.2084801516717221
 30
0.0
 40
5.812483543851231
 50
284.395282999240294
 51
304.2615787161043954
  0
ARC
  5
9908
  8
0
 10
-30.4419007595302205
 20
7.4910371997384892
 30
0.0
 40
3.7344522900905108
 50
304.2615787161043954
 51
328.5535525040438074
  0
ARC
  5
9909
  8
0
 10
-29.5802693817570805
 20
6.9641359421314357
 30
0.0
 40
2.7244851785313631
 50
328.5535525040438074
 51
352.7739586755801042
  0
ARC
  5
990A
  8
0
 10
-29.462005161794611
 20
6.9491410838607042
 30
0.0
 40
2.605274140880089
 50
352.7739586755801042
 51
14.0507148912657307
  0
ARC
  5
990B
  8
0
 10
-30.1384124806672986
 20
6.7798577221035421
 30
0.0
 40
3.3025428965205159
 50
14.0507148912658302
 51
34.9261942613959775
  0
ARC
  5
990C
  8
0
 10
-29.4180845427898987
 20
6.5140206986149103
 30
0.0
 40
2.6058535396156759
 50
342.3761441605381037
 51
357.7590991427641143
  0
ARC
  5
990D
  8
0
 10
-29.7619224145167713
 20
6.6232500845071023
 30
0.0
 40
2.9666242989297351
 50
321.2919046300419268
 51
342.3761441605381037
  0
ARC
  5
990E
  8
0
 10
-30.7481822102952087
 20
7.4136219916441224
 30
0.0
 40
4.2305056764174909
 50
301.5747056088973181
 51
321.2919046300419268
  0
ARC
  5
990F
  8
0
 10
-31.570976039660831
 20
8.7523782037293465
 30
0.0
 40
5.8018929237371717
 50
285.5158210613344067
 51
301.5747056088973181
  0
ARC
  5
9910
  8
0
 10
-31.9104729570101213
 20
9.9752531882134647
 30
0.0
 40
7.0710191525129797
 50
269.985950561184211
 51
285.5158210613345204
  0
ARC
  5
9911
  8
0
 10
-31.9165093483273097
 20
4.1545209784751878
 30
0.0
 40
6.4109504744571719
 50
89.9615476807228305
 51
105.2202715713699064
  0
ARC
  5
9912
  8
0
 10
-32.2199616977807892
 20
5.2698514020103167
 30
0.0
 40
5.2550762243538651
 50
105.2202715713699064
 51
124.6020126362281957
  0
ARC
  5
9913
  8
0
 10
-33.3344870288136832
 20
6.8853264336072151
 30
0.0
 40
3.2924437342460018
 50
124.6020126362281957
 51
161.888497200231086
  0
ARC
  5
9914
  8
0
 10
-34.2001668849251104
 20
7.2866327365212529
 30
0.0
 40
2.34759052765469
 50
164.6306391260229987
 51
199.7088725544703038
  0
ARC
  5
9915
  8
0
 10
-31.8804130383436011
 20
10.1962341287130904
 30
0.0
 40
6.1994828493562411
 50
240.7343768139253086
 51
269.7061596343360748
  0
ARC
  5
9916
  8
0
 10
-33.2104105141885171
 20
7.793508845039935
 30
0.0
 40
3.4532832593429679
 50
202.08873751021369
 51
240.4962198559447017
  0
ARC
  5
9917
  8
0
 10
-31.9079043202395809
 20
4.1545209784751878
 30
0.0
 40
6.4109504744571719
 50
74.7797284286298236
 51
90.0384523192773969
  0
ARC
  5
9918
  8
0
 10
-31.6044519707861014
 20
5.2698514020103167
 30
0.0
 40
5.2550762243538651
 50
55.3979873637717404
 51
74.7797284286298236
  0
ARC
  5
9919
  8
0
 10
-30.4899266397532109
 20
6.8853264336072151
 30
0.0
 40
3.2924437342460018
 50
18.1115027997688713
 51
55.3979873637717404
  0
ARC
  5
991A
  8
0
 10
-29.6242467836417802
 20
7.2866327365212529
 30
0.0
 40
2.34759052765469
 50
340.2911274455295825
 51
15.3693608739770209
  0
ARC
  5
991B
  8
0
 10
-31.9440006302232895
 20
10.1962341287130602
 30
0.0
 40
6.1994828493562091
 50
270.2938403656636979
 51
299.2656231860748903
  0
ARC
  5
991C
  8
0
 10
-30.6140031543783699
 20
7.793508845039935
 30
0.0
 40
3.4532832593429679
 50
299.5037801440549856
 51
337.9112624897862815
  0
ENDSEC
  0
EOF
