  0
SECTION
  2
HEADER
  9
$ACADVER
  1
AC1009
  9
$INSBASE
 10
4735.0614364921511878
 20
234.5263585898129861
 30
0.0
  9
$EXTMIN
 10
4728.8827345990057438
 20
231.7191907383567866
 30
-0.0015258207003583
  9
$EXTMAX
 10
4741.1979051345242624
 20
234.546012843760991
 30
0.0000000349246037
  9
$LIMMIN
 10
0.0
 20
0.0
  9
$LIMMAX
 10
11.6929133858000007
 20
8.2677165353999982
  9
$ORTHOMODE
 70
     0
  9
$REGENMODE
 70
     1
  9
$FILLMODE
 70
     1
  9
$QTEXTMODE
 70
     0
  9
$MIRRTEXT
 70
     0
  9
$DRAGMODE
 70
     2
  9
$LTSCALE
 40
0.6431102362
  9
$OSMODE
 70
   575
  9
$ATTMODE
 70
     1
  9
$TEXTSIZE
 40
0.2
  9
$TRACEWID
 40
0.05
  9
$TEXTSTYLE
  7
STANDARD
  9
$CLAYER
  8
0
  9
$CELTYPE
  6
BYLAYER
  9
$CECOLOR
 62
   256
  9
$DIMSCALE
 40
1.0
  9
$DIMASZ
 40
0.1875
  9
$DIMEXO
 40
0.0625
  9
$DIMDLI
 40
0.4443307087
  9
$DIMRND
 40
0.0
  9
$DIMDLE
 40
0.0
  9
$DIMEXE
 40
0.125
  9
$DIMTP
 40
0.01
  9
$DIMTM
 40
0.01
  9
$DIMTXT
 40
2.0
  9
$DIMCEN
 40
0.1052362205
  9
$DIMTSZ
 40
0.0
  9
$DIMTOL
 70
     1
  9
$DIMLIM
 70
     0
  9
$DIMTIH
 70
     1
  9
$DIMTOH
 70
     1
  9
$DIMSE1
 70
     0
  9
$DIMSE2
 70
     0
  9
$DIMTAD
 70
     0
  9
$DIMZIN
 70
     0
  9
$DIMBLK
  1

  9
$DIMASO
 70
     1
  9
$DIMSHO
 70
     1
  9
$DIMPOST
  1
\X
  9
$DIMAPOST
  1

  9
$DIMALT
 70
     1
  9
$DIMALTD
 70
     2
  9
$DIMALTF
 40
25.3999999999999986
  9
$DIMLFAC
 40
1.0
  9
$DIMTOFL
 70
     0
  9
$DIMTVP
 40
0.0
  9
$DIMTIX
 70
     0
  9
$DIMSOXD
 70
     0
  9
$DIMSAH
 70
     0
  9
$DIMBLK1
  1

  9
$DIMBLK2
  1

  9
$DIMSTYLE
  2
STANDARD
  9
$DIMCLRD
 70
     0
  9
$DIMCLRE
 70
     0
  9
$DIMCLRT
 70
     0
  9
$DIMTFAC
 40
1.0
  9
$DIMGAP
 40
0.09
  9
$LUNITS
 70
     2
  9
$LUPREC
 70
     4
  9
$SKETCHINC
 40
0.1
  9
$FILLETRAD
 40
0.0
  9
$AUNITS
 70
     0
  9
$AUPREC
 70
     0
  9
$MENU
  1
.
  9
$ELEVATION
 40
0.0
  9
$PELEVATION
 40
0.0
  9
$THICKNESS
 40
0.0
  9
$LIMCHECK
 70
     0
  9
$BLIPMODE
 70
     0
  9
$CHAMFERA
 40
0.0
  9
$CHAMFERB
 40
0.0
  9
$SKPOLY
 70
     0
  9
$TDCREATE
 40
2458060.468368056230247
  9
$TDUPDATE
 40
2459580.6662499997764826
  9
$TDINDWG
 40
0.4290001157
  9
$TDUSRTIMER
 40
0.4290001157
  9
$USRTIMER
 70
     1
  9
$ANGBASE
 50
0.0
  9
$ANGDIR
 70
     0
  9
$PDMODE
 70
     0
  9
$PDSIZE
 40
0.3125
  9
$PLINEWID
 40
0.0
  9
$COORDS
 70
     1
  9
$SPLFRAME
 70
     0
  9
$SPLINETYPE
 70
     6
  9
$SPLINESEGS
 70
     8
  9
$ATTDIA
 70
     1
  9
$ATTREQ
 70
     1
  9
$HANDLING
 70
     1
  9
$HANDSEED
  5
B90C
  9
$SURFTAB1
 70
     6
  9
$SURFTAB2
 70
     6
  9
$SURFTYPE
 70
     6
  9
$SURFU
 70
     6
  9
$SURFV
 70
     6
  9
$UCSNAME
  2

  9
$UCSORG
 10
0.0
 20
0.0
 30
0.0
  9
$UCSXDIR
 10
1.0
 20
0.0
 30
0.0
  9
$UCSYDIR
 10
0.0
 20
1.0
 30
0.0
  9
$PUCSNAME
  2

  9
$PUCSORG
 10
0.0
 20
0.0
 30
0.0
  9
$PUCSXDIR
 10
1.0
 20
0.0
 30
0.0
  9
$PUCSYDIR
 10
0.0
 20
1.0
 30
0.0
  9
$USERI1
 70
     0
  9
$USERI2
 70
     0
  9
$USERI3
 70
     0
  9
$USERI4
 70
     0
  9
$USERI5
 70
     0
  9
$USERR1
 40
0.0
  9
$USERR2
 40
0.0
  9
$USERR3
 40
0.0
  9
$USERR4
 40
0.0
  9
$USERR5
 40
0.0
  9
$WORLDVIEW
 70
     1
  9
$SHADEDGE
 70
     3
  9
$SHADEDIF
 70
    70
  9
$TILEMODE
 70
     1
  9
$MAXACTVP
 70
    64
  9
$PLIMCHECK
 70
     0
  9
$PEXTMIN
 10
1.0000000000000000E+20
 20
1.0000000000000000E+20
 30
1.0000000000000000E+20
  9
$PEXTMAX
 10
-1.0000000000000000E+20
 20
-1.0000000000000000E+20
 30
-1.0000000000000000E+20
  9
$PLIMMIN
 10
0.0
 20
0.0
  9
$PLIMMAX
 10
12.0
 20
9.0
  9
$UNITMODE
 70
     0
  9
$VISRETAIN
 70
     1
  9
$PLINEGEN
 70
     0
  9
$PSLTSCALE
 70
     1
  0
ENDSEC
  0
SECTION
  2
TABLES
  0
TABLE
  2
VPORT
 70
     1
  0
VPORT
  2
*ACTIVE
 70
     0
 10
0.0
 20
0.0
 11
1.0
 21
1.0
 12
931.4962524187072859
 22
107.1373395739003058
 13
0.0
 23
0.0
 14
1.0
 24
1.0
 15
0.0
 25
0.0
 16
0.0
 26
0.0
 36
17.1152628219792007
 17
3803.5440673828129547
 27
125.9952621967499056
 37
0.0
 40
5.8919003093526268
 41
2.5179738562091498
 42
50.0
 43
0.0
 44
0.0
 50
0.0
 51
0.0
 71
     0
 72
   100
 73
     1
 74
     1
 75
     0
 76
     0
 77
     0
 78
     0
  0
ENDTAB
  0
TABLE
  2
LTYPE
 70
     2
  0
LTYPE
  2
CONTINUOUS
 70
     0
  3
Solid line
 72
    65
 73
     0
 40
0.0
  0
LTYPE
  2
PHANTOM2
 70
     0
  3
___ _ _ ___ _ _ ___ _ _ ___ _ _
 72
    65
 73
     6
 40
1.25
 49
0.625
 49
-0.125
 49
0.125
 49
-0.125
 49
0.125
 49
-0.125
  0
ENDTAB
  0
TABLE
  2
LAYER
 70
     2
  0
LAYER
  2
0
 70
     0
 62
   255
  6
CONTINUOUS
  0
LAYER
  2
DEFPOINTS
 70
     0
 62
     7
  6
CONTINUOUS
  0
ENDTAB
  0
TABLE
  2
STYLE
 70
     1
  0
STYLE
  2
STANDARD
 70
     0
 40
0.0
 41
0.8
 50
0.0
 71
     0
 42
0.2
  3
txt
  4

  0
ENDTAB
  0
TABLE
  2
VIEW
 70
     0
  0
ENDTAB
  0
TABLE
  2
UCS
 70
     0
  0
ENDTAB
  0
TABLE
  2
APPID
 70
     9
  0
APPID
  2
ACAD
 70
     0
  0
APPID
  2
ACAD_MLEADERVER
 70
     0
  0
APPID
  2
ACAD_EXEMPT_FROM_CAD_STANDARDS
 70
     0
  0
APPID
  2
ACAD_NAV_VCDISPLAY
 70
     0
  0
APPID
  2
ACAECLAYERSTANDARD
 70
     0
  0
APPID
  2
ACCMTRANSPARENCY
 70
     0
  0
APPID
  2
ACAD_DSTYLE_DIMJAG
 70
     0
  0
APPID
  2
ACAD_DSTYLE_DIMTALN
 70
     0
  0
APPID
  2
ACDBATTR
 70
     0
  0
ENDTAB
  0
TABLE
  2
DIMSTYLE
 70
     1
  0
DIMSTYLE
  2
STANDARD
 70
     0
  3

  4

  5

  6

  7

 40
1.0
 41
0.1875
 42
0.0625
 43
0.38
 44
0.125
 45
0.0
 46
0.0
 47
0.01
 48
0.01
140
0.15625
141
0.09
142
0.0
143
25.3999999999999986
144
1.0
145
0.0
146
1.0
147
0.09
 71
     1
 72
     0
 73
     1
 74
     1
 75
     0
 76
     0
 77
     0
 78
     4
170
     0
171
     2
172
     0
173
     0
174
     0
175
     0
176
     0
177
     0
178
     0
  0
ENDTAB
  0
ENDSEC
  0
SECTION
  2
BLOCKS
  0
BLOCK
  8
0
  2
$MODEL_SPACE
 70
     0
 10
0.0
 20
0.0
 30
0.0
  3
$MODEL_SPACE
  1

  0
ENDBLK
  5
21
  8
0
  0
BLOCK
 67
     1
  8
0
  2
$PAPER_SPACE
 70
     0
 10
0.0
 20
0.0
 30
0.0
  3
$PAPER_SPACE
  1

  0
ENDBLK
  5
1D
 67
     1
  8
0
  0
ENDSEC
  0
SECTION
  2
ENTITIES
  0
ATTDEF
  5
3930
  8
DEFPOINTS
 10
4735.0614304881637509
 20
234.5297584161924931
 30
0.0
 40
0.001
  1
K-13690
  3

  2
MODELNUMBER
 70
     0
1001
ACDBATTR
1070
     0
1070
     1
  0
ATTDEF
  5
3931
  8
DEFPOINTS
 10
4735.0614304881637509
 20
234.5280917495257995
 30
0.0
 40
0.001
  1

  3

  2
TRADENAME
 70
     0
1001
ACDBATTR
1070
     0
1070
     1
  0
ATTDEF
  5
3932
  8
DEFPOINTS
 10
4735.0614304881637509
 20
234.5264250828591059
 30
0.0
 40
0.001
  1
SHOWERHEAD
  3

  2
PRODUCT
 70
     0
1001
ACDBATTR
1070
     0
1070
     1
  0
LINE
  5
B736
  8
0
 10
4729.0574990160512243
 20
232.2568310307102877
 30
0.0
 11
4741.0653730317508234
 21
232.2568310362671014
 31
0.0
  0
LINE
  5
B737
  8
0
 10
4741.0653730317508234
 20
232.2568310362671014
 30
0.0
 11
4741.0653730318499584
 21
231.8143113457103084
 31
0.0
  0
ARC
  5
B738
  8
0
 10
4741.0354517718842544
 20
231.8143113458762912
 30
0.0
 40
0.0299212599659629
 50
270.0000001263151148
 51
359.9999996822027128
  0
LINE
  5
B739
  8
0
 10
4741.035451771949738
 20
231.784390085810287
 30
0.0
 11
4729.0874202759514446
 21
231.784390085910303
 31
0.0
  0
ARC
  5
B73A
  8
0
 10
4729.0874202759514446
 20
231.7843900858603092
 30
0.0
 40
0.0000000000500004
 50
89.9999999990620125
 51
270.0
  0
ARC
  5
B73B
  8
0
 10
4729.0874202759514446
 20
231.8143113457103084
 30
0.0
 40
0.0299212599000001
 50
180.0
 51
270.0
  0
LINE
  5
B73C
  8
0
 10
4729.0574990161521782
 20
231.8143113457103084
 30
0.0
 11
4729.0574990161521782
 21
232.2568310307102877
 31
0.0
  0
LINE
  5
B73D
  8
0
 10
4735.0011834585011457
 20
231.7843900858607924
 30
0.0
 11
4735.0075383359508123
 21
231.7411377153102876
 31
0.0
  0
ARC
  5
B73E
  8
0
 10
4735.0162672229553209
 20
231.7428051329200969
 30
0.0
 40
0.0088867176064099
 50
190.814524191276405
 51
275.4993280554277817
  0
LINE
  5
B73F
  8
0
 10
4735.0171188733511372
 20
231.7339593180103066
 30
0.0
 11
4735.102303571750781
 21
231.7336239442103079
 31
0.0
  0
ARC
  5
B740
  8
0
 10
4735.1042024433972983
 20
231.74533905052769
 30
0.0
 40
0.0118680002343438
 50
260.7931448132496826
 51
340.5558236425695782
  0
LINE
  5
B741
  8
0
 10
4735.1153935673555679
 20
231.7413883323505956
 30
0.0
 11
4735.121688589400037
 21
231.7843900858597976
 31
0.0
  0
LINE
  5
B742
  8
0
 10
4740.2256748146655809
 20
231.7843900858171082
 30
0.0
 11
4740.221236081850293
 21
231.7430281190102903
 31
0.0
  0
ARC
  5
B743
  8
0
 10
4740.2134069832345631
 20
231.7438683074391008
 30
0.0
 40
0.0078740524341885
 50
272.1222502306513888
 51
353.8746824684118906
  0
LINE
  5
B744
  8
0
 10
4740.1215312171407277
 20
231.7327811009481024
 30
0.0
 11
4740.2136985734514383
 21
231.735999655910291
 31
0.0
  0
ARC
  5
B745
  8
0
 10
4740.1212564179750188
 20
231.7406503200666066
 30
0.0
 40
0.0078740157554386
 50
190.125218298650708
 51
271.9999998470711944
  0
LINE
  5
B746
  8
0
 10
4740.1135050329330625
 20
231.739266067905902
 30
0.0
 11
4740.10544672864944
 21
231.784390085818103
 31
0.0
  0
LINE
  5
B747
  8
0
 10
4740.0517534790087666
 20
231.7843900858185009
 30
0.0
 11
4740.0472577555510725
 21
231.742963469710304
 31
0.0
  0
ARC
  5
B748
  8
0
 10
4740.0391099834241686
 20
231.7440126836550007
 30
0.0
 40
0.0082150496365975
 50
266.5794476518129272
 51
352.662226128977295
  0
LINE
  5
B749
  8
0
 10
4740.0386198370497368
 20
231.7358122692102995
 30
0.0
 11
4739.9476508287498291
 21
231.7328608594102946
 31
0.0
  0
ARC
  5
B74A
  8
0
 10
4739.9472166383866352
 20
231.7406227598945065
 30
0.0
 40
0.0077740350140259
 50
193.9583443489158867
 51
273.201712770654126
  0
LINE
  5
B74B
  8
0
 10
4739.9315303977336953
 20
231.7843900859010944
 30
0.0
 11
4739.9396721601005993
 21
231.7387475351602859
 31
0.0
  0
LINE
  5
B74C
  8
0
 10
4739.5418424231120298
 20
231.7843900858227926
 30
0.0
 11
4739.5371786708501531
 21
231.7427740099103062
 31
0.0
  0
ARC
  5
B74D
  8
0
 10
4739.5248765463784366
 20
231.7500101571478979
 30
0.0
 40
0.0142724942946032
 50
273.4665076110632072
 51
329.5358272780405855
  0
LINE
  5
B74E
  8
0
 10
4739.525739533702108
 20
231.7357637770369081
 30
0.0
 11
4739.4378691260008054
 21
231.732862300610293
 31
0.0
  0
ARC
  5
B74F
  8
0
 10
4739.4375157188787853
 20
231.7410909705087931
 30
0.0
 40
0.0082362555140626
 50
191.0278292131596061
 51
272.4592431798060943
  0
LINE
  5
B750
  8
0
 10
4739.4294315508523141
 20
231.7395154921103142
 30
0.0
 11
4739.421633015948828
 21
231.7843900858237873
 31
0.0
  0
LINE
  5
B751
  8
0
 10
4739.374460914365045
 20
231.784390085810287
 30
0.0
 11
4739.3690912781457882
 21
231.7420764719769011
 31
0.0
  0
ARC
  5
B752
  8
0
 10
4739.3612798903786825
 20
231.7430677442148124
 30
0.0
 40
0.0078740332425429
 50
271.1120440003921885
 51
352.7677701842605984
  0
LINE
  5
B753
  8
0
 10
4739.3614327065506586
 20
231.7351951940102879
 30
0.0
 11
4739.2691834775514508
 21
231.7335849777103078
 31
0.0
  0
ARC
  5
B754
  8
0
 10
4739.2692835511788871
 20
231.7417232989276101
 30
0.0
 40
0.0081389364764229
 50
187.6435301283860042
 51
269.2954925987465913
  0
LINE
  5
B755
  8
0
 10
4739.2612169309977617
 20
231.7406407436901077
 30
0.0
 11
4739.2541085664615821
 21
231.784373226718003
 31
0.0
  0
LINE
  5
B756
  8
0
 10
4739.2297165861145913
 20
231.7843900858254074
 30
0.0
 11
4739.2241486199882274
 21
231.7420441130988991
 31
0.0
  0
ARC
  5
B757
  8
0
 10
4739.2163550657996893
 20
231.74303996033521
 30
0.0
 40
0.0078569204260262
 50
270.0419024792788036
 51
352.7183008020394936
  0
LINE
  5
B758
  8
0
 10
4739.2163608118507909
 20
231.7351830420103056
 30
0.0
 11
4739.124467352051397
 21
231.7336111102603127
 31
0.0
  0
ARC
  5
B759
  8
0
 10
4739.1241492080971511
 20
231.7415136049374098
 30
0.0
 40
0.0079088961112081
 50
189.3647775011446868
 51
272.3054071212330882
  0
LINE
  5
B75A
  8
0
 10
4739.1163457187512904
 20
231.7402266738102981
 30
0.0
 11
4739.1091941936483636
 21
231.7843900858264021
 31
0.0
  0
LINE
  5
B75B
  8
0
 10
4738.8046850691962391
 20
231.784390085810287
 30
0.0
 11
4738.7991982784506035
 21
231.7419498593102958
 31
0.0
  0
ARC
  5
B75C
  8
0
 10
4738.7913190292983927
 20
231.7429685105969952
 30
0.0
 40
0.0079448233248813
 50
269.9943875086627258
 51
352.6335019365695871
  0
LINE
  5
B75D
  8
0
 10
4738.7913182510510524
 20
231.7350236873103029
 30
0.0
 11
4738.7184277619999193
 21
231.7343077736996122
 31
0.0
  0
LINE
  5
B75E
  8
0
 10
4738.7306926076944364
 20
231.784390085810287
 30
0.0
 11
4738.7257586716514197
 21
231.7424728901102924
 31
0.0
  0
ARC
  5
B75F
  8
0
 10
4738.7154875334817916
 20
231.7443211313371023
 30
0.0
 40
0.0104361043934185
 50
286.3638546163624028
 51
349.7990718211830767
  0
LINE
  5
B760
  8
0
 10
4738.7184277619999193
 20
231.7343077736996122
 30
0.0
 11
4738.6253710823002621
 21
231.7343077736996122
 31
0.0
  0
ARC
  5
B761
  8
0
 10
4738.6253710823002621
 20
231.7420015383106886
 30
0.0
 40
0.0076937646110036
 50
196.5346961680579057
 51
270.0
  0
LINE
  5
B762
  8
0
 10
4738.6179954735507636
 20
231.7398119243102883
 30
0.0
 11
4738.6105018824500803
 21
231.784390085810287
 31
0.0
  0
LINE
  5
B763
  8
0
 10
4738.5232633925279515
 20
231.7843900858312907
 30
0.0
 11
4738.5169296135245531
 21
231.741123581110287
 31
0.0
  0
ARC
  5
B764
  8
0
 10
4738.5091049741877214
 20
231.7422690292266054
 30
0.0
 40
0.0079080359210869
 50
265.0838276196089964
 51
351.6716330483151864
  0
LINE
  5
B765
  8
0
 10
4738.5084272701451482
 20
231.7343900858103041
 30
0.0
 11
4738.4168830185572006
 21
231.7343900859102916
 31
0.0
  0
ARC
  5
B766
  8
0
 10
4738.4168830185499246
 20
231.7422641016102887
 30
0.0
 40
0.007874015699989
 50
188.328366879151389
 51
270.0
  0
LINE
  5
B767
  8
0
 10
4738.4090920406642908
 20
231.7411235811999859
 30
0.0
 11
4738.405057901735745
 21
231.7686810772133015
 31
0.0
  0
LINE
  5
B768
  8
0
 10
4738.4073575418105975
 20
231.784390085810287
 30
0.0
 11
4738.4010237628635878
 21
231.7411235811933068
 31
0.0
  0
ARC
  5
B769
  8
0
 10
4738.3932327849843205
 20
231.7422641016054001
 30
0.0
 40
0.0078740156922494
 50
275.0501274415365174
 51
351.6716330990919914
  0
LINE
  5
B76A
  8
0
 10
4738.3939259130811479
 20
231.7344206523283106
 30
0.0
 11
4738.30200449309541
 21
231.7343900858103041
 31
0.0
  0
ARC
  5
B76B
  8
0
 10
4738.3011065764221712
 20
231.742362781141793
 30
0.0
 40
0.0080230994759411
 50
185.9785462378129921
 51
276.4258013372580081
  0
LINE
  5
B76C
  8
0
 10
4738.293127114863637
 20
231.7415271266442005
 30
0.0
 11
4738.2868543736567517
 21
231.7843766780079875
 31
0.0
  0
LINE
  5
B76D
  8
0
 10
4738.1288260875908236
 20
231.784390085810287
 30
0.0
 11
4738.1231995156504126
 21
231.7417997669103045
 31
0.0
  0
ARC
  5
B76E
  8
0
 10
4738.115294118849306
 20
231.7428441423687104
 30
0.0
 40
0.0079740841915175
 50
269.7107221016486278
 51
352.4742815571473216
  0
LINE
  5
B76F
  8
0
 10
4738.1152538590513359
 20
231.7348701598102991
 30
0.0
 11
4738.0216444215911906
 21
231.73396135978291
 31
0.0
  0
ARC
  5
B770
  8
0
 10
4738.0232260890015823
 20
231.7417412690134881
 30
0.0
 40
0.007939059102664
 50
189.2208355219428881
 51
258.5082956120643871
  0
LINE
  5
B771
  8
0
 10
4738.0153896179508592
 20
231.740469113010306
 30
0.0
 11
4738.0084803561394438
 21
231.7843900858850077
 31
0.0
  0
LINE
  5
B772
  8
0
 10
4738.020227962095305
 20
231.7343900858103041
 30
0.0
 11
4737.9611584077510997
 21
231.7343900859102916
 31
0.0
  0
ARC
  5
B773
  8
0
 10
4737.9611428685748251
 20
231.7422461220355956
 30
0.0
 40
0.0078560514934809
 50
188.2150364333679136
 51
270.1133304458562066
  0
LINE
  5
B774
  8
0
 10
4737.9533674298627375
 20
231.7411235811999859
 30
0.0
 11
4737.9470336632521139
 21
231.7843900011714027
 31
0.0
  0
LINE
  5
B775
  8
0
 10
4737.6735844180657296
 20
231.784390085810287
 30
0.0
 11
4737.6682930552497055
 21
231.7420809958103121
 31
0.0
  0
ARC
  5
B776
  8
0
 10
4737.6596403351986737
 20
231.7431631434322128
 30
0.0
 40
0.008720126590777
 50
270.1063563328762029
 51
352.8713481187879779
  0
LINE
  5
B777
  8
0
 10
4737.6596565220843331
 20
231.7344430318649984
 30
0.0
 11
4737.5681943151221276
 21
231.7330475897971951
 31
0.0
  0
LINE
  5
B778
  8
0
 10
4737.5534123775505577
 20
231.784390085810287
 30
0.0
 11
4737.5605137717511752
 21
231.7401991281103051
 31
0.0
  0
ARC
  5
B779
  8
0
 10
4737.5697776246488502
 20
231.7424481268444083
 30
0.0
 40
0.0095329410903616
 50
193.6457810989375048
 51
260.4395409052464174
  0
ARC
  5
B77A
  8
0
 10
4737.5697776246488502
 20
231.7424481268444083
 30
0.0
 40
0.0095329410903616
 50
281.3086508524054921
 51
281.7866709115110098
  0
ARC
  5
B77B
  8
0
 10
4737.5664435367771148
 20
231.7422433557132138
 30
0.0
 40
0.0078257248981802
 50
188.2266283203979924
 51
252.8184357467854966
  0
LINE
  5
B77C
  8
0
 10
4737.5586983398643497
 20
231.7411235811999859
 30
0.0
 11
4737.5523644840941415
 21
231.7843900745698988
 31
0.0
  0
LINE
  5
B77D
  8
0
 10
4737.5269651994003652
 20
231.7843900858397035
 30
0.0
 11
4737.5215955631792895
 21
231.7420764719769011
 31
0.0
  0
ARC
  5
B77E
  8
0
 10
4737.5137841754112742
 20
231.7430677442148124
 30
0.0
 40
0.0078740332425429
 50
271.1120440003921885
 51
352.7677701842605984
  0
LINE
  5
B77F
  8
0
 10
4737.5139369915814314
 20
231.7351951940102879
 30
0.0
 11
4737.4216877625822235
 21
231.7335849777103078
 31
0.0
  0
ARC
  5
B780
  8
0
 10
4737.4217878941872186
 20
231.741723364388406
 30
0.0
 40
0.0081390026453623
 50
187.6439325693557123
 51
269.295090157752611
  0
LINE
  5
B781
  8
0
 10
4737.4137212160303534
 20
231.7406407436901077
 30
0.0
 11
4737.4066101111784519
 21
231.7843900858406982
 31
0.0
  0
LINE
  5
B782
  8
0
 10
4736.8225352414419831
 20
231.7847948300396013
 30
0.0
 11
4736.8171656052236358
 21
231.7424812162063006
 31
0.0
  0
ARC
  5
B783
  8
0
 10
4736.809354217454711
 20
231.7434724884442119
 30
0.0
 40
0.0078740332425429
 50
271.1120440003921885
 51
352.7677701842605984
  0
LINE
  5
B784
  8
0
 10
4736.8095070336266872
 20
231.7355999382396021
 30
0.0
 11
4736.7172578046265699
 21
231.7339897219397074
 31
0.0
  0
ARC
  5
B785
  8
0
 10
4736.717357936231565
 20
231.7421281086178055
 30
0.0
 40
0.0081390026453632
 50
187.6439325693540923
 51
269.295090157752611
  0
LINE
  5
B786
  8
0
 10
4736.7092912580746997
 20
231.7410454879193935
 30
0.0
 11
4736.7021828935367012
 21
231.7847779709474025
 31
0.0
  0
LINE
  5
B787
  8
0
 10
4737.3310762337387132
 20
231.784390085810287
 30
0.0
 11
4737.3247424547507762
 21
231.741123581110287
 31
0.0
  0
ARC
  5
B788
  8
0
 10
4737.3169514769733723
 20
231.7422641015126032
 30
0.0
 40
0.0078740155901577
 50
275.9293637325820896
 51
351.6716330627237994
  0
LINE
  5
B789
  8
0
 10
4737.3177648809123639
 20
231.7344322118590014
 30
0.0
 11
4737.231001191172254
 21
231.7346510523433949
 31
0.0
  0
LINE
  5
B78A
  8
0
 10
4737.2480302233980183
 20
231.784390085810287
 30
0.0
 11
4737.2422154914211205
 21
231.7416053908874005
 31
0.0
  0
ARC
  5
B78B
  8
0
 10
4737.2341369365376522
 20
231.7428511857750095
 30
0.0
 40
0.0081740475829417
 50
269.321687189387319
 51
351.2334675048833788
  0
LINE
  5
B78C
  8
0
 10
4737.234040167951207
 20
231.7346777110103062
 30
0.0
 11
4737.1425584255512149
 21
231.7338752102103001
 31
0.0
  0
LINE
  5
B78D
  8
0
 10
4737.1276891707502728
 20
231.784390085810287
 30
0.0
 11
4737.1343975046320338
 21
231.7407202558102881
 31
0.0
  0
ARC
  5
B78E
  8
0
 10
4737.1424076388229878
 20
231.7419828378926923
 30
0.0
 40
0.0081090297368627
 50
188.9574402107780031
 51
271.0654716203840735
  0
LINE
  5
B78F
  8
0
 10
4736.5946136856473458
 20
231.784390085873099
 30
0.0
 11
4736.588772764444002
 21
231.7444903287637032
 31
0.0
  0
ARC
  5
B790
  8
0
 10
4736.5770862975723503
 20
231.7462011094071954
 30
0.0
 40
0.0118110235949884
 50
275.2388710742984017
 51
351.6716330154109755
  0
LINE
  5
B791
  8
0
 10
4736.5781647408221033
 20
231.734439424216788
 30
0.0
 11
4736.4916371965509825
 21
231.7343900858103041
 31
0.0
  0
ARC
  5
B792
  8
0
 10
4736.4916852279811792
 20
231.7463272133551015
 30
0.0
 40
0.0119372241764426
 50
182.6212843674175019
 51
269.7694601720216951
  0
LINE
  5
B793
  8
0
 10
4736.4797604943269107
 20
231.7457812753314954
 30
0.0
 11
4736.4741085546447721
 21
231.7843900858484858
 31
0.0
  0
LINE
  5
B794
  8
0
 10
4736.442559897506726
 20
231.784390085810287
 30
0.0
 11
4736.4368447350507267
 21
231.7416254607103099
 31
0.0
  0
ARC
  5
B795
  8
0
 10
4736.4287987374145814
 20
231.7427007462646884
 30
0.0
 40
0.0081175314580366
 50
275.424743641281907
 51
352.3879645909627811
  0
LINE
  5
B796
  8
0
 10
4736.429566154600252
 20
231.7346195713602981
 30
0.0
 11
4736.3370680953012197
 21
231.7334165899063123
 31
0.0
  0
ARC
  5
B797
  8
0
 10
4736.3381620906129683
 20
231.7426849498172032
 30
0.0
 40
0.0093327017084865
 50
192.5865142760775086
 51
263.2682131041746061
  0
LINE
  5
B798
  8
0
 10
4736.3290536716513088
 20
231.7406512278103037
 30
0.0
 11
4736.3224015369396511
 21
231.7843900858850077
 31
0.0
  0
LINE
  5
B799
  8
0
 10
4736.3338848774674261
 20
231.7343900858103041
 30
0.0
 11
4736.290898766551436
 21
231.7343900859102916
 31
0.0
  0
ARC
  5
B79A
  8
0
 10
4736.2908987665687164
 20
231.7422641016314913
 30
0.0
 40
0.0078740157211938
 50
188.3283676719474897
 51
269.9999998667021259
  0
LINE
  5
B79B
  8
0
 10
4736.2831077886758067
 20
231.741123581110287
 30
0.0
 11
4736.2767740091339874
 21
231.7843900857239134
 31
0.0
  0
LINE
  5
B79C
  8
0
 10
4736.2223227268759729
 20
231.784390085810287
 30
0.0
 11
4736.2162970963499902
 21
231.7413769533102936
 31
0.0
  0
ARC
  5
B79D
  8
0
 10
4736.2083219218102386
 20
231.742494180825787
 30
0.0
 40
0.0080530495019784
 50
267.7842807738426814
 51
352.0254356517293104
  0
LINE
  5
B79E
  8
0
 10
4736.2080105751501833
 20
231.7344471522102936
 30
0.0
 11
4736.1174520693502927
 21
231.7339957281103011
 31
0.0
  0
ARC
  5
B79F
  8
0
 10
4736.1166068295242439
 20
231.742180668701991
 30
0.0
 40
0.0082284678314591
 50
187.9592350365253992
 51
275.8959031081940907
  0
LINE
  5
B7A0
  8
0
 10
4736.1084576278617533
 20
231.7410412850458954
 30
0.0
 11
4736.1019850993397995
 21
231.7843900858831034
 31
0.0
  0
LINE
  5
B7A1
  8
0
 10
4736.0020809318111787
 20
231.784390085810287
 30
0.0
 11
4735.9957471528250608
 21
231.741123581110287
 31
0.0
  0
ARC
  5
B7A2
  8
0
 10
4735.9879561750367429
 20
231.7422641015135127
 30
0.0
 40
0.0078740155998914
 50
272.236119918124075
 51
351.671633066503091
  0
LINE
  5
B7A3
  8
0
 10
4735.9882634013956704
 20
231.7343960818369055
 30
0.0
 11
4735.8957710425202094
 21
231.7343900858103041
 31
0.0
  0
ARC
  5
B7A4
  8
0
 10
4735.8958591816226544
 20
231.7424489284705942
 30
0.0
 40
0.008059324632097
 50
187.1915200635577889
 51
269.373384310459528
  0
LINE
  5
B7A5
  8
0
 10
4735.8878632577625467
 20
231.741440010662302
 30
0.0
 11
4735.8815770385417636
 21
231.7843816314974958
 31
0.0
  0
LINE
  5
B7A6
  8
0
 10
4735.857418080367097
 20
231.7444903288102864
 30
0.0
 11
4735.8514867377034534
 21
231.7843900858810002
 31
0.0
  0
LINE
  5
B7A7
  8
0
 10
4735.8689743468048619
 20
231.7343908034733886
 30
0.0
 11
4735.8957710425202094
 21
231.7343900858103041
 31
0.0
  0
ARC
  5
B7A8
  8
0
 10
4735.869244464392068
 20
231.7463612080013036
 30
0.0
 40
0.0119734518027442
 50
188.9894318333099932
 51
268.7073142247976989
  0
LINE
  5
B7A9
  8
0
 10
4735.8548445318701852
 20
231.7618024224954922
 30
0.0
 11
4735.8518173585252953
 21
231.741123581110287
 31
0.0
  0
ARC
  5
B7AA
  8
0
 10
4735.8440263807560768
 20
231.7422641014995861
 30
0.0
 40
0.0078740155799725
 50
275.3966887136677997
 51
351.6716331470880732
  0
LINE
  5
B7AB
  8
0
 10
4735.8447669380384468
 20
231.7344249882675058
 30
0.0
 11
4735.7522685260346407
 21
231.7343900858103041
 31
0.0
  0
ARC
  5
B7AC
  8
0
 10
4735.7519812084083242
 20
231.7425047550821091
 30
0.0
 40
0.0081197542333908
 50
186.8630812594757913
 51
272.0278353637052078
  0
LINE
  5
B7AD
  8
0
 10
4735.7376460065615902
 20
231.784390085810287
 30
0.0
 11
4735.7439196358945992
 21
231.7415344677777114
 31
0.0
  0
LINE
  5
B7AE
  8
0
 10
4735.4263803088360874
 20
231.784390085910303
 30
0.0
 11
4735.432714087876775
 21
231.741123581110287
 31
0.0
  0
ARC
  5
B7AF
  8
0
 10
4735.4405050656678213
 20
231.7422641015213003
 30
0.0
 40
0.00787401560453
 50
188.3283669856396045
 51
265.3720500828840159
  0
LINE
  5
B7B0
  8
0
 10
4735.439869749447098
 20
231.7344157580629087
 30
0.0
 11
4735.5328780654681395
 21
231.7343900858103041
 31
0.0
  0
ARC
  5
B7B1
  8
0
 10
4735.5327589511571205
 20
231.7422650518138028
 30
0.0
 40
0.0078758667951914
 50
270.8665722390073824
 51
351.6666304588803769
  0
LINE
  5
B7B2
  8
0
 10
4735.5405516609816914
 20
231.7411235828710119
 30
0.0
 11
4735.5468854331929833
 21
231.7843900867702018
 31
0.0
  0
LINE
  5
B7B3
  8
0
 10
4734.3429320868508512
 20
232.2568310331562031
 30
0.0
 11
4734.3429351783497623
 21
232.8473822118102987
 31
0.0
  0
LINE
  5
B7B4
  8
0
 10
4734.3429351783497623
 20
232.8473822118102987
 30
0.0
 11
4734.3724596459505847
 21
232.8473822118102987
 31
0.0
  0
LINE
  5
B7B5
  8
0
 10
4734.3724596459505847
 20
232.8473822118102987
 30
0.0
 11
4734.3724596459505847
 21
233.3198231567102994
 31
0.0
  0
LINE
  5
B7B6
  8
0
 10
4734.3724596459505847
 20
233.3198231567102994
 30
0.0
 11
4735.7504124018505536
 21
233.3198231567102994
 31
0.0
  0
LINE
  5
B7B7
  8
0
 10
4735.7504124018505536
 20
233.3198231567102994
 30
0.0
 11
4735.7504124018505536
 21
232.8473822118102987
 31
0.0
  0
LINE
  5
B7B8
  8
0
 10
4735.7504124018505536
 20
232.8473822118102987
 30
0.0
 11
4735.7799399608511521
 21
232.8473822118102987
 31
0.0
  0
LINE
  5
B7B9
  8
0
 10
4735.7799399608511521
 20
232.8473822118102987
 30
0.0
 11
4735.7799399608511521
 21
232.2568310338211859
 31
0.0
  0
ARC
  5
B7BA
  8
0
 10
4735.0614360097988538
 20
233.0363585916425961
 30
0.0
 40
0.5279999970034109
 50
129.4534797339279066
 51
147.5295399859581948
  0
ARC
  5
B7BB
  8
0
 10
4734.6814340708951931
 20
233.498098487786109
 30
0.0
 40
0.0700010107578599
 50
309.4548567468918918
 51
67.4583125752072448
  0
ARC
  5
B7BC
  8
0
 10
4734.796436025219009
 20
233.7751817925318107
 30
0.0
 40
0.2300000013677212
 50
179.9999955938278902
 51
247.4596861485750026
  0
LINE
  5
B7BD
  8
0
 10
4734.5664360238497466
 20
233.7751818102192942
 30
0.0
 11
4734.5664360930131807
 21
234.5063585898103042
 31
0.0
  0
ARC
  5
B7BE
  8
0
 10
4734.5864364921508241
 20
234.5063581906738079
 30
0.0
 40
0.020000399141984
 50
89.9986584460949501
 51
179.9988565809719034
  0
ARC
  5
B7BF
  8
0
 10
4735.0614369745017029
 20
233.0363585916425961
 30
0.0
 40
0.5279999970034109
 50
32.4704600140417483
 51
50.5465202744534565
  0
ARC
  5
B7C0
  8
0
 10
4735.4414389134071826
 20
233.498098487786109
 30
0.0
 40
0.0700010107578599
 50
112.5416874247926984
 51
230.5451432531069997
  0
ARC
  5
B7C1
  8
0
 10
4735.3264369599046404
 20
233.7751817919829023
 30
0.0
 40
0.2300000005455243
 50
292.5403137146643076
 51
0.0000045429223284
  0
LINE
  5
B7C2
  8
0
 10
4735.5564369604499007
 20
233.7751818102192942
 30
0.0
 11
4735.556436891289195
 21
234.5063585898103042
 31
0.0
  0
ARC
  5
B7C3
  8
0
 10
4735.5364364921497327
 20
234.5063581906738079
 30
0.0
 40
0.0200003991419858
 50
0.0011434190248381
 51
90.0
  0
LINE
  5
B7C4
  8
0
 10
4734.5864369604832973
 20
234.526358589810286
 30
0.0
 11
4735.5364364921497327
 21
234.5263585898157999
 31
0.0
  0
ARC
  5
B7C5
  8
0
 10
4735.0563826103871179
 20
233.9028058347062995
 30
0.0
 40
0.2599139376766473
 50
240.2293821093309134
 51
271.1140513093241111
  0
ARC
  5
B7C6
  8
0
 10
4734.9826968655206656
 20
233.7817287829224995
 30
0.0
 40
0.1182919337993642
 50
183.1727137490562995
 51
242.0908402430588922
  0
LINE
  5
B7C7
  8
0
 10
4734.8645862454450253
 20
233.7751817968062937
 30
0.0
 11
4734.8645862455514361
 21
234.3522164527103087
 31
0.0
  0
ARC
  5
B7C8
  8
0
 10
4735.0613023198766314
 20
233.8968532082172942
 30
0.0
 40
0.5036475349310697
 50
89.9847895341970343
 51
111.161605740786996
  0
ARC
  5
B7C9
  8
0
 10
4734.87414939084465
 20
234.3520666081118975
 30
0.0
 40
0.0095643191768378
 50
148.0576554432894909
 51
179.102307840631795
  0
ARC
  5
B7CA
  8
0
 10
4734.8809317378672858
 20
234.3475212391107902
 30
0.0
 40
0.0177265261131581
 50
123.3668922366859988
 51
147.188783545570999
  0
ARC
  5
B7CB
  8
0
 10
4734.8905738181883862
 20
234.333993829887703
 30
0.0
 40
0.0343327503099002
 50
116.4367957253529937
 51
124.3894174991662993
  0
ARC
  5
B7CC
  8
0
 10
4734.8957321056641376
 20
234.3228956587703067
 30
0.0
 40
0.0465679787480259
 50
110.4185307747867029
 51
116.0404226171780948
  0
ARC
  5
B7CD
  8
0
 10
4735.0664894373139759
 20
233.9028058347062995
 30
0.0
 40
0.2599139376766473
 50
268.8859486906758889
 51
299.7706178906690866
  0
ARC
  5
B7CE
  8
0
 10
4735.1401751821667858
 20
233.7817287829305997
 30
0.0
 40
0.1182919338124066
 50
297.909159760485295
 51
356.827286247374218
  0
LINE
  5
B7CF
  8
0
 10
4735.2582858022560686
 20
233.7751817968062937
 30
0.0
 11
4735.2582858021505672
 21
234.3522164527103087
 31
0.0
  0
ARC
  5
B7D0
  8
0
 10
4735.0615803885129935
 20
233.8969685868464126
 30
0.0
 40
0.5035321592496041
 50
68.8405746857406484
 51
90.0164270064796312
  0
ARC
  5
B7D1
  8
0
 10
4735.2487226568582628
 20
234.3520666081118975
 30
0.0
 40
0.0095643191768378
 50
0.8976921593664865
 51
31.9423445567105091
  0
ARC
  5
B7D2
  8
0
 10
4735.241940309833808
 20
234.3475212391107902
 30
0.0
 40
0.0177265261131581
 50
32.8112164544289726
 51
56.6331077633139373
  0
ARC
  5
B7D3
  8
0
 10
4735.232470447534979
 20
234.3342734362950068
 30
0.0
 40
0.0340047465389549
 50
55.5839463809138365
 51
66.7271034807933034
  0
ARC
  5
B7D4
  8
0
 10
4735.2289549314982651
 20
234.327378684893489
 30
0.0
 40
0.0417305735110475
 50
66.033342965001566
 51
69.8393929945296321
  0
LINE
  5
B7D5
  8
0
 10
4729.8971972331346478
 20
231.7843900858171082
 30
0.0
 11
4729.9016359659499358
 21
231.7430281190102903
 31
0.0
  0
ARC
  5
B7D6
  8
0
 10
4729.9094650645683942
 20
231.7438683074391008
 30
0.0
 40
0.0078740524341885
 50
186.1253175315879957
 51
267.8777497693486112
  0
LINE
  5
B7D7
  8
0
 10
4730.0013408306604106
 20
231.7327811009481024
 30
0.0
 11
4729.9091734743506095
 21
231.735999655910291
 31
0.0
  0
ARC
  5
B7D8
  8
0
 10
4730.0016156298261194
 20
231.7406503200666066
 30
0.0
 40
0.0078740157554386
 50
268.0000001529286919
 51
349.8747817013476151
  0
LINE
  5
B7D9
  8
0
 10
4730.0093670148680758
 20
231.739266067905902
 30
0.0
 11
4730.0174253191526077
 21
231.784390085818103
 31
0.0
  0
LINE
  5
B7DA
  8
0
 10
4730.0711185687941907
 20
231.7843900858185009
 30
0.0
 11
4730.0756142922509753
 21
231.742963469710304
 31
0.0
  0
ARC
  5
B7DB
  8
0
 10
4730.0837620643778791
 20
231.7440126836550007
 30
0.0
 40
0.0082150496365975
 50
187.337773871022705
 51
273.4205523481870728
  0
LINE
  5
B7DC
  8
0
 10
4730.0842522107514014
 20
231.7358122692102995
 30
0.0
 11
4730.1752212190513092
 21
231.7328608594102946
 31
0.0
  0
ARC
  5
B7DD
  8
0
 10
4730.1756554094163221
 20
231.7406227598945065
 30
0.0
 40
0.0077740350140259
 50
266.798287229345874
 51
346.0416556510825217
  0
LINE
  5
B7DE
  8
0
 10
4730.191341650067443
 20
231.7843900859010944
 30
0.0
 11
4730.1831998877014485
 21
231.7387475351602859
 31
0.0
  0
LINE
  5
B7DF
  8
0
 10
4730.581029624690018
 20
231.7843900858227926
 30
0.0
 11
4730.5856933769509851
 21
231.7427740099103062
 31
0.0
  0
ARC
  5
B7E0
  8
0
 10
4730.5979955014227016
 20
231.7500101571478979
 30
0.0
 40
0.0142724942946032
 50
210.4641727219579082
 51
266.5334923889369065
  0
LINE
  5
B7E1
  8
0
 10
4730.5971325140999397
 20
231.7357637770369081
 30
0.0
 11
4730.6850029218012423
 21
231.732862300610293
 31
0.0
  0
ARC
  5
B7E2
  8
0
 10
4730.6853563289232625
 20
231.7410909705087931
 30
0.0
 40
0.0082362555140626
 50
267.5407568201939057
 51
348.972170786838717
  0
LINE
  5
B7E3
  8
0
 10
4730.6934404969506431
 20
231.7395154921103142
 30
0.0
 11
4730.7012390318532198
 21
231.7843900858237873
 31
0.0
  0
LINE
  5
B7E4
  8
0
 10
4730.7484111334360932
 20
231.784390085810287
 30
0.0
 11
4730.7537807696562595
 21
231.7420764719769011
 31
0.0
  0
ARC
  5
B7E5
  8
0
 10
4730.7615921574215463
 20
231.7430677442148124
 30
0.0
 40
0.0078740332425429
 50
187.2322298157392879
 51
268.8879559996076978
  0
LINE
  5
B7E6
  8
0
 10
4730.7614393412513891
 20
231.7351951940102879
 30
0.0
 11
4730.853688570252416
 21
231.7335849777103078
 31
0.0
  0
ARC
  5
B7E7
  8
0
 10
4730.8535884966231606
 20
231.7417232989276101
 30
0.0
 40
0.0081389364764229
 50
270.7045074012534087
 51
352.3564698716139105
  0
LINE
  5
B7E8
  8
0
 10
4730.8616551168033766
 20
231.7406407436901077
 30
0.0
 11
4730.8687634813395562
 21
231.784373226718003
 31
0.0
  0
LINE
  5
B7E9
  8
0
 10
4730.8931554616865469
 20
231.7843900858254074
 30
0.0
 11
4730.8987234278147298
 21
231.7420441130988991
 31
0.0
  0
ARC
  5
B7EA
  8
0
 10
4730.9065169820023584
 20
231.74303996033521
 30
0.0
 40
0.0078569204260262
 50
187.2816991979603927
 51
269.9580975207210827
  0
LINE
  5
B7EB
  8
0
 10
4730.9065112359512568
 20
231.7351830420103056
 30
0.0
 11
4730.9984046957506507
 21
231.7336111102603127
 31
0.0
  0
ARC
  5
B7EC
  8
0
 10
4730.9987228397048966
 20
231.7415136049374098
 30
0.0
 40
0.0079088961112081
 50
267.6945928787667981
 51
350.6352224988552848
  0
LINE
  5
B7ED
  8
0
 10
4731.0065263290507573
 20
231.7402266738102981
 30
0.0
 11
4731.0136778541536842
 21
231.7843900858264021
 31
0.0
  0
LINE
  5
B7EE
  8
0
 10
4731.3181869786048992
 20
231.784390085810287
 30
0.0
 11
4731.3236737693523537
 21
231.7419498593102958
 31
0.0
  0
ARC
  5
B7EF
  8
0
 10
4731.331553018503655
 20
231.7429685105969952
 30
0.0
 40
0.0079448233248813
 50
187.3664980634287929
 51
270.0056124913372742
  0
LINE
  5
B7F0
  8
0
 10
4731.3315537967509954
 20
231.7350236873103029
 30
0.0
 11
4731.4044442858021284
 21
231.7343077736996122
 31
0.0
  0
LINE
  5
B7F1
  8
0
 10
4731.3921794401094303
 20
231.784390085810287
 30
0.0
 11
4731.3971133761497185
 21
231.7424728901102924
 31
0.0
  0
ARC
  5
B7F2
  8
0
 10
4731.4073845143184371
 20
231.7443211313371023
 30
0.0
 40
0.0104361043934185
 50
190.2009281788153032
 51
253.6361453836377109
  0
LINE
  5
B7F3
  8
0
 10
4731.4044442858021284
 20
231.7343077736996122
 30
0.0
 11
4731.4975009655017857
 21
231.7343077736996122
 31
0.0
  0
ARC
  5
B7F4
  8
0
 10
4731.4975009655017857
 20
231.7420015383106886
 30
0.0
 40
0.0076937646110036
 50
270.0
 51
343.465303831940389
  0
LINE
  5
B7F5
  8
0
 10
4731.5048765742512842
 20
231.7398119243102883
 30
0.0
 11
4731.5123701653510579
 21
231.784390085810287
 31
0.0
  0
LINE
  5
B7F6
  8
0
 10
4731.5996086552740962
 20
231.7843900858312907
 30
0.0
 11
4731.6059424342765851
 21
231.741123581110287
 31
0.0
  0
ARC
  5
B7F7
  8
0
 10
4731.6137670736134169
 20
231.7422690292266054
 30
0.0
 40
0.0079080359210869
 50
188.3283669516848136
 51
274.9161723803910036
  0
LINE
  5
B7F8
  8
0
 10
4731.6144447776568995
 20
231.7343900858103041
 30
0.0
 11
4731.7059890292439377
 21
231.7343900859102916
 31
0.0
  0
ARC
  5
B7F9
  8
0
 10
4731.7059890292512137
 20
231.7422641016102887
 30
0.0
 40
0.007874015699989
 50
269.9999999999478746
 51
351.6716331208468773
  0
LINE
  5
B7FA
  8
0
 10
4731.7137800071377569
 20
231.7411235811999859
 30
0.0
 11
4731.7178141460663028
 21
231.7686810772133015
 31
0.0
  0
LINE
  5
B7FB
  8
0
 10
4731.7155145059914503
 20
231.784390085810287
 30
0.0
 11
4731.7218482849393695
 21
231.7411235811933068
 31
0.0
  0
ARC
  5
B7FC
  8
0
 10
4731.7296392628177273
 20
231.7422641016054001
 30
0.0
 40
0.0078740156922494
 50
188.3283669009078949
 51
264.9498725584634826
  0
LINE
  5
B7FD
  8
0
 10
4731.7289461347208999
 20
231.7344206523283106
 30
0.0
 11
4731.8208675547066377
 21
231.7343900858103041
 31
0.0
  0
ARC
  5
B7FE
  8
0
 10
4731.821765471378967
 20
231.742362781141793
 30
0.0
 40
0.0080230994759411
 50
263.5741986627418783
 51
354.0214537621869795
  0
LINE
  5
B7FF
  8
0
 10
4731.8297449329384108
 20
231.7415271266442005
 30
0.0
 11
4731.8360176741462055
 21
231.7843766780079875
 31
0.0
  0
LINE
  5
B800
  8
0
 10
4731.9940459602103147
 20
231.784390085810287
 30
0.0
 11
4731.9996725321498161
 21
231.7417997669103045
 31
0.0
  0
ARC
  5
B801
  8
0
 10
4732.0075779289518323
 20
231.7428441423687104
 30
0.0
 40
0.0079740841915175
 50
187.5257184428527069
 51
270.2892778983513722
  0
LINE
  5
B802
  8
0
 10
4732.0076181887507119
 20
231.7348701598102991
 30
0.0
 11
4732.1012276262108571
 21
231.73396135978291
 31
0.0
  0
ARC
  5
B803
  8
0
 10
4732.099645958799556
 20
231.7417412690134881
 30
0.0
 40
0.007939059102664
 50
281.4917043879356129
 51
350.7791644780555202
  0
LINE
  5
B804
  8
0
 10
4732.1074824298511885
 20
231.740469113010306
 30
0.0
 11
4732.1143916916616945
 21
231.7843900858850077
 31
0.0
  0
LINE
  5
B805
  8
0
 10
4732.1026440857058333
 20
231.7343900858103041
 30
0.0
 11
4732.161713640050948
 21
231.7343900859102916
 31
0.0
  0
ARC
  5
B806
  8
0
 10
4732.1617291792272226
 20
231.7422461220355956
 30
0.0
 40
0.0078560514934809
 50
269.8866695541437934
 51
351.7849635666319728
  0
LINE
  5
B807
  8
0
 10
4732.1695046179384008
 20
231.7411235811999859
 30
0.0
 11
4732.1758383845499338
 21
231.7843900011714027
 31
0.0
  0
LINE
  5
B808
  8
0
 10
4732.4492876297363182
 20
231.784390085810287
 30
0.0
 11
4732.4545789925514327
 21
231.7420809958103121
 31
0.0
  0
ARC
  5
B809
  8
0
 10
4732.463231712601555
 20
231.7431631434322128
 30
0.0
 40
0.008720126590777
 50
187.1286518812119937
 51
269.8936436671237971
  0
LINE
  5
B80A
  8
0
 10
4732.4632155257177146
 20
231.7344430318649984
 30
0.0
 11
4732.5546777326790107
 21
231.7330475897971951
 31
0.0
  0
LINE
  5
B80B
  8
0
 10
4732.5694596702505805
 20
231.784390085810287
 30
0.0
 11
4732.5623582760508725
 21
231.7401991281103051
 31
0.0
  0
ARC
  5
B80C
  8
0
 10
4732.5530944231522881
 20
231.7424481268444083
 30
0.0
 40
0.0095329410903616
 50
279.5604590947535257
 51
346.3542189010609036
  0
ARC
  5
B80D
  8
0
 10
4732.5530944231522881
 20
231.7424481268444083
 30
0.0
 40
0.0095329410903616
 50
258.2133290884889902
 51
258.6913491475945079
  0
ARC
  5
B80E
  8
0
 10
4732.556428511024933
 20
231.7422433557132138
 30
0.0
 40
0.0078257248981802
 50
287.1815642532145034
 51
351.7733716796020076
  0
LINE
  5
B80F
  8
0
 10
4732.5641737079376981
 20
231.7411235811999859
 30
0.0
 11
4732.5705075637079062
 21
231.7843900745698988
 31
0.0
  0
LINE
  5
B810
  8
0
 10
4732.595906848400773
 20
231.7843900858397035
 30
0.0
 11
4732.6012764846236678
 21
231.7420764719769011
 31
0.0
  0
ARC
  5
B811
  8
0
 10
4732.609087872391683
 20
231.7430677442148124
 30
0.0
 40
0.0078740332425429
 50
187.2322298157392879
 51
268.8879559996076978
  0
LINE
  5
B812
  8
0
 10
4732.6089350562187974
 20
231.7351951940102879
 30
0.0
 11
4732.7011842852198242
 21
231.7335849777103078
 31
0.0
  0
ARC
  5
B813
  8
0
 10
4732.7010841536148291
 20
231.741723364388406
 30
0.0
 40
0.0081390026453623
 50
270.7049098422475026
 51
352.3560674306443161
  0
LINE
  5
B814
  8
0
 10
4732.7091508317707849
 20
231.7406407436901077
 30
0.0
 11
4732.7162619366254148
 21
231.7843900858406982
 31
0.0
  0
LINE
  5
B815
  8
0
 10
4733.3003368063600647
 20
231.7847948300396013
 30
0.0
 11
4733.305706442578412
 21
231.7424812162063006
 31
0.0
  0
ARC
  5
B816
  8
0
 10
4733.3135178303464272
 20
231.7434724884442119
 30
0.0
 40
0.0078740332425429
 50
187.2322298157392879
 51
268.8879559996076978
  0
LINE
  5
B817
  8
0
 10
4733.3133650141753606
 20
231.7355999382396021
 30
0.0
 11
4733.4056142431736589
 21
231.7339897219397074
 31
0.0
  0
ARC
  5
B818
  8
0
 10
4733.4055141115686638
 20
231.7421281086178055
 30
0.0
 40
0.0081390026453632
 50
270.7049098422475026
 51
352.3560674306443161
  0
LINE
  5
B819
  8
0
 10
4733.4135807897264385
 20
231.7410454879193935
 30
0.0
 11
4733.4206891542644371
 21
231.7847779709474025
 31
0.0
  0
LINE
  5
B81A
  8
0
 10
4732.7917958140624251
 20
231.784390085810287
 30
0.0
 11
4732.7981295930512715
 21
231.741123581110287
 31
0.0
  0
ARC
  5
B81B
  8
0
 10
4732.8059205708277659
 20
231.7422641015126032
 30
0.0
 40
0.0078740155901577
 50
188.328366937274609
 51
264.0706362674179104
  0
LINE
  5
B81C
  8
0
 10
4732.8051071668887744
 20
231.7344322118590014
 30
0.0
 11
4732.8918708566288842
 21
231.7346510523433949
 31
0.0
  0
LINE
  5
B81D
  8
0
 10
4732.87484182440312
 20
231.784390085810287
 30
0.0
 11
4732.8806565563809272
 21
231.7416053908874005
 31
0.0
  0
ARC
  5
B81E
  8
0
 10
4732.8887351112625765
 20
231.7428511857750095
 30
0.0
 40
0.0081740475829417
 50
188.7665324951165076
 51
270.6783128106127947
  0
LINE
  5
B81F
  8
0
 10
4732.8888318798508408
 20
231.7346777110103062
 30
0.0
 11
4732.9803136222508329
 21
231.7338752102103001
 31
0.0
  0
LINE
  5
B820
  8
0
 10
4732.9951828770508655
 20
231.784390085810287
 30
0.0
 11
4732.9884745431691044
 21
231.7407202558102881
 31
0.0
  0
ARC
  5
B821
  8
0
 10
4732.98046440897906
 20
231.7419828378926923
 30
0.0
 40
0.0081090297368627
 50
268.9345283796159265
 51
351.0425597892219116
  0
LINE
  5
B822
  8
0
 10
4733.5282583621547019
 20
231.784390085873099
 30
0.0
 11
4733.5340992833580458
 21
231.7444903287637032
 31
0.0
  0
ARC
  5
B823
  8
0
 10
4733.5457857502287879
 20
231.7462011094071954
 30
0.0
 40
0.0118110235949884
 50
188.328366984588996
 51
264.7611289257015983
  0
LINE
  5
B824
  8
0
 10
4733.5447073069799444
 20
231.734439424216788
 30
0.0
 11
4733.6312348512510653
 21
231.7343900858103041
 31
0.0
  0
ARC
  5
B825
  8
0
 10
4733.6311868198208685
 20
231.7463272133551015
 30
0.0
 40
0.0119372241764426
 50
270.2305398279781912
 51
357.3787156325823844
  0
LINE
  5
B826
  8
0
 10
4733.643111553475137
 20
231.7457812753314954
 30
0.0
 11
4733.6487634931563662
 21
231.7843900858484858
 31
0.0
  0
LINE
  5
B827
  8
0
 10
4733.6803121502944123
 20
231.784390085810287
 30
0.0
 11
4733.686027312751321
 21
231.7416254607103099
 31
0.0
  0
ARC
  5
B828
  8
0
 10
4733.6940733103856473
 20
231.7427007462646884
 30
0.0
 40
0.0081175314580366
 50
187.6120354090371904
 51
264.5752563587182067
  0
LINE
  5
B829
  8
0
 10
4733.6933058932008862
 20
231.7346195713602981
 30
0.0
 11
4733.7858039525017375
 21
231.7334165899063123
 31
0.0
  0
ARC
  5
B82A
  8
0
 10
4733.7847099571899889
 20
231.7426849498172032
 30
0.0
 40
0.0093327017084865
 50
276.7317868958253939
 51
347.4134857239208145
  0
LINE
  5
B82B
  8
0
 10
4733.7938183761507389
 20
231.7406512278103037
 30
0.0
 11
4733.8004705108623966
 21
231.7843900858850077
 31
0.0
  0
LINE
  5
B82C
  8
0
 10
4733.7889871703337121
 20
231.7343900858103041
 30
0.0
 11
4733.8319732812497023
 21
231.7343900859102916
 31
0.0
  0
ARC
  5
B82D
  8
0
 10
4733.8319732812324219
 20
231.7422641016314913
 30
0.0
 40
0.0078740157211938
 50
270.0000001332978741
 51
351.6716323280525103
  0
LINE
  5
B82E
  8
0
 10
4733.8397642591253316
 20
231.741123581110287
 30
0.0
 11
4733.8460980386671508
 21
231.7843900857239134
 31
0.0
  0
LINE
  5
B82F
  8
0
 10
4733.9005493209260749
 20
231.784390085810287
 30
0.0
 11
4733.9065749514511481
 21
231.7413769533102936
 31
0.0
  0
ARC
  5
B830
  8
0
 10
4733.9145501259918092
 20
231.742494180825787
 30
0.0
 40
0.0080530495019784
 50
187.9745643482690127
 51
272.2157192261573186
  0
LINE
  5
B831
  8
0
 10
4733.9148614726500455
 20
231.7344471522102936
 30
0.0
 11
4734.005419978449936
 21
231.7339957281103011
 31
0.0
  0
ARC
  5
B832
  8
0
 10
4734.0062652182778038
 20
231.742180668701991
 30
0.0
 40
0.0082284678314591
 50
264.104096891806023
 51
352.0407649634746008
  0
LINE
  5
B833
  8
0
 10
4734.014414419941204
 20
231.7410412850458954
 30
0.0
 11
4734.0208869484622483
 21
231.7843900858831034
 31
0.0
  0
LINE
  5
B834
  8
0
 10
4734.120791115990869
 20
231.784390085810287
 30
0.0
 11
4734.127124894976987
 21
231.741123581110287
 31
0.0
  0
ARC
  5
B835
  8
0
 10
4734.1349158727643953
 20
231.7422641015135127
 30
0.0
 40
0.0078740155998914
 50
188.328366933496909
 51
267.7638800818759819
  0
LINE
  5
B836
  8
0
 10
4734.1346086464063774
 20
231.7343960818369055
 30
0.0
 11
4734.2271010052809288
 21
231.7343900858103041
 31
0.0
  0
ARC
  5
B837
  8
0
 10
4734.2270128661775743
 20
231.7424489284705942
 30
0.0
 40
0.008059324632097
 50
270.626615689540472
 51
352.8084799364422111
  0
LINE
  5
B838
  8
0
 10
4734.235008790037682
 20
231.741440010662302
 30
0.0
 11
4734.2412950092602841
 21
231.7843816314974958
 31
0.0
  0
LINE
  5
B839
  8
0
 10
4734.2654539674340413
 20
231.7444903288102864
 30
0.0
 11
4734.2713853100985943
 21
231.7843900858810002
 31
0.0
  0
LINE
  5
B83A
  8
0
 10
4734.2538977009962764
 20
231.7343908034733886
 30
0.0
 11
4734.2271010052809288
 21
231.7343900858103041
 31
0.0
  0
ARC
  5
B83B
  8
0
 10
4734.2536275834090702
 20
231.7463612080013036
 30
0.0
 40
0.0119734518027442
 50
271.2926857752023011
 51
351.0105681666900068
  0
LINE
  5
B83C
  8
0
 10
4734.2680275159327721
 20
231.7618024224954922
 30
0.0
 11
4734.271054689275843
 21
231.741123581110287
 31
0.0
  0
ARC
  5
B83D
  8
0
 10
4734.2788456670459709
 20
231.7422641014995861
 30
0.0
 40
0.0078740155799725
 50
188.3283668529118984
 51
264.6033112863322003
  0
LINE
  5
B83E
  8
0
 10
4734.2781051097654199
 20
231.7344249882675058
 30
0.0
 11
4734.3706035217655881
 21
231.7343900858103041
 31
0.0
  0
ARC
  5
B83F
  8
0
 10
4734.3708908393946331
 20
231.7425047550821091
 30
0.0
 40
0.0081197542333908
 50
267.9721646362949059
 51
353.1369187405242087
  0
LINE
  5
B840
  8
0
 10
4734.3852260412386386
 20
231.784390085810287
 30
0.0
 11
4734.3789524119074485
 21
231.7415344677777114
 31
0.0
  0
LINE
  5
B841
  8
0
 10
4734.6964917389659604
 20
231.784390085910303
 30
0.0
 11
4734.6901579599252727
 21
231.741123581110287
 31
0.0
  0
ARC
  5
B842
  8
0
 10
4734.6823669821333169
 20
231.7422641015213003
 30
0.0
 40
0.00787401560453
 50
274.6279499171159273
 51
351.6716330143602818
  0
LINE
  5
B843
  8
0
 10
4734.6830022983558592
 20
231.7344157580629087
 30
0.0
 11
4734.5899939823339082
 21
231.7343900858103041
 31
0.0
  0
ARC
  5
B844
  8
0
 10
4734.5901130966449273
 20
231.7422650518138028
 30
0.0
 40
0.0078758667951914
 50
188.3333695411195947
 51
269.1334277609926176
  0
LINE
  5
B845
  8
0
 10
4734.5823203868194469
 20
231.7411235828710119
 30
0.0
 11
4734.5759866146081549
 21
231.7843900867702018
 31
0.0
  0
ENDSEC
  0
EOF
