  0
SECTION
  2
HEADER
  9
$ACADVER
  1
AC1009
  9
$INSBASE
 10
4737.9504496517829466
 20
226.3693184514503969
 30
0.0
  9
$EXTMIN
 10
4733.9091539013097645
 20
223.5978056382477916
 30
-0.0000000349181948
  9
$EXTMAX
 10
4742.2482190523842291
 20
226.3768974128211937
 30
0.0000000814935746
  9
$LIMMIN
 10
0.0
 20
0.0
  9
$LIMMAX
 10
11.6929133858000007
 20
8.2677165353999982
  9
$ORTHOMODE
 70
     0
  9
$REGENMODE
 70
     1
  9
$FILLMODE
 70
     1
  9
$QTEXTMODE
 70
     0
  9
$MIRRTEXT
 70
     0
  9
$DRAGMODE
 70
     2
  9
$LTSCALE
 40
0.6431102362
  9
$OSMODE
 70
   575
  9
$ATTMODE
 70
     1
  9
$TEXTSIZE
 40
0.2
  9
$TRACEWID
 40
0.05
  9
$TEXTSTYLE
  7
STANDARD
  9
$CLAYER
  8
0
  9
$CELTYPE
  6
BYLAYER
  9
$CECOLOR
 62
   256
  9
$DIMSCALE
 40
1.0
  9
$DIMASZ
 40
0.1875
  9
$DIMEXO
 40
0.0625
  9
$DIMDLI
 40
0.4443307087
  9
$DIMRND
 40
0.0
  9
$DIMDLE
 40
0.0
  9
$DIMEXE
 40
0.125
  9
$DIMTP
 40
0.01
  9
$DIMTM
 40
0.01
  9
$DIMTXT
 40
2.0
  9
$DIMCEN
 40
0.1052362205
  9
$DIMTSZ
 40
0.0
  9
$DIMTOL
 70
     1
  9
$DIMLIM
 70
     0
  9
$DIMTIH
 70
     1
  9
$DIMTOH
 70
     1
  9
$DIMSE1
 70
     0
  9
$DIMSE2
 70
     0
  9
$DIMTAD
 70
     0
  9
$DIMZIN
 70
     0
  9
$DIMBLK
  1

  9
$DIMASO
 70
     1
  9
$DIMSHO
 70
     1
  9
$DIMPOST
  1
\X
  9
$DIMAPOST
  1

  9
$DIMALT
 70
     1
  9
$DIMALTD
 70
     2
  9
$DIMALTF
 40
25.3999999999999986
  9
$DIMLFAC
 40
1.0
  9
$DIMTOFL
 70
     0
  9
$DIMTVP
 40
0.0
  9
$DIMTIX
 70
     0
  9
$DIMSOXD
 70
     0
  9
$DIMSAH
 70
     0
  9
$DIMBLK1
  1

  9
$DIMBLK2
  1

  9
$DIMSTYLE
  2
STANDARD
  9
$DIMCLRD
 70
     0
  9
$DIMCLRE
 70
     0
  9
$DIMCLRT
 70
     0
  9
$DIMTFAC
 40
1.0
  9
$DIMGAP
 40
0.09
  9
$LUNITS
 70
     2
  9
$LUPREC
 70
     4
  9
$SKETCHINC
 40
0.1
  9
$FILLETRAD
 40
0.0
  9
$AUNITS
 70
     0
  9
$AUPREC
 70
     0
  9
$MENU
  1
.
  9
$ELEVATION
 40
0.0
  9
$PELEVATION
 40
0.0
  9
$THICKNESS
 40
0.0
  9
$LIMCHECK
 70
     0
  9
$BLIPMODE
 70
     0
  9
$CHAMFERA
 40
0.0
  9
$CHAMFERB
 40
0.0
  9
$SKPOLY
 70
     0
  9
$TDCREATE
 40
2458060.468368056230247
  9
$TDUPDATE
 40
2459579.9972222219221294
  9
$TDINDWG
 40
0.4241042824
  9
$TDUSRTIMER
 40
0.4241042824
  9
$USRTIMER
 70
     1
  9
$ANGBASE
 50
0.0
  9
$ANGDIR
 70
     0
  9
$PDMODE
 70
     0
  9
$PDSIZE
 40
0.3125
  9
$PLINEWID
 40
0.0
  9
$COORDS
 70
     1
  9
$SPLFRAME
 70
     0
  9
$SPLINETYPE
 70
     6
  9
$SPLINESEGS
 70
     8
  9
$ATTDIA
 70
     1
  9
$ATTREQ
 70
     1
  9
$HANDLING
 70
     1
  9
$HANDSEED
  5
AF9A
  9
$SURFTAB1
 70
     6
  9
$SURFTAB2
 70
     6
  9
$SURFTYPE
 70
     6
  9
$SURFU
 70
     6
  9
$SURFV
 70
     6
  9
$UCSNAME
  2

  9
$UCSORG
 10
0.0
 20
0.0
 30
0.0
  9
$UCSXDIR
 10
1.0
 20
0.0
 30
0.0
  9
$UCSYDIR
 10
0.0
 20
1.0
 30
0.0
  9
$PUCSNAME
  2

  9
$PUCSORG
 10
0.0
 20
0.0
 30
0.0
  9
$PUCSXDIR
 10
1.0
 20
0.0
 30
0.0
  9
$PUCSYDIR
 10
0.0
 20
1.0
 30
0.0
  9
$USERI1
 70
     0
  9
$USERI2
 70
     0
  9
$USERI3
 70
     0
  9
$USERI4
 70
     0
  9
$USERI5
 70
     0
  9
$USERR1
 40
0.0
  9
$USERR2
 40
0.0
  9
$USERR3
 40
0.0
  9
$USERR4
 40
0.0
  9
$USERR5
 40
0.0
  9
$WORLDVIEW
 70
     1
  9
$SHADEDGE
 70
     3
  9
$SHADEDIF
 70
    70
  9
$TILEMODE
 70
     1
  9
$MAXACTVP
 70
    64
  9
$PLIMCHECK
 70
     0
  9
$PEXTMIN
 10
1.0000000000000000E+20
 20
1.0000000000000000E+20
 30
1.0000000000000000E+20
  9
$PEXTMAX
 10
-1.0000000000000000E+20
 20
-1.0000000000000000E+20
 30
-1.0000000000000000E+20
  9
$PLIMMIN
 10
0.0
 20
0.0
  9
$PLIMMAX
 10
12.0
 20
9.0
  9
$UNITMODE
 70
     0
  9
$VISRETAIN
 70
     1
  9
$PLINEGEN
 70
     0
  9
$PSLTSCALE
 70
     1
  0
ENDSEC
  0
SECTION
  2
TABLES
  0
TABLE
  2
VPORT
 70
     1
  0
VPORT
  2
*ACTIVE
 70
     0
 10
0.0
 20
0.0
 11
1.0
 21
1.0
 12
934.5346190687996568
 22
98.9920893266232724
 13
0.0
 23
0.0
 14
1.0
 24
1.0
 15
0.0
 25
0.0
 16
0.0
 26
0.0
 36
17.1152628219792007
 17
3803.5440673828129547
 27
125.9952621967499056
 37
0.0
 40
5.5255040607621453
 41
2.469551282051281
 42
50.0
 43
0.0
 44
0.0
 50
0.0
 51
0.0
 71
     0
 72
   100
 73
     1
 74
     1
 75
     0
 76
     0
 77
     0
 78
     0
  0
ENDTAB
  0
TABLE
  2
LTYPE
 70
     2
  0
LTYPE
  2
CONTINUOUS
 70
     0
  3
Solid line
 72
    65
 73
     0
 40
0.0
  0
LTYPE
  2
PHANTOM2
 70
     0
  3
___ _ _ ___ _ _ ___ _ _ ___ _ _
 72
    65
 73
     6
 40
1.25
 49
0.625
 49
-0.125
 49
0.125
 49
-0.125
 49
0.125
 49
-0.125
  0
ENDTAB
  0
TABLE
  2
LAYER
 70
     2
  0
LAYER
  2
0
 70
     0
 62
   255
  6
CONTINUOUS
  0
LAYER
  2
DEFPOINTS
 70
     0
 62
     7
  6
CONTINUOUS
  0
ENDTAB
  0
TABLE
  2
STYLE
 70
     1
  0
STYLE
  2
STANDARD
 70
     0
 40
0.0
 41
0.8
 50
0.0
 71
     0
 42
0.2
  3
txt
  4

  0
ENDTAB
  0
TABLE
  2
VIEW
 70
     0
  0
ENDTAB
  0
TABLE
  2
UCS
 70
     0
  0
ENDTAB
  0
TABLE
  2
APPID
 70
     9
  0
APPID
  2
ACAD
 70
     0
  0
APPID
  2
ACAD_MLEADERVER
 70
     0
  0
APPID
  2
ACAD_EXEMPT_FROM_CAD_STANDARDS
 70
     0
  0
APPID
  2
ACAD_NAV_VCDISPLAY
 70
     0
  0
APPID
  2
ACAECLAYERSTANDARD
 70
     0
  0
APPID
  2
ACCMTRANSPARENCY
 70
     0
  0
APPID
  2
ACAD_DSTYLE_DIMJAG
 70
     0
  0
APPID
  2
ACAD_DSTYLE_DIMTALN
 70
     0
  0
APPID
  2
ACDBATTR
 70
     0
  0
ENDTAB
  0
TABLE
  2
DIMSTYLE
 70
     1
  0
DIMSTYLE
  2
STANDARD
 70
     0
  3

  4

  5

  6

  7

 40
1.0
 41
0.1875
 42
0.0625
 43
0.38
 44
0.125
 45
0.0
 46
0.0
 47
0.01
 48
0.01
140
0.15625
141
0.09
142
0.0
143
25.3999999999999986
144
1.0
145
0.0
146
1.0
147
0.09
 71
     1
 72
     0
 73
     1
 74
     1
 75
     0
 76
     0
 77
     0
 78
     4
170
     0
171
     2
172
     0
173
     0
174
     0
175
     0
176
     0
177
     0
178
     0
  0
ENDTAB
  0
ENDSEC
  0
SECTION
  2
BLOCKS
  0
BLOCK
  8
0
  2
$MODEL_SPACE
 70
     0
 10
0.0
 20
0.0
 30
0.0
  3
$MODEL_SPACE
  1

  0
ENDBLK
  5
21
  8
0
  0
BLOCK
 67
     1
  8
0
  2
$PAPER_SPACE
 70
     0
 10
0.0
 20
0.0
 30
0.0
  3
$PAPER_SPACE
  1

  0
ENDBLK
  5
1D
 67
     1
  8
0
  0
ENDSEC
  0
SECTION
  2
ENTITIES
  0
ATTDEF
  5
3930
  8
DEFPOINTS
 10
4737.9504698076452769
 20
226.3728104507817136
 30
0.0
 40
0.001
  1
K-13688
  3

  2
MODELNUMBER
 70
     0
1001
ACDBATTR
1070
     0
1070
     1
  0
ATTDEF
  5
3931
  8
DEFPOINTS
 10
4737.9504698076452769
 20
226.3711437841151053
 30
0.0
 40
0.001
  1

  3

  2
TRADENAME
 70
     0
1001
ACDBATTR
1070
     0
1070
     1
  0
ATTDEF
  5
3932
  8
DEFPOINTS
 10
4737.9504698076452769
 20
226.3694771174484117
 30
0.0
 40
0.001
  1
SHOWERHEAD
  3

  2
PRODUCT
 70
     0
1001
ACDBATTR
1070
     0
1070
     1
  0
LINE
  5
AE02
  8
0
 10
4737.4754521859831584
 20
226.3693184514503969
 30
0.0
 11
4738.4254461809832719
 21
226.3693184514503969
 31
0.0
  0
ARC
  5
AE03
  8
0
 10
4738.4254461809832719
 20
226.3493124455488896
 30
0.0
 40
0.0200060059015006
 50
0.0172004754481156
 51
90.0
  0
LINE
  5
AE04
  8
0
 10
4738.4454521859815941
 20
226.3493184514503866
 30
0.0
 11
4738.4456716888562369
 21
225.6181416910982875
 31
0.0
  0
ARC
  5
AE05
  8
0
 10
4738.2159108548075892
 20
225.6180727157612864
 30
0.0
 40
0.2297608444018409
 50
292.4412592955943069
 51
0.0172004754481156
  0
ARC
  5
AE06
  8
0
 10
4738.3303126914406675
 20
225.3410793776727985
 30
0.0
 40
0.0699274763085503
 50
112.4412592955943069
 51
230.6455713618379093
  0
ARC
  5
AE07
  8
0
 10
4737.9725353529165659
 20
224.904807109288214
 30
0.0
 40
0.4942871248161518
 50
32.9929442907491079
 51
50.6455713618378809
  0
LINE
  5
AE08
  8
0
 10
4737.4554521859818124
 20
226.3493184514503866
 30
0.0
 11
4737.4554521859818124
 21
225.6181416910982875
 31
0.0
  0
ARC
  5
AE09
  8
0
 10
4737.6854521851309983
 20
225.6181416576322079
 30
0.0
 40
0.2299999991491599
 50
179.9999916632021097
 51
247.4596896791200038
  0
ARC
  5
AE0A
  8
0
 10
4737.5704521828729412
 20
225.3410586357717875
 30
0.0
 40
0.0700000033891058
 50
309.4531641212471982
 51
67.4596879280051382
  0
ARC
  5
AE0B
  8
0
 10
4737.9906187038131975
 20
224.8494134015581096
 30
0.0
 40
0.5767398697790781
 50
130.6468280986385082
 51
145.7549661072090998
  0
ARC
  5
AE0C
  8
0
 10
4737.4754521859831584
 20
226.3493184514503866
 30
0.0
 40
0.0200000000000009
 50
90.0
 51
179.9999999999967031
  0
ARC
  5
AE0D
  8
0
 10
4737.9504521859826127
 20
225.7389656863701077
 30
0.0
 40
0.5044949011127114
 50
68.8000592450792965
 51
111.1999407549207035
  0
ARC
  5
AE0E
  8
0
 10
4738.1191998395834162
 20
226.1740255081757027
 30
0.0
 40
0.0378549766068966
 50
50.787193327710682
 51
68.7994770472071053
  0
ARC
  5
AE0F
  8
0
 10
4738.1359325891398839
 20
226.1945325258764115
 30
0.0
 40
0.0113875875640743
 50
3.2408930647849288
 51
50.787193327710682
  0
LINE
  5
AE10
  8
0
 10
4738.1473019641816791
 20
226.1951763128504069
 30
0.0
 11
4738.1473019641816791
 21
225.6181416581503925
 31
0.0
  0
ARC
  5
AE11
  8
0
 10
4738.0391625385918815
 20
225.6210006276205036
 30
0.0
 40
0.1081772114337881
 50
309.605148013757173
 51
358.4855779028163738
  0
ARC
  5
AE12
  8
0
 10
4737.9802212833283193
 20
225.6879484491946926
 30
0.0
 40
0.1973511333488878
 50
287.4387694615857072
 51
310.3985882429141157
  0
ARC
  5
AE13
  8
0
 10
4737.9534650980058359
 20
225.7604390870363034
 30
0.0
 40
0.2745547299587434
 50
269.3712340723002967
 51
288.2322096442889006
  0
ARC
  5
AE14
  8
0
 10
4737.7817045323827188
 20
226.1740255081757027
 30
0.0
 40
0.0378549766068966
 50
111.2005229527928947
 51
129.2128066722893038
  0
ARC
  5
AE15
  8
0
 10
4737.764971782826251
 20
226.1945325258764115
 30
0.0
 40
0.0113875875640743
 50
129.2128066722893038
 51
176.759106935215101
  0
LINE
  5
AE16
  8
0
 10
4737.7536024077817274
 20
226.1951763128504069
 30
0.0
 11
4737.7536024077817274
 21
225.6181416581503925
 31
0.0
  0
ARC
  5
AE17
  8
0
 10
4737.8617418333924434
 20
225.6210006276295132
 30
0.0
 40
0.1081772114526434
 50
181.5144221017231132
 51
230.3948519817091949
  0
ARC
  5
AE18
  8
0
 10
4737.9206830886369062
 20
225.6879484491946926
 30
0.0
 40
0.1973511333488878
 50
229.6014117570859128
 51
252.5612305384142928
  0
ARC
  5
AE19
  8
0
 10
4737.9474392739593895
 20
225.7604390870363034
 30
0.0
 40
0.2745547299587434
 50
251.7677903557112131
 51
270.6287659276997033
  0
LINE
  5
AE1A
  8
0
 10
4737.2614732737820304
 20
225.1739641207504121
 30
0.0
 11
4738.6394260296829088
 21
225.1739641207504121
 31
0.0
  0
LINE
  5
AE1B
  8
0
 10
4738.6394260296829088
 20
225.1739641207504121
 30
0.0
 11
4738.6394260296829088
 21
224.7015231758504115
 31
0.0
  0
LINE
  5
AE1C
  8
0
 10
4738.6394260296829088
 20
224.7015231758504115
 30
0.0
 11
4738.6689504972828217
 21
224.7015231758504115
 31
0.0
  0
LINE
  5
AE1D
  8
0
 10
4738.6689504972828217
 20
224.7015231758504115
 30
0.0
 11
4738.6689534869283307
 21
224.1304286876504079
 31
0.0
  0
LINE
  5
AE1E
  8
0
 10
4737.2614732737820304
 20
225.1739641207504121
 30
0.0
 11
4737.2614732737820304
 21
224.7015231758504115
 31
0.0
  0
LINE
  5
AE1F
  8
0
 10
4737.2614732737820304
 20
224.7015231758504115
 30
0.0
 11
4737.231948806183027
 21
224.7015231758504115
 31
0.0
  0
LINE
  5
AE20
  8
0
 10
4737.231948806183027
 20
224.7015231758504115
 30
0.0
 11
4737.2319458165384276
 21
224.1304286876504079
 31
0.0
  0
LINE
  5
AE21
  8
0
 10
4733.9543866596832231
 20
224.1304286876504079
 30
0.0
 11
4741.9465126438826701
 21
224.1304286876504079
 31
0.0
  0
LINE
  5
AE22
  8
0
 10
4741.9465126438826701
 20
224.1304286876504079
 30
0.0
 11
4741.9465126438826701
 21
223.6879090026504002
 31
0.0
  0
ARC
  5
AE23
  8
0
 10
4741.9165913840815847
 20
223.6879090026504002
 30
0.0
 40
0.0299212598000001
 50
269.9999998084949766
 51
0.0
  0
LINE
  5
AE24
  8
0
 10
4741.9165913839824498
 20
223.6579877428503949
 30
0.0
 11
4733.9843085800821427
 21
223.6579877760715078
 31
0.0
  0
ARC
  5
AE25
  8
0
 10
4733.9843085801830966
 20
223.68790969657951
 30
0.0
 40
0.029921920508049
 50
180.001328765268596
 51
269.9999998084949766
  0
LINE
  5
AE26
  8
0
 10
4733.9543866596832231
 20
223.6879090026504002
 30
0.0
 11
4733.9543866596832231
 21
224.1304286876504079
 31
0.0
  0
LINE
  5
AE27
  8
0
 10
4738.0107022195916215
 20
223.657987759208595
 30
0.0
 11
4738.0043684405909516
 21
223.6147212546086109
 31
0.0
  0
ARC
  5
AE28
  8
0
 10
4737.996577442349917
 20
223.6158617780114071
 30
0.0
 40
0.0078740362735157
 50
270.1206964461431994
 51
351.671633029106772
  0
LINE
  5
AE29
  8
0
 10
4737.9965940293923268
 20
223.607987759208612
 30
0.0
 11
4737.904305278791071
 21
223.607987759208612
 31
0.0
  0
ARC
  5
AE2A
  8
0
 10
4737.9043218792730841
 20
223.6158617935161033
 30
0.0
 40
0.0078740518065056
 50
188.3284645243429054
 51
269.8792059938990064
  0
LINE
  5
AE2B
  8
0
 10
4737.8965308676051791
 20
223.6147212545982086
 30
0.0
 11
4737.8901970886181516
 21
223.6579877597133077
 31
0.0
  0
LINE
  5
AE2C
  8
0
 10
4737.5655322715338116
 20
223.6579877610730023
 30
0.0
 11
4737.5718660508082394
 21
223.6147212546086109
 31
0.0
  0
ARC
  5
AE2D
  8
0
 10
4737.5796570490501836
 20
223.6158617780114071
 30
0.0
 40
0.0078740362735157
 50
188.3283669708931996
 51
269.8793035538568006
  0
LINE
  5
AE2E
  8
0
 10
4737.5796404620077737
 20
223.607987759208612
 30
0.0
 11
4737.67192921260812
 21
223.607987759208612
 31
0.0
  0
ARC
  5
AE2F
  8
0
 10
4737.671912612126107
 20
223.6158617935161033
 30
0.0
 40
0.0078740518065056
 50
270.1207940061009936
 51
351.6715354756569809
  0
LINE
  5
AE30
  8
0
 10
4737.6797036237949214
 20
223.6147212545982086
 30
0.0
 11
4737.6860374029083687
 21
223.6579877605682896
 31
0.0
  0
LINE
  5
AE31
  8
0
 10
4737.7536024077817274
 20
226.1951763128504069
 30
0.0
 11
4738.1473019641816791
 21
226.1951763128504069
 31
0.0
  0
LINE
  5
AE32
  8
0
 10
4734.6405415665021792
 20
223.6579877733231001
 30
0.0
 11
4734.6449803025816436
 21
223.6166257759504106
 31
0.0
  0
ARC
  5
AE33
  8
0
 10
4734.6528093661409002
 20
223.6174659468584878
 30
0.0
 40
0.0078740157066383
 50
186.1252179891856997
 51
268.000000356334624
  0
LINE
  5
AE34
  8
0
 10
4734.6525345670042952
 20
223.609596727787789
 30
0.0
 11
4734.7446851673121273
 21
223.6063787584897113
 31
0.0
  0
ARC
  5
AE35
  8
0
 10
4734.7449599664541893
 20
223.614247977741087
 30
0.0
 40
0.007874015887376
 50
268.000000356334624
 51
349.8747764446981137
  0
LINE
  5
AE36
  8
0
 10
4734.7527113514897792
 20
223.6128637247958011
 30
0.0
 11
4734.7548377534376414
 21
223.6247709129268912
 31
0.0
  0
LINE
  5
AE37
  8
0
 10
4734.7512731075312331
 20
223.6579877728593999
 30
0.0
 11
4734.7557118430522678
 21
223.6166257807009003
 31
0.0
  0
ARC
  5
AE38
  8
0
 10
4734.7635409066106149
 20
223.617465951609006
 30
0.0
 40
0.0078740157066383
 50
186.1252179891856997
 51
268.000000356334624
  0
LINE
  5
AE39
  8
0
 10
4734.7632661074731004
 20
223.6095967325383072
 30
0.0
 11
4734.855416707781842
 21
223.6063787632402011
 31
0.0
  0
ARC
  5
AE3A
  8
0
 10
4734.8556915069248134
 20
223.6142479824916052
 30
0.0
 40
0.007874015887376
 50
268.000000356334624
 51
349.8747764446981137
  0
LINE
  5
AE3B
  8
0
 10
4734.8634428919604034
 20
223.6128637295462056
 30
0.0
 11
4734.8715012052643942
 21
223.6579877723557956
 31
0.0
  0
LINE
  5
AE3C
  8
0
 10
4735.0759407502755494
 20
223.6579877714995916
 30
0.0
 11
4735.0803794856592503
 21
223.6166257806222006
 31
0.0
  0
ARC
  5
AE3D
  8
0
 10
4735.088208549216688
 20
223.6174659515303915
 30
0.0
 40
0.0078740157066383
 50
186.1252179891856997
 51
268.000000356334624
  0
LINE
  5
AE3E
  8
0
 10
4735.0879337500809925
 20
223.6095967324596927
 30
0.0
 11
4735.180084350387915
 21
223.6063787631615867
 31
0.0
  0
ARC
  5
AE3F
  8
0
 10
4735.1803591495308865
 20
223.6142479824129907
 30
0.0
 40
0.007874015887376
 50
268.000000356334624
 51
349.8747764446981137
  0
LINE
  5
AE40
  8
0
 10
4735.1881105345682954
 20
223.6128637294675912
 30
0.0
 11
4735.1961688476421841
 21
223.6579877709961011
 31
0.0
  0
LINE
  5
AE41
  8
0
 10
4735.2909680649490838
 20
223.6579877705989929
 30
0.0
 11
4735.296337704789039
 21
223.6156741289015031
 31
0.0
  0
ARC
  5
AE42
  8
0
 10
4735.3041490751902529
 20
223.6166653989513975
 30
0.0
 40
0.0078740157392793
 50
187.2322299297308916
 51
268.9999999407137921
  0
LINE
  5
AE43
  8
0
 10
4735.3040116546599165
 20
223.6087925824629963
 30
0.0
 11
4735.3963675265567872
 21
223.6071805046269105
 31
0.0
  0
ARC
  5
AE44
  8
0
 10
4735.3965022012453119
 20
223.6148960118204059
 30
0.0
 40
0.0077166824817647
 50
268.9999999406617235
 51
306.0712668405287786
  0
LINE
  5
AE45
  8
0
 10
4735.3803341049797382
 20
223.6579877702247927
 30
0.0
 11
4735.3857037454763486
 21
223.6156741233639025
 31
0.0
  0
ARC
  5
AE46
  8
0
 10
4735.3935151158775625
 20
223.6166653934137969
 30
0.0
 40
0.0078740157392793
 50
187.2322299297308916
 51
268.9999999407137921
  0
LINE
  5
AE47
  8
0
 10
4735.3933776953481356
 20
223.6087925769253957
 30
0.0
 11
4735.4857335672440968
 21
223.6071804990891962
 31
0.0
  0
ARC
  5
AE48
  8
0
 10
4735.4858682419326215
 20
223.6148960062826916
 30
0.0
 40
0.0077166824817647
 50
268.9999999406617235
 51
351.7778758793259044
  0
LINE
  5
AE49
  8
0
 10
4735.493505605271821
 20
223.6137924349245054
 30
0.0
 11
4735.499891671180194
 21
223.6579877697240022
 31
0.0
  0
LINE
  5
AE4A
  8
0
 10
4735.592402883307841
 20
223.6579877693365859
 30
0.0
 11
4735.5977725229877251
 21
223.6156741289015031
 31
0.0
  0
ARC
  5
AE4B
  8
0
 10
4735.605583893390758
 20
223.6166653989513975
 30
0.0
 40
0.0078740157392793
 50
187.2322299297308916
 51
268.9999999407137921
  0
LINE
  5
AE4C
  8
0
 10
4735.6054464728586026
 20
223.6087925824629963
 30
0.0
 11
4735.6978023447582018
 21
223.6071805046269105
 31
0.0
  0
ARC
  5
AE4D
  8
0
 10
4735.6979370194449075
 20
223.6148960118204059
 30
0.0
 40
0.0077166824817647
 50
268.9999999406617235
 51
351.7778758793259044
  0
LINE
  5
AE4E
  8
0
 10
4735.7055743827850165
 20
223.6137924404621913
 30
0.0
 11
4735.7119604477647954
 21
223.657987768835909
 31
0.0
  0
LINE
  5
AE4F
  8
0
 10
4735.7595615308282504
 20
223.6579877686365876
 30
0.0
 11
4735.7525037860832526
 21
223.6139178654503894
 31
0.0
  0
ARC
  5
AE50
  8
0
 10
4735.7446945055817196
 20
223.6151819800641931
 30
0.0
 40
0.0079109321635732
 50
275.3515563593629167
 51
350.8050963549280254
  0
LINE
  5
AE51
  8
0
 10
4735.7454323307829327
 20
223.607305530250386
 30
0.0
 11
4735.7022995987035756
 21
223.6085308652606045
 31
0.0
  0
LINE
  5
AE52
  8
0
 10
4735.9413781850043961
 20
223.6579877678751131
 30
0.0
 11
4735.9477119676830625
 21
223.6147212381503948
 31
0.0
  0
ARC
  5
AE53
  8
0
 10
4735.9555029659240972
 20
223.6158617615531909
 30
0.0
 40
0.0078740362735157
 50
188.3283669708931996
 51
269.8793035538568006
  0
LINE
  5
AE54
  8
0
 10
4735.9554863788825969
 20
223.6079877427503959
 30
0.0
 11
4736.0477751294829432
 21
223.6079877427503959
 31
0.0
  0
ARC
  5
AE55
  8
0
 10
4736.0477585290009301
 20
223.6158617770578871
 30
0.0
 40
0.0078740518065056
 50
270.1207940061009936
 51
351.6715354756569809
  0
LINE
  5
AE56
  8
0
 10
4736.0555495406697446
 20
223.6147212381399925
 30
0.0
 11
4736.0570105015503941
 21
223.6247011682181096
 31
0.0
  0
LINE
  5
AE57
  8
0
 10
4736.0521376798396886
 20
223.657987767411214
 30
0.0
 11
4736.0584685577669006
 21
223.6147410802562092
 31
0.0
  0
ARC
  5
AE58
  8
0
 10
4736.0662595560070258
 20
223.6158816036590053
 30
0.0
 40
0.0078740362735157
 50
188.3283669708931996
 51
269.8793035538568006
  0
LINE
  5
AE59
  8
0
 10
4736.066242968966435
 20
223.6080075848562103
 30
0.0
 11
4736.1585317195658718
 21
223.6080075848562103
 31
0.0
  0
ARC
  5
AE5A
  8
0
 10
4736.1585151190847682
 20
223.6158816191637015
 30
0.0
 40
0.0078740518065056
 50
270.1207940061009936
 51
351.6715354756569809
  0
LINE
  5
AE5B
  8
0
 10
4736.1663061307535827
 20
223.6147410802458069
 30
0.0
 11
4736.1726370085179951
 21
223.6579877669065866
 31
0.0
  0
LINE
  5
AE5C
  8
0
 10
4736.2024704100649615
 20
223.6579877667815879
 30
0.0
 11
4736.2088041925862854
 21
223.614721238126009
 31
0.0
  0
ARC
  5
AE5D
  8
0
 10
4736.2165951705028419
 20
223.6158617585857087
 30
0.0
 40
0.0078740157366753
 50
188.3283672034702079
 51
265.930581115717473
  0
LINE
  5
AE5E
  8
0
 10
4736.2160363905122722
 20
223.6080075948019044
 30
0.0
 11
4736.2792446181983905
 21
223.6080075950131913
 31
0.0
  0
LINE
  5
AE5F
  8
0
 10
4736.2651393306887257
 20
223.6579877665191134
 30
0.0
 11
4736.2714702069988562
 21
223.614741090413105
 31
0.0
  0
ARC
  5
AE60
  8
0
 10
4736.2792612052408003
 20
223.6158816138159011
 30
0.0
 40
0.0078740362735157
 50
188.3283669708931996
 51
269.8793035538568006
  0
LINE
  5
AE61
  8
0
 10
4736.2792446181983905
 20
223.6080075950131913
 30
0.0
 11
4736.3715333687987368
 21
223.6080075950131913
 31
0.0
  0
ARC
  5
AE62
  8
0
 10
4736.3715167683167238
 20
223.6158816293205973
 30
0.0
 40
0.0078740518065056
 50
270.1207940061009936
 51
351.6715354756569809
  0
LINE
  5
AE63
  8
0
 10
4736.3793077799846287
 20
223.6147410904027879
 30
0.0
 11
4736.3856386561328691
 21
223.6579877660144859
 31
0.0
  0
LINE
  5
AE64
  8
0
 10
4736.5906271027197363
 20
223.6579877651560082
 30
0.0
 11
4736.5969579787033581
 21
223.6147410912716964
 31
0.0
  0
ARC
  5
AE65
  8
0
 10
4736.6047489769462118
 20
223.6158816146744073
 30
0.0
 40
0.0078740362735157
 50
188.3283669708931996
 51
269.8793035538568006
  0
LINE
  5
AE66
  8
0
 10
4736.6047323899028925
 20
223.6080075958716975
 30
0.0
 11
4736.6970211405032387
 21
223.6080075958716975
 31
0.0
  0
ARC
  5
AE67
  8
0
 10
4736.6970045400221352
 20
223.6158816301791887
 30
0.0
 40
0.0078740518065056
 50
270.1207940061009936
 51
351.6715354756569809
  0
LINE
  5
AE68
  8
0
 10
4736.7047955516900402
 20
223.6147410912612941
 30
0.0
 11
4736.7111264275126814
 21
223.6579877646512955
 31
0.0
  0
LINE
  5
AE69
  8
0
 10
4736.7650517808269797
 20
223.6579877644255134
 30
0.0
 11
4736.7713826565914133
 21
223.6147410920378036
 31
0.0
  0
ARC
  5
AE6A
  8
0
 10
4736.7791736548333574
 20
223.6158816154405997
 30
0.0
 40
0.0078740362735157
 50
188.3283669708931996
 51
269.8793035538568006
  0
LINE
  5
AE6B
  8
0
 10
4736.7791570677909476
 20
223.6080075966378047
 30
0.0
 11
4736.8714458183912939
 21
223.6080075966378047
 31
0.0
  0
ARC
  5
AE6C
  8
0
 10
4736.8714292179092809
 20
223.6158816309452959
 30
0.0
 40
0.0078740518065056
 50
270.1207940061009936
 51
351.6715354756569809
  0
LINE
  5
AE6D
  8
0
 10
4736.8792202295771858
 20
223.6147410920274012
 30
0.0
 11
4736.8855511051806388
 21
223.6579877639208007
 31
0.0
  0
LINE
  5
AE6E
  8
0
 10
4736.9157934438690063
 20
223.6579877637942104
 30
0.0
 11
4736.9221243212659829
 21
223.6147410802562092
 31
0.0
  0
ARC
  5
AE6F
  8
0
 10
4736.9299153195079271
 20
223.6158816036590053
 30
0.0
 40
0.0078740362735157
 50
188.3283669708931996
 51
269.8793035538568006
  0
LINE
  5
AE70
  8
0
 10
4736.9298987324664267
 20
223.6080075848562103
 30
0.0
 11
4737.0221874830658635
 21
223.6080075848562103
 31
0.0
  0
ARC
  5
AE71
  8
0
 10
4737.02217088258476
 20
223.6158816191637015
 30
0.0
 40
0.0078740518065056
 50
270.1207940061009936
 51
351.6715354756569809
  0
LINE
  5
AE72
  8
0
 10
4737.0299618942526649
 20
223.6147410802458069
 30
0.0
 11
4737.0362927714886609
 21
223.6579877632894977
 31
0.0
  0
LINE
  5
AE73
  8
0
 10
4737.0489209175502765
 20
223.6579877632366049
 30
0.0
 11
4737.055251794866308
 21
223.6147410802562092
 31
0.0
  0
ARC
  5
AE74
  8
0
 10
4737.0630427931082522
 20
223.6158816036590053
 30
0.0
 40
0.0078740362735157
 50
188.3283669708931996
 51
269.8793035538568006
  0
LINE
  5
AE75
  8
0
 10
4737.0630262060658424
 20
223.6080075848562103
 30
0.0
 11
4737.1553149566661887
 21
223.6080075848562103
 31
0.0
  0
ARC
  5
AE76
  8
0
 10
4737.1552983561841756
 20
223.6158816191637015
 30
0.0
 40
0.0078740518065056
 50
270.1207940061009936
 51
351.6715354756569809
  0
LINE
  5
AE77
  8
0
 10
4737.1630893678538996
 20
223.6147410802458069
 30
0.0
 11
4737.1694202450080411
 21
223.6579877627320059
 31
0.0
  0
LINE
  5
AE78
  8
0
 10
4737.2175314457872446
 20
223.657987762530496
 30
0.0
 11
4737.2238652276819266
 21
223.6147212381503948
 31
0.0
  0
ARC
  5
AE79
  8
0
 10
4737.2316562259247803
 20
223.6158617615531909
 30
0.0
 40
0.0078740362735157
 50
188.3283669708931996
 51
269.8793035538568006
  0
LINE
  5
AE7A
  8
0
 10
4737.23163963888328
 20
223.6079877427503959
 30
0.0
 11
4737.3239283894818072
 21
223.6079877427503959
 31
0.0
  0
ARC
  5
AE7B
  8
0
 10
4737.3239117889997942
 20
223.6158617770578871
 30
0.0
 40
0.0078740518065056
 50
270.1207940061009936
 51
351.6715354756569809
  0
LINE
  5
AE7C
  8
0
 10
4737.3317028006686087
 20
223.6147212381399925
 30
0.0
 11
4737.3380365824041291
 21
223.6579877620258117
 31
0.0
  0
LINE
  5
AE7D
  8
0
 10
4737.3611700938026843
 20
223.6579877619288936
 30
0.0
 11
4737.3552549969826941
 21
223.618087993811713
 31
0.0
  0
ARC
  5
AE7E
  8
0
 10
4737.3435685309586916
 20
223.6197987639882001
 30
0.0
 40
0.0118110212388401
 50
269.9329646983624116
 51
351.6716826590208029
  0
LINE
  5
AE7F
  8
0
 10
4737.3435547122244316
 20
223.607987750833189
 30
0.0
 11
4737.3239283894818072
 21
223.6079877427503959
 31
0.0
  0
LINE
  5
AE80
  8
0
 10
4737.6404521862614274
 20
225.3410586357717875
 30
0.0
 11
4738.2603852182082846
 21
225.3410586357717875
 31
0.0
  0
LINE
  5
AE81
  8
0
 10
4738.3353660954298903
 20
223.6579877610730023
 30
0.0
 11
4738.3290323161572815
 21
223.6147212546086109
 31
0.0
  0
ARC
  5
AE82
  8
0
 10
4738.3212413179162468
 20
223.6158617780114071
 30
0.0
 40
0.0078740362735157
 50
270.1206964461431994
 51
351.671633029106772
  0
LINE
  5
AE83
  8
0
 10
4738.3212579049568376
 20
223.607987759208612
 30
0.0
 11
4738.2289691543574008
 21
223.607987759208612
 31
0.0
  0
ARC
  5
AE84
  8
0
 10
4738.2289857548394139
 20
223.6158617935161033
 30
0.0
 40
0.0078740518065056
 50
188.3284645243429054
 51
269.8792059938990064
  0
LINE
  5
AE85
  8
0
 10
4738.2211947431705994
 20
223.6147212545982086
 30
0.0
 11
4738.2148609640589711
 21
223.6579877605682896
 31
0.0
  0
LINE
  5
AE86
  8
0
 10
4741.2603568004633416
 20
223.6579877733231001
 30
0.0
 11
4741.2559180643829677
 21
223.6166257759504106
 31
0.0
  0
ARC
  5
AE87
  8
0
 10
4741.2480890008246206
 20
223.6174659468584878
 30
0.0
 40
0.0078740157066383
 50
271.999999643665376
 51
353.8747820108142719
  0
LINE
  5
AE88
  8
0
 10
4741.2483637999612256
 20
223.609596727787789
 30
0.0
 11
4741.1562131996533935
 21
223.6063787584897113
 31
0.0
  0
ARC
  5
AE89
  8
0
 10
4741.1559384005104221
 20
223.614247977741087
 30
0.0
 40
0.007874015887376
 50
190.1252235553018863
 51
271.999999643665376
  0
LINE
  5
AE8A
  8
0
 10
4741.1481870154748322
 20
223.6128637247958011
 30
0.0
 11
4741.14606061352697
 21
223.6247709129268912
 31
0.0
  0
LINE
  5
AE8B
  8
0
 10
4741.1496252594342877
 20
223.6579877728593999
 30
0.0
 11
4741.1451865239141625
 21
223.6166257807009003
 31
0.0
  0
ARC
  5
AE8C
  8
0
 10
4741.1373574603549059
 20
223.617465951609006
 30
0.0
 40
0.0078740157066383
 50
271.999999643665376
 51
353.8747820108142719
  0
LINE
  5
AE8D
  8
0
 10
4741.1376322594924204
 20
223.6095967325383072
 30
0.0
 11
4741.0454816591836789
 21
223.6063787632402011
 31
0.0
  0
ARC
  5
AE8E
  8
0
 10
4741.0452068600407074
 20
223.6142479824916052
 30
0.0
 40
0.007874015887376
 50
190.1252235553018863
 51
271.999999643665376
  0
LINE
  5
AE8F
  8
0
 10
4741.037455475004208
 20
223.6128637295462056
 30
0.0
 11
4741.0293971617011266
 21
223.6579877723557956
 31
0.0
  0
LINE
  5
AE90
  8
0
 10
4740.8249576166899715
 20
223.6579877714995916
 30
0.0
 11
4740.8205188813062705
 21
223.6166257806222006
 31
0.0
  0
ARC
  5
AE91
  8
0
 10
4740.8126898177488329
 20
223.6174659515303915
 30
0.0
 40
0.0078740157066383
 50
271.999999643665376
 51
353.8747820108142719
  0
LINE
  5
AE92
  8
0
 10
4740.8129646168854379
 20
223.6095967324596927
 30
0.0
 11
4740.7208140165766963
 21
223.6063787631615867
 31
0.0
  0
ARC
  5
AE93
  8
0
 10
4740.7205392174337248
 20
223.6142479824129907
 30
0.0
 40
0.007874015887376
 50
190.1252235553018863
 51
271.999999643665376
  0
LINE
  5
AE94
  8
0
 10
4740.7127878323981349
 20
223.6128637294675912
 30
0.0
 11
4740.7047295193224272
 21
223.6579877709961011
 31
0.0
  0
LINE
  5
AE95
  8
0
 10
4740.6099303020164371
 20
223.6579877705989929
 30
0.0
 11
4740.6045606621755724
 21
223.6156741289015031
 31
0.0
  0
ARC
  5
AE96
  8
0
 10
4740.5967492917752679
 20
223.6166653989513975
 30
0.0
 40
0.0078740157392793
 50
271.0000000592862079
 51
352.7677700702690231
  0
LINE
  5
AE97
  8
0
 10
4740.5968867123056043
 20
223.6087925824629963
 30
0.0
 11
4740.5045308404069146
 21
223.6071805046269105
 31
0.0
  0
ARC
  5
AE98
  8
0
 10
4740.5043961657211185
 20
223.6148960118204059
 30
0.0
 40
0.0077166824817647
 50
233.9287331594711077
 51
271.0000000593382765
  0
LINE
  5
AE99
  8
0
 10
4740.5205642619839637
 20
223.6579877702247927
 30
0.0
 11
4740.5151946214891723
 21
223.6156741233639025
 31
0.0
  0
ARC
  5
AE9A
  8
0
 10
4740.5073832510870488
 20
223.6166653934137969
 30
0.0
 40
0.0078740157392793
 50
271.0000000592862079
 51
352.7677700702690231
  0
LINE
  5
AE9B
  8
0
 10
4740.5075206716192042
 20
223.6087925769253957
 30
0.0
 11
4740.4151647997196051
 21
223.6071804990891962
 31
0.0
  0
ARC
  5
AE9C
  8
0
 10
4740.4150301250328994
 20
223.6148960062826916
 30
0.0
 40
0.0077166824817647
 50
188.2221241206740956
 51
271.0000000593382765
  0
LINE
  5
AE9D
  8
0
 10
4740.4073927616927904
 20
223.6137924349245054
 30
0.0
 11
4740.4010066957853269
 21
223.6579877697240022
 31
0.0
  0
LINE
  5
AE9E
  8
0
 10
4740.3084954836558609
 20
223.6579877693365859
 30
0.0
 11
4740.3031258439759767
 21
223.6156741289015031
 31
0.0
  0
ARC
  5
AE9F
  8
0
 10
4740.2953144735738533
 20
223.6166653989513975
 30
0.0
 40
0.0078740157392793
 50
271.0000000592862079
 51
352.7677700702690231
  0
LINE
  5
AEA0
  8
0
 10
4740.2954518941050992
 20
223.6087925824629963
 30
0.0
 11
4740.203096022207319
 21
223.6071805046269105
 31
0.0
  0
ARC
  5
AEA1
  8
0
 10
4740.2029613475197038
 20
223.6148960118204059
 30
0.0
 40
0.0077166824817647
 50
188.2221241206740956
 51
271.0000000593382765
  0
LINE
  5
AEA2
  8
0
 10
4740.1953239841795948
 20
223.6137924404621913
 30
0.0
 11
4740.188937919199816
 21
223.657987768835909
 31
0.0
  0
LINE
  5
AEA3
  8
0
 10
4740.1413368361381799
 20
223.6579877686365876
 30
0.0
 11
4740.1483945808831777
 21
223.6139178654503894
 31
0.0
  0
ARC
  5
AEA4
  8
0
 10
4740.1562038613838013
 20
223.6151819800641931
 30
0.0
 40
0.0079109321635732
 50
189.194903645072003
 51
264.6484436406370264
  0
LINE
  5
AEA5
  8
0
 10
4740.1554660361816786
 20
223.607305530250386
 30
0.0
 11
4740.1985987682610357
 21
223.6085308652606045
 31
0.0
  0
LINE
  5
AEA6
  8
0
 10
4739.9595201819611248
 20
223.6579877678751131
 30
0.0
 11
4739.9531863992815488
 21
223.6147212381503948
 31
0.0
  0
ARC
  5
AEA7
  8
0
 10
4739.9453954010423331
 20
223.6158617615531909
 30
0.0
 40
0.0078740362735157
 50
270.1206964461431994
 51
351.671633029106772
  0
LINE
  5
AEA8
  8
0
 10
4739.9454119880829239
 20
223.6079877427503959
 30
0.0
 11
4739.8531232374825777
 21
223.6079877427503959
 31
0.0
  0
ARC
  5
AEA9
  8
0
 10
4739.8531398379636812
 20
223.6158617770578871
 30
0.0
 40
0.0078740518065056
 50
188.3284645243429054
 51
269.8792059938990064
  0
LINE
  5
AEAA
  8
0
 10
4739.8453488262948667
 20
223.6147212381399925
 30
0.0
 11
4739.8438878654151267
 21
223.6247011682181096
 31
0.0
  0
LINE
  5
AEAB
  8
0
 10
4739.8487606871258322
 20
223.657987767411214
 30
0.0
 11
4739.8424298092004392
 21
223.6147410802562092
 31
0.0
  0
ARC
  5
AEAC
  8
0
 10
4739.8346388109575855
 20
223.6158816036590053
 30
0.0
 40
0.0078740362735157
 50
270.1206964461431994
 51
351.671633029106772
  0
LINE
  5
AEAD
  8
0
 10
4739.8346553979990858
 20
223.6080075848562103
 30
0.0
 11
4739.7423666473987396
 21
223.6080075848562103
 31
0.0
  0
ARC
  5
AEAE
  8
0
 10
4739.7423832478807526
 20
223.6158816191637015
 30
0.0
 40
0.0078740518065056
 50
188.3284645243429054
 51
269.8792059938990064
  0
LINE
  5
AEAF
  8
0
 10
4739.7345922362119381
 20
223.6147410802458069
 30
0.0
 11
4739.7282613584457067
 21
223.6579877669065866
 31
0.0
  0
LINE
  5
AEB0
  8
0
 10
4739.6984279568996499
 20
223.6579877667815879
 30
0.0
 11
4739.6920941743792355
 21
223.614721238126009
 31
0.0
  0
ARC
  5
AEB1
  8
0
 10
4739.6843031964626789
 20
223.6158617585857087
 30
0.0
 40
0.0078740157366753
 50
274.069418884282527
 51
351.6716327965298206
  0
LINE
  5
AEB2
  8
0
 10
4739.6848619764532486
 20
223.6080075948019044
 30
0.0
 11
4739.6216537487671303
 21
223.6080075950131913
 31
0.0
  0
LINE
  5
AEB3
  8
0
 10
4739.6357590362758856
 20
223.6579877665191134
 30
0.0
 11
4739.6294281599657552
 21
223.614741090413105
 31
0.0
  0
ARC
  5
AEB4
  8
0
 10
4739.621637161723811
 20
223.6158816138159011
 30
0.0
 40
0.0078740362735157
 50
270.1206964461431994
 51
351.671633029106772
  0
LINE
  5
AEB5
  8
0
 10
4739.6216537487671303
 20
223.6080075950131913
 30
0.0
 11
4739.5293649981658746
 21
223.6080075950131913
 31
0.0
  0
ARC
  5
AEB6
  8
0
 10
4739.5293815986487971
 20
223.6158816293205973
 30
0.0
 40
0.0078740518065056
 50
188.3284645243429054
 51
269.8792059938990064
  0
LINE
  5
AEB7
  8
0
 10
4739.5215905869799826
 20
223.6147410904027879
 30
0.0
 11
4739.5152597108317423
 21
223.6579877660144859
 31
0.0
  0
LINE
  5
AEB8
  8
0
 10
4739.3102712642457846
 20
223.6579877651560082
 30
0.0
 11
4739.3039403882621627
 21
223.6147410912716964
 31
0.0
  0
ARC
  5
AEB9
  8
0
 10
4739.2961493900202186
 20
223.6158816146744073
 30
0.0
 40
0.0078740362735157
 50
270.1206964461431994
 51
351.671633029106772
  0
LINE
  5
AEBA
  8
0
 10
4739.2961659770617189
 20
223.6080075958716975
 30
0.0
 11
4739.2038772264622821
 21
223.6080075958716975
 31
0.0
  0
ARC
  5
AEBB
  8
0
 10
4739.2038938269442951
 20
223.6158816301791887
 30
0.0
 40
0.0078740518065056
 50
188.3284645243429054
 51
269.8792059938990064
  0
LINE
  5
AEBC
  8
0
 10
4739.1961028152763902
 20
223.6147410912612941
 30
0.0
 11
4739.1897719394528394
 21
223.6579877646512955
 31
0.0
  0
LINE
  5
AEBD
  8
0
 10
4739.1358465861394507
 20
223.6579877644255134
 30
0.0
 11
4739.1295157103741076
 21
223.6147410920378036
 31
0.0
  0
ARC
  5
AEBE
  8
0
 10
4739.1217247121321634
 20
223.6158816154405997
 30
0.0
 40
0.0078740362735157
 50
270.1206964461431994
 51
351.671633029106772
  0
LINE
  5
AEBF
  8
0
 10
4739.1217412991736637
 20
223.6080075966378047
 30
0.0
 11
4739.029452548574227
 21
223.6080075966378047
 31
0.0
  0
ARC
  5
AEC0
  8
0
 10
4739.0294691490553305
 20
223.6158816309452959
 30
0.0
 40
0.0078740518065056
 50
188.3284645243429054
 51
269.8792059938990064
  0
LINE
  5
AEC1
  8
0
 10
4739.0216781373874255
 20
223.6147410920274012
 30
0.0
 11
4739.015347261783063
 21
223.6579877639208007
 31
0.0
  0
LINE
  5
AEC2
  8
0
 10
4738.9851049230946956
 20
223.6579877637942104
 30
0.0
 11
4738.9787740456986285
 21
223.6147410802562092
 31
0.0
  0
ARC
  5
AEC3
  8
0
 10
4738.9709830474566843
 20
223.6158816036590053
 30
0.0
 40
0.0078740362735157
 50
270.1206964461431994
 51
351.671633029106772
  0
LINE
  5
AEC4
  8
0
 10
4738.9709996344981846
 20
223.6080075848562103
 30
0.0
 11
4738.8787108838987479
 21
223.6080075848562103
 31
0.0
  0
ARC
  5
AEC5
  8
0
 10
4738.8787274843798514
 20
223.6158816191637015
 30
0.0
 40
0.0078740518065056
 50
188.3284645243429054
 51
269.8792059938990064
  0
LINE
  5
AEC6
  8
0
 10
4738.8709364727119464
 20
223.6147410802458069
 30
0.0
 11
4738.8646055954759504
 21
223.6579877632894977
 31
0.0
  0
LINE
  5
AEC7
  8
0
 10
4738.8519774494143348
 20
223.6579877632366049
 30
0.0
 11
4738.8456465720992128
 21
223.6147410802562092
 31
0.0
  0
ARC
  5
AEC8
  8
0
 10
4738.8378555738581781
 20
223.6158816036590053
 30
0.0
 40
0.0078740362735157
 50
270.1206964461431994
 51
351.671633029106772
  0
LINE
  5
AEC9
  8
0
 10
4738.8378721608987689
 20
223.6080075848562103
 30
0.0
 11
4738.7455834102993322
 21
223.6080075848562103
 31
0.0
  0
ARC
  5
AECA
  8
0
 10
4738.7456000107813452
 20
223.6158816191637015
 30
0.0
 40
0.0078740518065056
 50
188.3284645243429054
 51
269.8792059938990064
  0
LINE
  5
AECB
  8
0
 10
4738.7378089991107117
 20
223.6147410802458069
 30
0.0
 11
4738.7314781219565702
 21
223.6579877627320059
 31
0.0
  0
LINE
  5
AECC
  8
0
 10
4738.6833669211782762
 20
223.657987762530496
 30
0.0
 11
4738.6770331392817752
 21
223.6147212381503948
 31
0.0
  0
ARC
  5
AECD
  8
0
 10
4738.6692421410407405
 20
223.6158617615531909
 30
0.0
 40
0.0078740362735157
 50
270.1206964461431994
 51
351.671633029106772
  0
LINE
  5
AECE
  8
0
 10
4738.6692587280831503
 20
223.6079877427503959
 30
0.0
 11
4738.5769699774818946
 21
223.6079877427503959
 31
0.0
  0
ARC
  5
AECF
  8
0
 10
4738.5769865779648171
 20
223.6158617770578871
 30
0.0
 40
0.0078740518065056
 50
188.3284645243429054
 51
269.8792059938990064
  0
LINE
  5
AED0
  8
0
 10
4738.5691955662960027
 20
223.6147212381399925
 30
0.0
 11
4738.5628617845595727
 21
223.6579877620258117
 31
0.0
  0
LINE
  5
AED1
  8
0
 10
4738.5397282731619271
 20
223.6579877619288936
 30
0.0
 11
4738.5456433699828267
 21
223.618087993811713
 31
0.0
  0
ARC
  5
AED2
  8
0
 10
4738.5573298360050103
 20
223.6197987639882001
 30
0.0
 40
0.0118110212388401
 50
188.3283173409791118
 51
270.0670353016377021
  0
LINE
  5
AED3
  8
0
 10
4738.5573436547410893
 20
223.607987750833189
 30
0.0
 11
4738.5769699774818946
 21
223.6079877427503959
 31
0.0
  0
ENDSEC
  0
EOF
