  0
SECTION
  2
HEADER
  9
$ACADVER
  1
AC1009
  9
$INSBASE
 10
4747.9898195569694508
 20
226.2415106896779946
 30
0.0
  9
$EXTMIN
 10
4743.9340572636274374
 20
223.4783993147179899
 30
-0.0015258207003583
  9
$EXTMAX
 10
4752.2550928077916979
 20
226.2491622209450952
 30
0.0000000349246037
  9
$LIMMIN
 10
0.0
 20
0.0
  9
$LIMMAX
 10
11.6929133858000007
 20
8.2677165353999982
  9
$ORTHOMODE
 70
     0
  9
$REGENMODE
 70
     1
  9
$FILLMODE
 70
     1
  9
$QTEXTMODE
 70
     0
  9
$MIRRTEXT
 70
     0
  9
$DRAGMODE
 70
     2
  9
$LTSCALE
 40
0.6431102362
  9
$OSMODE
 70
   575
  9
$ATTMODE
 70
     1
  9
$TEXTSIZE
 40
0.2
  9
$TRACEWID
 40
0.05
  9
$TEXTSTYLE
  7
STANDARD
  9
$CLAYER
  8
0
  9
$CELTYPE
  6
BYLAYER
  9
$CECOLOR
 62
   256
  9
$DIMSCALE
 40
1.0
  9
$DIMASZ
 40
0.1875
  9
$DIMEXO
 40
0.0625
  9
$DIMDLI
 40
0.4443307087
  9
$DIMRND
 40
0.0
  9
$DIMDLE
 40
0.0
  9
$DIMEXE
 40
0.125
  9
$DIMTP
 40
0.01
  9
$DIMTM
 40
0.01
  9
$DIMTXT
 40
2.0
  9
$DIMCEN
 40
0.1052362205
  9
$DIMTSZ
 40
0.0
  9
$DIMTOL
 70
     1
  9
$DIMLIM
 70
     0
  9
$DIMTIH
 70
     1
  9
$DIMTOH
 70
     1
  9
$DIMSE1
 70
     0
  9
$DIMSE2
 70
     0
  9
$DIMTAD
 70
     0
  9
$DIMZIN
 70
     0
  9
$DIMBLK
  1

  9
$DIMASO
 70
     1
  9
$DIMSHO
 70
     1
  9
$DIMPOST
  1
\X
  9
$DIMAPOST
  1

  9
$DIMALT
 70
     1
  9
$DIMALTD
 70
     2
  9
$DIMALTF
 40
25.3999999999999986
  9
$DIMLFAC
 40
1.0
  9
$DIMTOFL
 70
     0
  9
$DIMTVP
 40
0.0
  9
$DIMTIX
 70
     0
  9
$DIMSOXD
 70
     0
  9
$DIMSAH
 70
     0
  9
$DIMBLK1
  1

  9
$DIMBLK2
  1

  9
$DIMSTYLE
  2
STANDARD
  9
$DIMCLRD
 70
     0
  9
$DIMCLRE
 70
     0
  9
$DIMCLRT
 70
     0
  9
$DIMTFAC
 40
1.0
  9
$DIMGAP
 40
0.09
  9
$LUNITS
 70
     2
  9
$LUPREC
 70
     4
  9
$SKETCHINC
 40
0.1
  9
$FILLETRAD
 40
0.0
  9
$AUNITS
 70
     0
  9
$AUPREC
 70
     0
  9
$MENU
  1
.
  9
$ELEVATION
 40
0.0
  9
$PELEVATION
 40
0.0
  9
$THICKNESS
 40
0.0
  9
$LIMCHECK
 70
     0
  9
$BLIPMODE
 70
     0
  9
$CHAMFERA
 40
0.0
  9
$CHAMFERB
 40
0.0
  9
$SKPOLY
 70
     0
  9
$TDCREATE
 40
2458060.468368056230247
  9
$TDUPDATE
 40
2459579.9951273151673377
  9
$TDINDWG
 40
0.4234445602
  9
$TDUSRTIMER
 40
0.4234445602
  9
$USRTIMER
 70
     1
  9
$ANGBASE
 50
0.0
  9
$ANGDIR
 70
     0
  9
$PDMODE
 70
     0
  9
$PDSIZE
 40
0.3125
  9
$PLINEWID
 40
0.0
  9
$COORDS
 70
     1
  9
$SPLFRAME
 70
     0
  9
$SPLINETYPE
 70
     6
  9
$SPLINESEGS
 70
     8
  9
$ATTDIA
 70
     1
  9
$ATTREQ
 70
     1
  9
$HANDLING
 70
     1
  9
$HANDSEED
  5
AD67
  9
$SURFTAB1
 70
     6
  9
$SURFTAB2
 70
     6
  9
$SURFTYPE
 70
     6
  9
$SURFU
 70
     6
  9
$SURFV
 70
     6
  9
$UCSNAME
  2

  9
$UCSORG
 10
0.0
 20
0.0
 30
0.0
  9
$UCSXDIR
 10
1.0
 20
0.0
 30
0.0
  9
$UCSYDIR
 10
0.0
 20
1.0
 30
0.0
  9
$PUCSNAME
  2

  9
$PUCSORG
 10
0.0
 20
0.0
 30
0.0
  9
$PUCSXDIR
 10
1.0
 20
0.0
 30
0.0
  9
$PUCSYDIR
 10
0.0
 20
1.0
 30
0.0
  9
$USERI1
 70
     0
  9
$USERI2
 70
     0
  9
$USERI3
 70
     0
  9
$USERI4
 70
     0
  9
$USERI5
 70
     0
  9
$USERR1
 40
0.0
  9
$USERR2
 40
0.0
  9
$USERR3
 40
0.0
  9
$USERR4
 40
0.0
  9
$USERR5
 40
0.0
  9
$WORLDVIEW
 70
     1
  9
$SHADEDGE
 70
     3
  9
$SHADEDIF
 70
    70
  9
$TILEMODE
 70
     1
  9
$MAXACTVP
 70
    64
  9
$PLIMCHECK
 70
     0
  9
$PEXTMIN
 10
1.0000000000000000E+20
 20
1.0000000000000000E+20
 30
1.0000000000000000E+20
  9
$PEXTMAX
 10
-1.0000000000000000E+20
 20
-1.0000000000000000E+20
 30
-1.0000000000000000E+20
  9
$PLIMMIN
 10
0.0
 20
0.0
  9
$PLIMMAX
 10
12.0
 20
9.0
  9
$UNITMODE
 70
     0
  9
$VISRETAIN
 70
     1
  9
$PLINEGEN
 70
     0
  9
$PSLTSCALE
 70
     1
  0
ENDSEC
  0
SECTION
  2
TABLES
  0
TABLE
  2
VPORT
 70
     1
  0
VPORT
  2
*ACTIVE
 70
     0
 10
0.0
 20
0.0
 11
1.0
 21
1.0
 12
944.5505076486371081
 22
98.8685185612459065
 13
0.0
 23
0.0
 14
1.0
 24
1.0
 15
0.0
 25
0.0
 16
0.0
 26
0.0
 36
17.1152628219792007
 17
3803.5440673828129547
 27
125.9952621967499056
 37
0.0
 40
4.9723494523194063
 41
2.469551282051281
 42
50.0
 43
0.0
 44
0.0
 50
0.0
 51
0.0
 71
     0
 72
   100
 73
     1
 74
     1
 75
     0
 76
     0
 77
     0
 78
     0
  0
ENDTAB
  0
TABLE
  2
LTYPE
 70
     2
  0
LTYPE
  2
CONTINUOUS
 70
     0
  3
Solid line
 72
    65
 73
     0
 40
0.0
  0
LTYPE
  2
PHANTOM2
 70
     0
  3
___ _ _ ___ _ _ ___ _ _ ___ _ _
 72
    65
 73
     6
 40
1.25
 49
0.625
 49
-0.125
 49
0.125
 49
-0.125
 49
0.125
 49
-0.125
  0
ENDTAB
  0
TABLE
  2
LAYER
 70
     2
  0
LAYER
  2
0
 70
     0
 62
   255
  6
CONTINUOUS
  0
LAYER
  2
DEFPOINTS
 70
     0
 62
     7
  6
CONTINUOUS
  0
ENDTAB
  0
TABLE
  2
STYLE
 70
     1
  0
STYLE
  2
STANDARD
 70
     0
 40
0.0
 41
0.8
 50
0.0
 71
     0
 42
0.2
  3
txt
  4

  0
ENDTAB
  0
TABLE
  2
VIEW
 70
     0
  0
ENDTAB
  0
TABLE
  2
UCS
 70
     0
  0
ENDTAB
  0
TABLE
  2
APPID
 70
     9
  0
APPID
  2
ACAD
 70
     0
  0
APPID
  2
ACAD_MLEADERVER
 70
     0
  0
APPID
  2
ACAD_EXEMPT_FROM_CAD_STANDARDS
 70
     0
  0
APPID
  2
ACAD_NAV_VCDISPLAY
 70
     0
  0
APPID
  2
ACAECLAYERSTANDARD
 70
     0
  0
APPID
  2
ACCMTRANSPARENCY
 70
     0
  0
APPID
  2
ACAD_DSTYLE_DIMJAG
 70
     0
  0
APPID
  2
ACAD_DSTYLE_DIMTALN
 70
     0
  0
APPID
  2
ACDBATTR
 70
     0
  0
ENDTAB
  0
TABLE
  2
DIMSTYLE
 70
     1
  0
DIMSTYLE
  2
STANDARD
 70
     0
  3

  4

  5

  6

  7

 40
1.0
 41
0.1875
 42
0.0625
 43
0.38
 44
0.125
 45
0.0
 46
0.0
 47
0.01
 48
0.01
140
0.15625
141
0.09
142
0.0
143
25.3999999999999986
144
1.0
145
0.0
146
1.0
147
0.09
 71
     1
 72
     0
 73
     1
 74
     1
 75
     0
 76
     0
 77
     0
 78
     4
170
     0
171
     2
172
     0
173
     0
174
     0
175
     0
176
     0
177
     0
178
     0
  0
ENDTAB
  0
ENDSEC
  0
SECTION
  2
BLOCKS
  0
BLOCK
  8
0
  2
$MODEL_SPACE
 70
     0
 10
0.0
 20
0.0
 30
0.0
  3
$MODEL_SPACE
  1

  0
ENDBLK
  5
21
  8
0
  0
BLOCK
 67
     1
  8
0
  2
$PAPER_SPACE
 70
     0
 10
0.0
 20
0.0
 30
0.0
  3
$PAPER_SPACE
  1

  0
ENDBLK
  5
1D
 67
     1
  8
0
  0
ENDSEC
  0
SECTION
  2
ENTITIES
  0
ATTDEF
  5
3930
  8
DEFPOINTS
 10
4747.9898397128326906
 20
226.2450026890093113
 30
0.0
 40
0.001
  1
K-13688
  3

  2
MODELNUMBER
 70
     0
1001
ACDBATTR
1070
     0
1070
     1
  0
ATTDEF
  5
3931
  8
DEFPOINTS
 10
4747.9898397128326906
 20
226.2433360223425893
 30
0.0
 40
0.001
  1

  3

  2
TRADENAME
 70
     0
1001
ACDBATTR
1070
     0
1070
     1
  0
ATTDEF
  5
3932
  8
DEFPOINTS
 10
4747.9898397128326906
 20
226.2416693556760094
 30
0.0
 40
0.001
  1
SHOWERHEAD
  3

  2
PRODUCT
 70
     0
1001
ACDBATTR
1070
     0
1070
     1
  0
LINE
  5
AB8D
  8
0
 10
4747.514822559469394
 20
226.2415106896779946
 30
0.0
 11
4748.464816554468598
 21
226.2415106896779946
 31
0.0
  0
ARC
  5
AB8E
  8
0
 10
4748.4648153079560871
 20
226.2215016737877988
 30
0.0
 40
0.0200090159289664
 50
0.0258185004853139
 51
89.9964306110474581
  0
ARC
  5
AB8F
  8
0
 10
4748.3696858677139971
 20
225.2132708028474042
 30
0.0
 40
0.0699286249674428
 50
112.443127527227702
 51
230.6433732260267959
  0
ARC
  5
AB90
  8
0
 10
4748.0119450779611725
 20
224.7770280929522073
 30
0.0
 40
0.4942399444568933
 50
32.9925221736863605
 51
50.646985694386359
  0
ARC
  5
AB91
  8
0
 10
4747.6098202276307347
 20
225.2132496669800901
 30
0.0
 40
0.0700017113224115
 50
309.4547980100859945
 51
67.4588969687685704
  0
ARC
  5
AB92
  8
0
 10
4748.0299908405377209
 20
224.7216056390215044
 30
0.0
 40
0.5767398709155586
 50
130.6470198603635993
 51
145.7549660922279884
  0
ARC
  5
AB93
  8
0
 10
4747.5148213133716126
 20
226.2215136979710906
 30
0.0
 40
0.0199969917457075
 50
89.9964296597756146
 51
180.0086194214703141
  0
LINE
  5
AB94
  8
0
 10
4747.2713179524071165
 20
225.0461563589780098
 30
0.0
 11
4748.7083256227988386
 21
225.0461563589780098
 31
0.0
  0
LINE
  5
AB95
  8
0
 10
4748.7083256227988386
 20
225.0461563589780098
 30
0.0
 11
4748.7083256227988386
 21
224.0026209258780057
 31
0.0
  0
LINE
  5
AB96
  8
0
 10
4747.2713179524071165
 20
225.046156358977413
 30
0.0
 11
4747.2713179524071165
 21
224.0026209258774088
 31
0.0
  0
LINE
  5
AB97
  8
0
 10
4748.484824321852102
 20
226.2215106902071113
 30
0.0
 11
4748.4848561009039258
 21
226.1156528355836883
 31
0.0
  0
ARC
  5
AB98
  8
0
 10
4748.4746265518997461
 20
226.1157832672973882
 30
0.0
 40
0.0102303805042082
 50
315.2565347333945738
 51
359.2694905936992882
  0
LINE
  5
AB99
  8
0
 10
4748.4818928399190554
 20
226.1085817574779924
 30
0.0
 11
4748.4480276829917784
 21
226.0747166008260933
 31
0.0
  0
ARC
  5
AB9A
  8
0
 10
4748.4548677380153094
 20
226.0673589401583001
 30
0.0
 40
0.0100459704961189
 50
132.9120943761373042
 51
179.9451683533415007
  0
LINE
  5
AB9B
  8
0
 10
4748.4448217721192123
 20
226.0673685540780014
 30
0.0
 11
4748.4448217721192123
 21
225.3638427899780083
 31
0.0
  0
ARC
  5
AB9C
  8
0
 10
4748.4336988908953572
 20
225.3641976511235896
 30
0.0
 40
0.0111285404774914
 50
326.7326349801372771
 51
358.1726720388259082
  0
ARC
  5
AB9D
  8
0
 10
4748.2548119568173206
 20
225.4903436764907099
 30
0.0
 40
0.2300137702233346
 50
292.5418156394267726
 51
324.9026112878071899
  0
LINE
  5
AB9E
  8
0
 10
4747.4948243218532298
 20
226.2215106896780128
 30
0.0
 11
4747.4948243218532298
 21
226.1156535115206054
 31
0.0
  0
ARC
  5
AB9F
  8
0
 10
4747.5047497134837613
 20
226.1156193984479046
 30
0.0
 40
0.0099254502527925
 50
179.8030780581055126
 51
225.1704239113402082
  0
LINE
  5
ABA0
  8
0
 10
4747.4977522671188126
 20
226.1085802005462995
 30
0.0
 11
4747.5316132582020145
 21
226.0747192095635114
 31
0.0
  0
ARC
  5
ABA1
  8
0
 10
4747.5247219805223722
 20
226.0673356274411958
 30
0.0
 40
0.0100998511379715
 50
0.1867909375410198
 51
46.9752062134060324
  0
LINE
  5
ABA2
  8
0
 10
4747.5348217779883271
 20
226.0673685540780014
 30
0.0
 11
4747.5348217779883271
 21
225.3638427899780083
 31
0.0
  0
ARC
  5
ABA3
  8
0
 10
4747.546015342809369
 20
225.3642202283176061
 30
0.0
 40
0.0111999264781144
 50
181.9312376178332897
 51
213.1655644149610964
  0
ARC
  5
ABA4
  8
0
 10
4747.7247702603281141
 20
225.4902696419723895
 30
0.0
 40
0.2299209066474519
 50
215.0910818725241995
 51
247.4654089641977066
  0
LINE
  5
ABA5
  8
0
 10
4748.1936831479370085
 20
225.0461563589780098
 30
0.0
 11
4748.1936831479370085
 21
224.5737154140780092
 31
0.0
  0
LINE
  5
ABA6
  8
0
 10
4748.1936831479370085
 20
224.5737154140780092
 30
0.0
 11
4747.7859604082368605
 21
224.5737154140780092
 31
0.0
  0
LINE
  5
ABA7
  8
0
 10
4747.7859604082368605
 20
224.5737154140780092
 30
0.0
 11
4747.7859604082368605
 21
225.0461563589780098
 31
0.0
  0
LINE
  5
ABA8
  8
0
 10
4743.9917880609691565
 20
224.0026209258780057
 30
0.0
 11
4751.9878510529697451
 21
224.0026209258780057
 31
0.0
  0
ARC
  5
ABA9
  8
0
 10
4751.9544574895608093
 20
223.5637371199040047
 30
0.0
 40
0.0335909168293246
 50
272.5696861727552118
 51
353.7861339029026908
  0
LINE
  5
ABAA
  8
0
 10
4751.9559635198529577
 20
223.5301799810779926
 30
0.0
 11
4744.0236807159535601
 21
223.5301800142989919
 31
0.0
  0
ARC
  5
ABAB
  8
0
 10
4744.0251904551323605
 20
223.5637468271116859
 30
0.0
 40
0.0336007475331201
 50
186.2286916224782942
 51
267.4247354091436932
  0
LINE
  5
ABAC
  8
0
 10
4748.050074355463039
 20
223.5301799974361927
 30
0.0
 11
4748.0437405764623691
 21
223.4869134928362087
 31
0.0
  0
ARC
  5
ABAD
  8
0
 10
4748.0359495782222439
 20
223.4880540162388911
 30
0.0
 40
0.0078740362735157
 50
270.1206964461431994
 51
351.671633029106772
  0
LINE
  5
ABAE
  8
0
 10
4748.0359661652628347
 20
223.4801799974360961
 30
0.0
 11
4747.9436774146633979
 21
223.4801799974360961
 31
0.0
  0
ARC
  5
ABAF
  8
0
 10
4747.943694015143592
 20
223.4880540317435873
 30
0.0
 40
0.0078740518065056
 50
188.3284645243413138
 51
269.8792059938990064
  0
LINE
  5
ABB0
  8
0
 10
4747.9359030034747775
 20
223.4869134928258063
 30
0.0
 11
4747.92957212924739
 21
223.5301601553304067
 31
0.0
  0
LINE
  5
ABB1
  8
0
 10
4747.6049044076789869
 20
223.5301799974361927
 30
0.0
 11
4747.6112381866787473
 21
223.4869134928362087
 31
0.0
  0
ARC
  5
ABB2
  8
0
 10
4747.619029184919782
 20
223.4880540162388911
 30
0.0
 40
0.0078740362735157
 50
188.3283669708931996
 51
269.8793035538568006
  0
LINE
  5
ABB3
  8
0
 10
4747.6190125978782817
 20
223.4801799974360961
 30
0.0
 11
4747.7113013484786279
 21
223.4801799974360961
 31
0.0
  0
ARC
  5
ABB4
  8
0
 10
4747.7112847479957054
 20
223.4880540317435873
 30
0.0
 40
0.0078740518065056
 50
270.1207940061009936
 51
351.6715354756569809
  0
LINE
  5
ABB5
  8
0
 10
4747.7190757596654294
 20
223.4869134928258063
 30
0.0
 11
4747.7254066338946359
 21
223.5301601553304067
 31
0.0
  0
LINE
  5
ABB6
  8
0
 10
4744.6799137023717776
 20
223.5301800115506978
 30
0.0
 11
4744.684352438453061
 21
223.4888180141780083
 31
0.0
  0
ARC
  5
ABB7
  8
0
 10
4744.6921815020114082
 20
223.4896581850861139
 30
0.0
 40
0.0078740157066383
 50
186.1252179891856997
 51
268.000000356334624
  0
LINE
  5
ABB8
  8
0
 10
4744.6919067028738937
 20
223.4817889660153867
 30
0.0
 11
4744.7840573031817257
 21
223.4785709967173091
 31
0.0
  0
ARC
  5
ABB9
  8
0
 10
4744.7843321023256067
 20
223.4864402159687131
 30
0.0
 40
0.007874015887376
 50
268.000000356334624
 51
349.874776444696522
  0
LINE
  5
ABBA
  8
0
 10
4744.7920834873611966
 20
223.4850559630233136
 30
0.0
 11
4744.7942098893099683
 21
223.496963151154489
 31
0.0
  0
LINE
  5
ABBB
  8
0
 10
4744.7906452434008315
 20
223.5301800110869124
 30
0.0
 11
4744.7950839789227757
 21
223.4888180189284981
 31
0.0
  0
ARC
  5
ABBC
  8
0
 10
4744.8029130424811228
 20
223.4896581898366037
 30
0.0
 40
0.0078740157066383
 50
186.1252179891856997
 51
268.000000356334624
  0
LINE
  5
ABBD
  8
0
 10
4744.8026382433454273
 20
223.4817889707659049
 30
0.0
 11
4744.8947888436523499
 21
223.4785710014677989
 31
0.0
  0
ARC
  5
ABBE
  8
0
 10
4744.8950636427953214
 20
223.4864402207192029
 30
0.0
 40
0.007874015887376
 50
268.000000356334624
 51
349.874776444696522
  0
LINE
  5
ABBF
  8
0
 10
4744.9028150278300018
 20
223.4850559677738033
 30
0.0
 11
4744.9108733411358116
 21
223.5301800105833934
 31
0.0
  0
LINE
  5
ABC0
  8
0
 10
4745.1153128887299317
 20
223.5301799856497951
 30
0.0
 11
4745.1197516215288488
 21
223.4888180188497984
 31
0.0
  0
ARC
  5
ABC1
  8
0
 10
4745.1275806850881054
 20
223.489658189757904
 30
0.0
 40
0.0078740157066383
 50
186.1252179891856997
 51
268.000000356334624
  0
LINE
  5
ABC2
  8
0
 10
4745.1273058859505909
 20
223.4817889706872052
 30
0.0
 11
4745.2194564862593325
 21
223.4785710013892128
 31
0.0
  0
ARC
  5
ABC3
  8
0
 10
4745.2197312854023039
 20
223.4864402206405032
 30
0.0
 40
0.007874015887376
 50
268.000000356334624
 51
349.874776444696522
  0
LINE
  5
ABC4
  8
0
 10
4745.2274826704378938
 20
223.4850559676951889
 30
0.0
 11
4745.2355409791616694
 21
223.5301799848583073
 31
0.0
  0
LINE
  5
ABC5
  8
0
 10
4745.3303402043529786
 20
223.530179980978005
 30
0.0
 11
4745.3357098406586374
 21
223.4878663671291008
 31
0.0
  0
ARC
  5
ABC6
  8
0
 10
4745.3435212110607608
 20
223.4888576371789952
 30
0.0
 40
0.0078740157392793
 50
187.2322299297308916
 51
268.9999999407137921
  0
LINE
  5
ABC7
  8
0
 10
4745.3433837905304244
 20
223.480984820690594
 30
0.0
 11
4745.4357396624282046
 21
223.4793727428545083
 31
0.0
  0
ARC
  5
ABC8
  8
0
 10
4745.4358743371158198
 20
223.4870882500480036
 30
0.0
 40
0.0077166824817647
 50
268.9999999406617235
 51
306.0712668405269028
  0
LINE
  5
ABC9
  8
0
 10
4745.4197062450411977
 20
223.5301799754402907
 30
0.0
 11
4745.4250758813468565
 21
223.4878663615915002
 31
0.0
  0
ARC
  5
ABCA
  8
0
 10
4745.4328872517489799
 20
223.4888576316413094
 30
0.0
 40
0.0078740157392793
 50
187.2322299297308916
 51
268.9999999407137921
  0
LINE
  5
ABCB
  8
0
 10
4745.4327498312168245
 20
223.4809848151529081
 30
0.0
 11
4745.5251057031164237
 21
223.479372737316794
 31
0.0
  0
ARC
  5
ABCC
  8
0
 10
4745.5252403778031294
 20
223.4870882445102893
 30
0.0
 40
0.0077166824817647
 50
268.9999999406617235
 51
351.7778758793259044
  0
LINE
  5
ABCD
  8
0
 10
4745.5328777411423289
 20
223.4859846731521031
 30
0.0
 11
4745.5392638031526076
 21
223.530179980978005
 31
0.0
  0
LINE
  5
ABCE
  8
0
 10
4745.6317750225543932
 20
223.530179980978005
 30
0.0
 11
4745.637144658860052
 21
223.4878663671291008
 31
0.0
  0
ARC
  5
ABCF
  8
0
 10
4745.6449560292612659
 20
223.4888576371789952
 30
0.0
 40
0.0078740157392793
 50
187.2322299297308916
 51
268.9999999407137921
  0
LINE
  5
ABD0
  8
0
 10
4745.6448186087300201
 20
223.480984820690594
 30
0.0
 11
4745.7371744806287097
 21
223.4793727428543946
 31
0.0
  0
ARC
  5
ABD1
  8
0
 10
4745.7373091553154154
 20
223.4870882500480036
 30
0.0
 40
0.0077166824817647
 50
268.9999999406617235
 51
351.7778758793259044
  0
LINE
  5
ABD2
  8
0
 10
4745.7449465186546149
 20
223.4859846786897037
 30
0.0
 11
4745.7513325815980352
 21
223.5301799929727053
 31
0.0
  0
LINE
  5
ABD3
  8
0
 10
4745.7989336666987583
 20
223.5301800068641001
 30
0.0
 11
4745.7918759219537606
 21
223.4861101036779871
 31
0.0
  0
ARC
  5
ABD4
  8
0
 10
4745.784066641453137
 20
223.4873742182917908
 30
0.0
 40
0.0079109321635732
 50
275.3515563593629167
 51
350.8050963549280254
  0
LINE
  5
ABD5
  8
0
 10
4745.7848044666534406
 20
223.4794977684780122
 30
0.0
 11
4745.741671734574993
 21
223.4807231034880886
 31
0.0
  0
LINE
  5
ABD6
  8
0
 10
4745.980750320874904
 20
223.5301800061025972
 30
0.0
 11
4745.987084103552661
 21
223.4869134763779925
 31
0.0
  0
ARC
  5
ABD7
  8
0
 10
4745.9948751017946051
 20
223.4880539997807887
 30
0.0
 40
0.0078740362735157
 50
188.3283669708931996
 51
269.8793035538568006
  0
LINE
  5
ABD8
  8
0
 10
4745.9948585147531048
 20
223.4801799809779936
 30
0.0
 11
4746.0871472653534511
 21
223.4801799809779936
 31
0.0
  0
ARC
  5
ABD9
  8
0
 10
4746.0871306648714381
 20
223.4880540152853996
 30
0.0
 40
0.0078740518065056
 50
270.1207940061009936
 51
351.6715354756569809
  0
LINE
  5
ABDA
  8
0
 10
4746.0949216765402525
 20
223.4869134763675902
 30
0.0
 11
4746.0963826374199925
 21
223.4968934064457926
 31
0.0
  0
LINE
  5
ABDB
  8
0
 10
4746.0915098157111061
 20
223.5301800056388117
 30
0.0
 11
4746.097840693638318
 21
223.4869333184838069
 31
0.0
  0
ARC
  5
ABDC
  8
0
 10
4746.1056316918793527
 20
223.4880738418866031
 30
0.0
 40
0.0078740362735157
 50
188.3283669708931996
 51
269.8793035538568006
  0
LINE
  5
ABDD
  8
0
 10
4746.1056151048369429
 20
223.480199823083808
 30
0.0
 11
4746.1979038554381987
 21
223.480199823083808
 31
0.0
  0
ARC
  5
ABDE
  8
0
 10
4746.1978872549552761
 20
223.4880738573912993
 30
0.0
 40
0.0078740518065056
 50
270.1207940061009936
 51
351.6715354756569809
  0
LINE
  5
ABDF
  8
0
 10
4746.2056782666240906
 20
223.4869333184732909
 30
0.0
 11
4746.2120091408542066
 21
223.530179980978005
 31
0.0
  0
LINE
  5
ABE0
  8
0
 10
4746.2418425494533949
 20
223.530179980978005
 30
0.0
 11
4746.2481763284567933
 21
223.4869134763536067
 31
0.0
  0
ARC
  5
ABE1
  8
0
 10
4746.2559673063742594
 20
223.4880539968133064
 30
0.0
 40
0.0078740157366753
 50
188.3283672034702079
 51
265.930581115717473
  0
LINE
  5
ABE2
  8
0
 10
4746.2554085263827801
 20
223.4801998330295021
 30
0.0
 11
4746.3186167540688984
 21
223.4801998332407038
 31
0.0
  0
LINE
  5
ABE3
  8
0
 10
4746.3045085638686942
 20
223.5301998332406868
 30
0.0
 11
4746.3108423428693641
 21
223.486933328640788
 31
0.0
  0
ARC
  5
ABE4
  8
0
 10
4746.3186333411113083
 20
223.4880738520434988
 30
0.0
 40
0.0078740362735157
 50
188.3283669708931996
 51
269.8793035538568006
  0
LINE
  5
ABE5
  8
0
 10
4746.3186167540688984
 20
223.4801998332407038
 30
0.0
 11
4746.4109055046692447
 21
223.4801998332407038
 31
0.0
  0
ARC
  5
ABE6
  8
0
 10
4746.4108889041872317
 20
223.488073867548195
 30
0.0
 40
0.0078740518065056
 50
270.1207940061009936
 51
351.6715354756569809
  0
LINE
  5
ABE7
  8
0
 10
4746.4186799158560461
 20
223.4869333286303004
 30
0.0
 11
4746.4250107900852527
 21
223.530179991134986
 31
0.0
  0
LINE
  5
ABE8
  8
0
 10
4746.6299963355741056
 20
223.5301998340991929
 30
0.0
 11
4746.636330114573866
 21
223.4869333294992089
 31
0.0
  0
ARC
  5
ABE9
  8
0
 10
4746.6441211128149007
 20
223.488073852902005
 30
0.0
 40
0.0078740362735157
 50
188.3283669708931996
 51
269.8793035538568006
  0
LINE
  5
ABEA
  8
0
 10
4746.6441045257743099
 20
223.4801998340992952
 30
0.0
 11
4746.7363932763737466
 21
223.4801998340992952
 31
0.0
  0
ARC
  5
ABEB
  8
0
 10
4746.7363766758908241
 20
223.4880738684067012
 30
0.0
 40
0.0078740518065056
 50
270.1207940061009936
 51
351.6715354756569809
  0
LINE
  5
ABEC
  8
0
 10
4746.7441676875605481
 20
223.4869333294888065
 30
0.0
 11
4746.7504985617897546
 21
223.5301799919934069
 31
0.0
  0
LINE
  5
ABED
  8
0
 10
4746.8044210134621608
 20
223.5301998348654138
 30
0.0
 11
4746.8107547924619212
 21
223.4869333302654013
 31
0.0
  0
ARC
  5
ABEE
  8
0
 10
4746.8185457907038654
 20
223.4880738536681974
 30
0.0
 40
0.0078740362735157
 50
188.3283669708931996
 51
269.8793035538568006
  0
LINE
  5
ABEF
  8
0
 10
4746.818529203660546
 20
223.4801998348654024
 30
0.0
 11
4746.9108179542608923
 21
223.4801998348654024
 31
0.0
  0
ARC
  5
ABF0
  8
0
 10
4746.9108013537797888
 20
223.4880738691728936
 30
0.0
 40
0.0078740518065056
 50
270.1207940061009936
 51
351.6715354756569809
  0
LINE
  5
ABF1
  8
0
 10
4746.9185923654486032
 20
223.486933330254999
 30
0.0
 11
4746.9249232396769003
 21
223.5301799927595994
 31
0.0
  0
LINE
  5
ABF2
  8
0
 10
4746.9551626781358209
 20
223.530199823083791
 30
0.0
 11
4746.9614964571383098
 21
223.4869333184838069
 31
0.0
  0
ARC
  5
ABF3
  8
0
 10
4746.9692874553793445
 20
223.4880738418866031
 30
0.0
 40
0.0078740362735157
 50
188.3283669708931996
 51
269.8793035538568006
  0
LINE
  5
ABF4
  8
0
 10
4746.9692708683360252
 20
223.480199823083808
 30
0.0
 11
4747.0615596189372809
 21
223.480199823083808
 31
0.0
  0
ARC
  5
ABF5
  8
0
 10
4747.0615430184552679
 20
223.4880738573912993
 30
0.0
 40
0.0078740518065056
 50
270.1207940061009936
 51
351.6715354756569809
  0
LINE
  5
ABF6
  8
0
 10
4747.0693340301240823
 20
223.4869333184732909
 30
0.0
 11
4747.0756649043532889
 21
223.530179980978005
 31
0.0
  0
LINE
  5
ABF7
  8
0
 10
4747.0882901517370556
 20
223.530199823083791
 30
0.0
 11
4747.094623930736816
 21
223.4869333184838069
 31
0.0
  0
ARC
  5
ABF8
  8
0
 10
4747.1024149289787601
 20
223.4880738418866031
 30
0.0
 40
0.0078740362735157
 50
188.3283669708931996
 51
269.8793035538568006
  0
LINE
  5
ABF9
  8
0
 10
4747.1023983419372598
 20
223.480199823083808
 30
0.0
 11
4747.1946870925366966
 21
223.480199823083808
 31
0.0
  0
ARC
  5
ABFA
  8
0
 10
4747.1946704920555931
 20
223.4880738573912993
 30
0.0
 40
0.0078740518065056
 50
270.1207940061009936
 51
351.6715354756569809
  0
LINE
  5
ABFB
  8
0
 10
4747.2024615037244075
 20
223.4869333184732909
 30
0.0
 11
4747.2087923779536141
 21
223.530179980978005
 31
0.0
  0
LINE
  5
ABFC
  8
0
 10
4747.2569035845526741
 20
223.530179980978005
 30
0.0
 11
4747.263237363553344
 21
223.4869134763779925
 31
0.0
  0
ARC
  5
ABFD
  8
0
 10
4747.2710283617961977
 20
223.4880539997807887
 30
0.0
 40
0.0078740362735157
 50
188.3283669708931996
 51
269.8793035538568006
  0
LINE
  5
ABFE
  8
0
 10
4747.2710117747537879
 20
223.4801799809779936
 30
0.0
 11
4747.3633040430058827
 21
223.4801799891799021
 31
0.0
  0
ARC
  5
ABFF
  8
0
 10
4747.3632839248721211
 20
223.4880540152853996
 30
0.0
 40
0.007874051806508
 50
270.1463903894813825
 51
351.6715354756473744
  0
LINE
  5
AC00
  8
0
 10
4747.3710749365400261
 20
223.4869134763675902
 30
0.0
 11
4747.3774058107701421
 21
223.5301601388721906
 31
0.0
  0
LINE
  5
AC01
  8
0
 10
4747.4005422289419585
 20
223.5301799952206068
 30
0.0
 11
4747.3946271328532021
 21
223.490280232039197
 31
0.0
  0
ARC
  5
AC02
  8
0
 10
4747.382940666830109
 20
223.4919910022157978
 30
0.0
 40
0.0118110212388401
 50
269.9329646983624116
 51
351.6716826590192113
  0
LINE
  5
AC03
  8
0
 10
4747.382926848095849
 20
223.4801799890607867
 30
0.0
 11
4747.3633040430058827
 21
223.4801799891799021
 31
0.0
  0
LINE
  5
AC04
  8
0
 10
4747.4875318078538839
 20
223.530179980978005
 30
0.0
 11
4747.4811980288486666
 21
223.4869134763536067
 31
0.0
  0
ARC
  5
AC05
  8
0
 10
4747.4734070337326557
 20
223.4880539992988986
 30
0.0
 40
0.0078740331155358
 50
269.8889315811057941
 51
351.6716330291213239
  0
LINE
  5
AC06
  8
0
 10
4747.4733917698531513
 20
223.4801799809779936
 30
0.0
 11
4747.382926848095849
 21
223.4801799890607867
 31
0.0
  0
LINE
  5
AC07
  8
0
 10
4748.2997572455860791
 20
225.2132508763779981
 30
0.0
 11
4747.679821938942041
 21
225.2132508763779981
 31
0.0
  0
LINE
  5
AC08
  8
0
 10
4748.3747347062590052
 20
223.5301799974361927
 30
0.0
 11
4748.3684009272601543
 21
223.4869134928362087
 31
0.0
  0
ARC
  5
AC09
  8
0
 10
4748.3606099290182101
 20
223.4880540162388911
 30
0.0
 40
0.0078740362735157
 50
270.1206964461431994
 51
351.671633029106772
  0
LINE
  5
AC0A
  8
0
 10
4748.3606265160588009
 20
223.4801799974360961
 30
0.0
 11
4748.2683377654602737
 21
223.4801799974360961
 31
0.0
  0
ARC
  5
AC0B
  8
0
 10
4748.2683543659431962
 20
223.4880540317435873
 30
0.0
 40
0.0078740518065056
 50
188.3284645243429054
 51
269.8792059938990064
  0
LINE
  5
AC0C
  8
0
 10
4748.2605633542716532
 20
223.4869134928258063
 30
0.0
 11
4748.2542324800433562
 21
223.5301601553304067
 31
0.0
  0
LINE
  5
AC0D
  8
0
 10
4751.299725411565305
 20
223.5301800115506978
 30
0.0
 11
4751.2952866754840215
 21
223.4888180141780083
 31
0.0
  0
ARC
  5
AC0E
  8
0
 10
4751.2874576119265839
 20
223.4896581850861139
 30
0.0
 40
0.0078740157066383
 50
271.999999643665376
 51
353.8747820108142719
  0
LINE
  5
AC0F
  8
0
 10
4751.2877324110631889
 20
223.4817889660153867
 30
0.0
 11
4751.1955818107553569
 21
223.4785709967173091
 31
0.0
  0
ARC
  5
AC10
  8
0
 10
4751.1953070116132949
 20
223.4864402159687131
 30
0.0
 40
0.007874015887376
 50
190.1252235553035064
 51
271.999999643665376
  0
LINE
  5
AC11
  8
0
 10
4751.1875556265767955
 20
223.4850559630233136
 30
0.0
 11
4751.1854292246289333
 21
223.496963151154489
 31
0.0
  0
LINE
  5
AC12
  8
0
 10
4751.1889938705371605
 20
223.5301800110869124
 30
0.0
 11
4751.1845551350152164
 21
223.4888180189284981
 31
0.0
  0
ARC
  5
AC13
  8
0
 10
4751.1767260714577787
 20
223.4896581898366037
 30
0.0
 40
0.0078740157066383
 50
271.999999643665376
 51
353.8747820108142719
  0
LINE
  5
AC14
  8
0
 10
4751.1770008705925648
 20
223.4817889707659049
 30
0.0
 11
4751.0848502702847327
 21
223.4785710014677989
 31
0.0
  0
ARC
  5
AC15
  8
0
 10
4751.0845754711435802
 20
223.4864402207192029
 30
0.0
 40
0.007874015887376
 50
190.1252235553035064
 51
271.999999643665376
  0
LINE
  5
AC16
  8
0
 10
4751.0768240861070808
 20
223.4850559677738033
 30
0.0
 11
4751.0687657728030899
 21
223.5301800105833934
 31
0.0
  0
LINE
  5
AC17
  8
0
 10
4750.8643262252089698
 20
223.5301799856497951
 30
0.0
 11
4750.8598874924082338
 21
223.4888180188497984
 31
0.0
  0
ARC
  5
AC18
  8
0
 10
4750.8520584288507962
 20
223.489658189757904
 30
0.0
 40
0.0078740157066383
 50
271.999999643665376
 51
353.8747820108142719
  0
LINE
  5
AC19
  8
0
 10
4750.8523332279874012
 20
223.4817889706872052
 30
0.0
 11
4750.7601826276786596
 21
223.4785710013892128
 31
0.0
  0
ARC
  5
AC1A
  8
0
 10
4750.7599078285365977
 20
223.4864402206405032
 30
0.0
 40
0.007874015887376
 50
190.1252235553035064
 51
271.999999643665376
  0
LINE
  5
AC1B
  8
0
 10
4750.7521564435010077
 20
223.4850559676951889
 30
0.0
 11
4750.7440981347763227
 21
223.5301799848583073
 31
0.0
  0
LINE
  5
AC1C
  8
0
 10
4750.6492989095850135
 20
223.530179980978005
 30
0.0
 11
4750.6439292732793547
 21
223.4878663671291008
 31
0.0
  0
ARC
  5
AC1D
  8
0
 10
4750.6361179028772312
 20
223.4888576371789952
 30
0.0
 40
0.0078740157392793
 50
271.0000000592862079
 51
352.7677700702690231
  0
LINE
  5
AC1E
  8
0
 10
4750.6362553234075676
 20
223.480984820690594
 30
0.0
 11
4750.5438994515097875
 21
223.4793727428545083
 31
0.0
  0
ARC
  5
AC1F
  8
0
 10
4750.5437647768230818
 20
223.4870882500480036
 30
0.0
 40
0.0077166824817647
 50
233.9287331594730119
 51
271.0000000593382765
  0
LINE
  5
AC20
  8
0
 10
4750.5599328688977039
 20
223.5301799754402907
 30
0.0
 11
4750.5545632325920451
 21
223.4878663615915002
 31
0.0
  0
ARC
  5
AC21
  8
0
 10
4750.5467518621899217
 20
223.4888576316413094
 30
0.0
 40
0.0078740157392793
 50
271.0000000592862079
 51
352.7677700702690231
  0
LINE
  5
AC22
  8
0
 10
4750.5468892827211675
 20
223.4809848151529081
 30
0.0
 11
4750.4545334108215684
 21
223.479372737316794
 31
0.0
  0
ARC
  5
AC23
  8
0
 10
4750.4543987361357722
 20
223.4870882445102893
 30
0.0
 40
0.0077166824817647
 50
188.2221241206740956
 51
271.0000000593382765
  0
LINE
  5
AC24
  8
0
 10
4750.4467613727956632
 20
223.4859846731521031
 30
0.0
 11
4750.4403753107853845
 21
223.530179980978005
 31
0.0
  0
LINE
  5
AC25
  8
0
 10
4750.3478640913854179
 20
223.530179980978005
 30
0.0
 11
4750.3424944550779401
 21
223.4878663671291008
 31
0.0
  0
ARC
  5
AC26
  8
0
 10
4750.3346830846776356
 20
223.4888576371789952
 30
0.0
 40
0.0078740157392793
 50
271.0000000592862079
 51
352.7677700702690231
  0
LINE
  5
AC27
  8
0
 10
4750.3348205052088815
 20
223.480984820690594
 30
0.0
 11
4750.2424646333101919
 21
223.4793727428543946
 31
0.0
  0
ARC
  5
AC28
  8
0
 10
4750.2423299586225767
 20
223.4870882500480036
 30
0.0
 40
0.0077166824817647
 50
188.2221241206740956
 51
271.0000000593382765
  0
LINE
  5
AC29
  8
0
 10
4750.2346925952842867
 20
223.4859846786897037
 30
0.0
 11
4750.2283065323381379
 21
223.5301799929727053
 31
0.0
  0
LINE
  5
AC2A
  8
0
 10
4750.1807054472392338
 20
223.5301800068641001
 30
0.0
 11
4750.187763191985141
 21
223.4861101036779871
 31
0.0
  0
ARC
  5
AC2B
  8
0
 10
4750.1955724724857646
 20
223.4873742182917908
 30
0.0
 40
0.0079109321635732
 50
189.194903645072003
 51
264.6484436406370264
  0
LINE
  5
AC2C
  8
0
 10
4750.1948346472845515
 20
223.4794977684780122
 30
0.0
 11
4750.2379673793629991
 21
223.4807231034880886
 31
0.0
  0
LINE
  5
AC2D
  8
0
 10
4749.9988887930630881
 20
223.5301800061025972
 30
0.0
 11
4749.9925550103853311
 21
223.4869134763779925
 31
0.0
  0
ARC
  5
AC2E
  8
0
 10
4749.9847640121433869
 20
223.4880539997807887
 30
0.0
 40
0.0078740362735157
 50
270.1206964461431994
 51
351.671633029106772
  0
LINE
  5
AC2F
  8
0
 10
4749.9847805991839778
 20
223.4801799809779936
 30
0.0
 11
4749.8924918485854505
 21
223.4801799809779936
 31
0.0
  0
ARC
  5
AC30
  8
0
 10
4749.892508449066554
 20
223.4880540152853996
 30
0.0
 40
0.0078740518065056
 50
188.3284645243429054
 51
269.8792059938990064
  0
LINE
  5
AC31
  8
0
 10
4749.8847174373977396
 20
223.4869134763675902
 30
0.0
 11
4749.8832564765170901
 21
223.4968934064457926
 31
0.0
  0
LINE
  5
AC32
  8
0
 10
4749.888129298226886
 20
223.5301800056388117
 30
0.0
 11
4749.8817984203005835
 21
223.4869333184838069
 31
0.0
  0
ARC
  5
AC33
  8
0
 10
4749.8740074220595488
 20
223.4880738418866031
 30
0.0
 40
0.0078740362735157
 50
270.1206964461431994
 51
351.671633029106772
  0
LINE
  5
AC34
  8
0
 10
4749.8740240091010492
 20
223.480199823083808
 30
0.0
 11
4749.7817352585007029
 21
223.480199823083808
 31
0.0
  0
ARC
  5
AC35
  8
0
 10
4749.7817518589827159
 20
223.4880738573912993
 30
0.0
 40
0.0078740518065056
 50
188.3284645243429054
 51
269.8792059938990064
  0
LINE
  5
AC36
  8
0
 10
4749.773960847312992
 20
223.4869333184732909
 30
0.0
 11
4749.7676299730837854
 21
223.530179980978005
 31
0.0
  0
LINE
  5
AC37
  8
0
 10
4749.7377965644864162
 20
223.530179980978005
 30
0.0
 11
4749.7314627854811988
 21
223.4869134763536067
 31
0.0
  0
ARC
  5
AC38
  8
0
 10
4749.7236718075637327
 20
223.4880539968133064
 30
0.0
 40
0.0078740157366753
 50
274.069418884282527
 51
351.6716327965298206
  0
LINE
  5
AC39
  8
0
 10
4749.724230587555212
 20
223.4801998330295021
 30
0.0
 11
4749.6610223598690936
 21
223.4801998332407038
 31
0.0
  0
LINE
  5
AC3A
  8
0
 10
4749.6751305500692979
 20
223.5301998332406868
 30
0.0
 11
4749.668796771070447
 21
223.486933328640788
 31
0.0
  0
ARC
  5
AC3B
  8
0
 10
4749.6610057728275933
 20
223.4880738520434988
 30
0.0
 40
0.0078740362735157
 50
270.1206964461431994
 51
351.671633029106772
  0
LINE
  5
AC3C
  8
0
 10
4749.6610223598690936
 20
223.4801998332407038
 30
0.0
 11
4749.5687336092696569
 21
223.4801998332407038
 31
0.0
  0
ARC
  5
AC3D
  8
0
 10
4749.5687502097516699
 20
223.488073867548195
 30
0.0
 40
0.0078740518065056
 50
188.3284645243429054
 51
269.8792059938990064
  0
LINE
  5
AC3E
  8
0
 10
4749.5609591980819459
 20
223.4869333286303004
 30
0.0
 11
4749.5546283238518299
 21
223.530179991134986
 31
0.0
  0
LINE
  5
AC3F
  8
0
 10
4749.349642778364796
 20
223.5301998340991929
 30
0.0
 11
4749.3433089993650356
 21
223.4869333294992089
 31
0.0
  0
ARC
  5
AC40
  8
0
 10
4749.3355180011230914
 20
223.488073852902005
 30
0.0
 40
0.0078740362735157
 50
270.1206964461431994
 51
351.671633029106772
  0
LINE
  5
AC41
  8
0
 10
4749.3355345881645917
 20
223.4801998340992952
 30
0.0
 11
4749.2432458375651549
 21
223.4801998340992952
 31
0.0
  0
ARC
  5
AC42
  8
0
 10
4749.243262438047168
 20
223.4880738684067012
 30
0.0
 40
0.0078740518065056
 50
188.3284645243429054
 51
269.8792059938990064
  0
LINE
  5
AC43
  8
0
 10
4749.235471426377444
 20
223.4869333294888065
 30
0.0
 11
4749.2291405521482375
 21
223.5301799919934069
 31
0.0
  0
LINE
  5
AC44
  8
0
 10
4749.1752181004767408
 20
223.5301998348654138
 30
0.0
 11
4749.1688843214760709
 21
223.4869333302654013
 31
0.0
  0
ARC
  5
AC45
  8
0
 10
4749.1610933232350362
 20
223.4880738536681974
 30
0.0
 40
0.0078740362735157
 50
270.1206964461431994
 51
351.671633029106772
  0
LINE
  5
AC46
  8
0
 10
4749.161109910277446
 20
223.4801998348654024
 30
0.0
 11
4749.0688211596770998
 21
223.4801998348654024
 31
0.0
  0
ARC
  5
AC47
  8
0
 10
4749.0688377601591128
 20
223.4880738691728936
 30
0.0
 40
0.0078740518065056
 50
188.3284645243429054
 51
269.8792059938990064
  0
LINE
  5
AC48
  8
0
 10
4749.0610467484893888
 20
223.486933330254999
 30
0.0
 11
4749.0547158742601823
 21
223.5301799927595994
 31
0.0
  0
LINE
  5
AC49
  8
0
 10
4749.0244764358012617
 20
223.530199823083791
 30
0.0
 11
4749.0181426568005918
 21
223.4869333184838069
 31
0.0
  0
ARC
  5
AC4A
  8
0
 10
4749.0103516585595571
 20
223.4880738418866031
 30
0.0
 40
0.0078740362735157
 50
270.1206964461431994
 51
351.671633029106772
  0
LINE
  5
AC4B
  8
0
 10
4749.0103682456010574
 20
223.480199823083808
 30
0.0
 11
4748.9180794950007112
 21
223.480199823083808
 31
0.0
  0
ARC
  5
AC4C
  8
0
 10
4748.9180960954836337
 20
223.4880738573912993
 30
0.0
 40
0.0078740518065056
 50
188.3284645243429054
 51
269.8792059938990064
  0
LINE
  5
AC4D
  8
0
 10
4748.9103050838130002
 20
223.4869333184732909
 30
0.0
 11
4748.9039742095847032
 21
223.530179980978005
 31
0.0
  0
LINE
  5
AC4E
  8
0
 10
4748.891348962201846
 20
223.530199823083791
 30
0.0
 11
4748.8850151832002666
 21
223.4869333184838069
 31
0.0
  0
ARC
  5
AC4F
  8
0
 10
4748.8772241849592319
 20
223.4880738418866031
 30
0.0
 40
0.0078740362735157
 50
270.1206964461431994
 51
351.671633029106772
  0
LINE
  5
AC50
  8
0
 10
4748.8772407720016417
 20
223.480199823083808
 30
0.0
 11
4748.7849520214012955
 21
223.480199823083808
 31
0.0
  0
ARC
  5
AC51
  8
0
 10
4748.7849686218833085
 20
223.4880738573912993
 30
0.0
 40
0.0078740518065056
 50
188.3284645243429054
 51
269.8792059938990064
  0
LINE
  5
AC52
  8
0
 10
4748.7771776102135846
 20
223.4869333184732909
 30
0.0
 11
4748.7708467359852875
 21
223.530179980978005
 31
0.0
  0
LINE
  5
AC53
  8
0
 10
4748.7227355293853179
 20
223.530179980978005
 30
0.0
 11
4748.716401750384648
 21
223.4869134763779925
 31
0.0
  0
ARC
  5
AC54
  8
0
 10
4748.7086107521427039
 20
223.4880539997807887
 30
0.0
 40
0.0078740362735157
 50
270.1206964461431994
 51
351.671633029106772
  0
LINE
  5
AC55
  8
0
 10
4748.7086273391851137
 20
223.4801799809779936
 30
0.0
 11
4748.6163350709311999
 21
223.4801799891799021
 31
0.0
  0
ARC
  5
AC56
  8
0
 10
4748.6163551890658709
 20
223.4880540152853996
 30
0.0
 40
0.007874051806508
 50
188.3284645243525972
 51
269.8536096105186175
  0
LINE
  5
AC57
  8
0
 10
4748.608564177397966
 20
223.4869134763675902
 30
0.0
 11
4748.6022333031687594
 21
223.5301601388721906
 31
0.0
  0
LINE
  5
AC58
  8
0
 10
4748.5790968849960336
 20
223.5301799952206068
 30
0.0
 11
4748.5850119810838805
 21
223.490280232039197
 31
0.0
  0
ARC
  5
AC59
  8
0
 10
4748.5966984471078831
 20
223.4919910022157978
 30
0.0
 40
0.0118110212388401
 50
188.3283173409791118
 51
270.0670353016377021
  0
LINE
  5
AC5A
  8
0
 10
4748.5967122658421431
 20
223.4801799890607867
 30
0.0
 11
4748.6163350709311999
 21
223.4801799891799021
 31
0.0
  0
LINE
  5
AC5B
  8
0
 10
4748.4921073060850176
 20
223.530179980978005
 30
0.0
 11
4748.4984410850893255
 21
223.4869134763536067
 31
0.0
  0
ARC
  5
AC5C
  8
0
 10
4748.5062320802062459
 20
223.4880539992988986
 30
0.0
 40
0.0078740331155358
 50
188.3283669708785908
 51
270.1110684188943196
  0
LINE
  5
AC5D
  8
0
 10
4748.5062473440839312
 20
223.4801799809779936
 30
0.0
 11
4748.5967122658421431
 21
223.4801799890607867
 31
0.0
  0
LINE
  5
AC5E
  8
0
 10
4743.9917880609691565
 20
224.0026209258780057
 30
0.0
 11
4743.9917880609691565
 21
223.560101240877998
 31
0.0
  0
LINE
  5
AC5F
  8
0
 10
4751.9878510529697451
 20
223.5601012408779127
 30
0.0
 11
4751.9878510529697451
 21
224.0026209258780057
 31
0.0
  0
ENDSEC
  0
EOF
