  0
SECTION
  2
HEADER
  9
$ACADVER
  1
AC1014
  9
$ACADMAINTVER
 70
     9
  9
$DWGCODEPAGE
  3
ANSI_1252
  9
$INSBASE
 10
0.0
 20
0.0
 30
0.0
  9
$EXTMIN
 10
-29.88971248189678
 20
-31.31732566044694
 30
0.0
  9
$EXTMAX
 10
29.88971248189678
 20
0.1035533905932808
 30
0.0
  9
$LIMMIN
 10
0.0
 20
0.0
  9
$LIMMAX
 10
12.0
 20
9.0
  9
$ORTHOMODE
 70
     0
  9
$REGENMODE
 70
     1
  9
$FILLMODE
 70
     1
  9
$QTEXTMODE
 70
     0
  9
$MIRRTEXT
 70
     1
  9
$DRAGMODE
 70
     2
  9
$LTSCALE
 40
1.0
  9
$OSMODE
 70
    37
  9
$ATTMODE
 70
     1
  9
$TEXTSIZE
 40
0.002
  9
$TRACEWID
 40
0.05
  9
$TEXTSTYLE
  7
STANDARD
  9
$CLAYER
  8
LAYER1
  9
$CELTYPE
  6
BYLAYER
  9
$CECOLOR
 62
   256
  9
$CELTSCALE
 40
1.0
  9
$DELOBJ
 70
     1
  9
$DISPSILH
 70
     0
  9
$DIMSCALE
 40
1.0
  9
$DIMASZ
 40
0.18
  9
$DIMEXO
 40
0.0625
  9
$DIMDLI
 40
0.38
  9
$DIMRND
 40
0.0
  9
$DIMDLE
 40
0.0
  9
$DIMEXE
 40
0.18
  9
$DIMTP
 40
0.0
  9
$DIMTM
 40
0.0
  9
$DIMTXT
 40
0.18
  9
$DIMCEN
 40
0.09
  9
$DIMTSZ
 40
0.0
  9
$DIMTOL
 70
     0
  9
$DIMLIM
 70
     0
  9
$DIMTIH
 70
     1
  9
$DIMTOH
 70
     1
  9
$DIMSE1
 70
     0
  9
$DIMSE2
 70
     0
  9
$DIMTAD
 70
     0
  9
$DIMZIN
 70
     0
  9
$DIMBLK
  1

  9
$DIMASO
 70
     1
  9
$DIMSHO
 70
     1
  9
$DIMPOST
  1

  9
$DIMAPOST
  1

  9
$DIMALT
 70
     0
  9
$DIMALTD
 70
     2
  9
$DIMALTF
 40
25.4
  9
$DIMLFAC
 40
1.0
  9
$DIMTOFL
 70
     0
  9
$DIMTVP
 40
0.0
  9
$DIMTIX
 70
     0
  9
$DIMSOXD
 70
     0
  9
$DIMSAH
 70
     0
  9
$DIMBLK1
  1

  9
$DIMBLK2
  1

  9
$DIMSTYLE
  2
STANDARD
  9
$DIMCLRD
 70
     0
  9
$DIMCLRE
 70
     0
  9
$DIMCLRT
 70
     0
  9
$DIMTFAC
 40
1.0
  9
$DIMGAP
 40
0.09
  9
$DIMJUST
 70
     0
  9
$DIMSD1
 70
     0
  9
$DIMSD2
 70
     0
  9
$DIMTOLJ
 70
     1
  9
$DIMTZIN
 70
     0
  9
$DIMALTZ
 70
     0
  9
$DIMALTTZ
 70
     0
  9
$DIMFIT
 70
     3
  9
$DIMUPT
 70
     0
  9
$DIMUNIT
 70
     2
  9
$DIMDEC
 70
     4
  9
$DIMTDEC
 70
     4
  9
$DIMALTU
 70
     2
  9
$DIMALTTD
 70
     2
  9
$DIMTXSTY
  7
STANDARD
  9
$DIMAUNIT
 70
     0
  9
$LUNITS
 70
     2
  9
$LUPREC
 70
     4
  9
$SKETCHINC
 40
0.1
  9
$FILLETRAD
 40
0.25
  9
$AUNITS
 70
     0
  9
$AUPREC
 70
     0
  9
$MENU
  1
.
  9
$ELEVATION
 40
0.0
  9
$PELEVATION
 40
0.0
  9
$THICKNESS
 40
0.0
  9
$LIMCHECK
 70
     0
  9
$BLIPMODE
 70
     0
  9
$CHAMFERA
 40
0.5
  9
$CHAMFERB
 40
0.5
  9
$CHAMFERC
 40
1.0
  9
$CHAMFERD
 40
0.0
  9
$SKPOLY
 70
     0
  9
$TDCREATE
 40
2452355.453559490
  9
$TDUPDATE
 40
2452537.685241227
  9
$TDINDWG
 40
0.3292644676
  9
$TDUSRTIMER
 40
0.3292644676
  9
$USRTIMER
 70
     1
  9
$ANGBASE
 50
0.0
  9
$ANGDIR
 70
     0
  9
$PDMODE
 70
     0
  9
$PDSIZE
 40
0.0
  9
$PLINEWID
 40
0.0
  9
$COORDS
 70
     1
  9
$SPLFRAME
 70
     0
  9
$SPLINETYPE
 70
     6
  9
$SPLINESEGS
 70
     8
  9
$ATTDIA
 70
     0
  9
$ATTREQ
 70
     1
  9
$HANDLING
 70
 22529
  9
$HANDSEED
  5
54A
  9
$SURFTAB1
 70
     6
  9
$SURFTAB2
 70
     6
  9
$SURFTYPE
 70
     6
  9
$SURFU
 70
     6
  9
$SURFV
 70
     6
  9
$UCSNAME
  2

  9
$UCSORG
 10
0.0
 20
0.0
 30
0.0
  9
$UCSXDIR
 10
1.0
 20
0.0
 30
0.0
  9
$UCSYDIR
 10
0.0
 20
1.0
 30
0.0
  9
$PUCSNAME
  2

  9
$PUCSORG
 10
0.0
 20
0.0
 30
0.0
  9
$PUCSXDIR
 10
1.0
 20
0.0
 30
0.0
  9
$PUCSYDIR
 10
0.0
 20
1.0
 30
0.0
  9
$USERI1
 70
     0
  9
$USERI2
 70
     0
  9
$USERI3
 70
     0
  9
$USERI4
 70
     0
  9
$USERI5
 70
     0
  9
$USERR1
 40
0.0
  9
$USERR2
 40
0.0
  9
$USERR3
 40
0.0
  9
$USERR4
 40
0.0
  9
$USERR5
 40
0.0
  9
$WORLDVIEW
 70
     1
  9
$SHADEDGE
 70
     3
  9
$SHADEDIF
 70
    70
  9
$TILEMODE
 70
     1
  9
$MAXACTVP
 70
    48
  9
$PINSBASE
 10
0.0
 20
0.0
 30
0.0
  9
$PLIMCHECK
 70
     0
  9
$PEXTMIN
 10
1.000000000000000E+20
 20
1.000000000000000E+20
 30
1.000000000000000E+20
  9
$PEXTMAX
 10
-1.000000000000000E+20
 20
-1.000000000000000E+20
 30
-1.000000000000000E+20
  9
$PLIMMIN
 10
0.0
 20
0.0
  9
$PLIMMAX
 10
12.0
 20
9.0
  9
$UNITMODE
 70
     0
  9
$VISRETAIN
 70
     1
  9
$PLINEGEN
 70
     0
  9
$PSLTSCALE
 70
     1
  9
$TREEDEPTH
 70
  3020
  9
$PICKSTYLE
 70
     1
  9
$CMLSTYLE
  2
STANDARD
  9
$CMLJUST
 70
     0
  9
$CMLSCALE
 40
1.0
  9
$PROXYGRAPHICS
 70
     1
  9
$MEASUREMENT
 70
     0
  0
ENDSEC
  0
SECTION
  2
CLASSES
  0
CLASS
  1
ACDBDICTIONARYWDFLT
  2
AcDbDictionaryWithDefault
  3
AutoCAD 2000
 90
        0
280
     0
281
     0
  0
CLASS
  1
ACDBPLACEHOLDER
  2
AcDbPlaceHolder
  3
AutoCAD 2000
 90
        0
280
     0
281
     0
  0
CLASS
  1
LAYOUT
  2
AcDbLayout
  3
AutoCAD 2000
 90
        0
280
     0
281
     0
  0
CLASS
  1
DICTIONARYVAR
  2
AcDbDictionaryVar
  3
AutoCAD 2000
 90
        0
280
     0
281
     0
  0
CLASS
  1
LONG_TRANSACTION
  2
AcDbLongTransaction
  3
AutoCAD 2000
 90
        0
280
     0
281
     0
  0
CLASS
  1
LWPOLYLINE
  2
AcDbPolyline
  3
AutoCAD 2000
 90
        0
280
     0
281
     1
  0
CLASS
  1
HATCH
  2
AcDbHatch
  3
AutoCAD 2000
 90
        0
280
     0
281
     1
  0
CLASS
  1
XRECORD
  2
AcDbXrecord
  3
AutoCAD 2000
 90
        0
280
     0
281
     0
  0
CLASS
  1
LONG_TRANSACTION
  2
AcDbLongTransaction
  3
AutoCAD 2000
 90
        0
280
     0
281
     0
  0
CLASS
  1
LWPOLYLINE
  2
AcDbPolyline
  3
AutoCAD 2000
 90
        0
280
     0
281
     1
  0
CLASS
  1
HATCH
  2
AcDbHatch
  3
AutoCAD 2000
 90
        0
280
     0
281
     1
  0
CLASS
  1
XRECORD
  2
AcDbXrecord
  3
AutoCAD 2000
 90
        0
280
     0
281
     0
  0
ENDSEC
  0
SECTION
  2
TABLES
  0
TABLE
  2
VPORT
  5
8
330
0
100
AcDbSymbolTable
 70
     2
  0
VPORT
  5
526
330
8
100
AcDbSymbolTableRecord
100
AcDbViewportTableRecord
  2
*ACTIVE
 70
     0
 10
0.0
 20
0.0
 11
1.0
 21
1.0
 12
-0.0002759350496717
 22
-15.60662279535337
 13
0.0
 23
0.0
 14
0.5
 24
0.5
 15
0.5
 25
0.5
 16
0.0
 26
0.0
 36
1.0
 17
0.0
 27
0.0
 37
0.0
 40
40.76250998167323
 41
1.773480662983425
 42
50.0
 43
0.0
 44
0.0
 50
0.0
 51
0.0
 71
     0
 72
   100
 73
     1
 74
     2
 75
     0
 76
     0
 77
     0
 78
     0
  0
ENDTAB
  0
TABLE
  2
LTYPE
  5
5
330
0
100
AcDbSymbolTable
 70
     1
  0
LTYPE
  5
14
330
5
100
AcDbSymbolTableRecord
100
AcDbLinetypeTableRecord
  2
BYBLOCK
 70
     0
  3

 72
    65
 73
     0
 40
0.0
  0
LTYPE
  5
15
330
5
100
AcDbSymbolTableRecord
100
AcDbLinetypeTableRecord
  2
BYLAYER
 70
     0
  3

 72
    65
 73
     0
 40
0.0
  0
LTYPE
  5
16
330
5
100
AcDbSymbolTableRecord
100
AcDbLinetypeTableRecord
  2
CONTINUOUS
 70
     0
  3
Solid line
 72
    65
 73
     0
 40
0.0
  0
ENDTAB
  0
TABLE
  2
LAYER
  5
2
330
0
100
AcDbSymbolTable
 70
     3
  0
LAYER
  5
10
330
2
100
AcDbSymbolTableRecord
100
AcDbLayerTableRecord
  2
0
 70
     0
 62
     7
  6
CONTINUOUS
  0
LAYER
  5
32
330
2
100
AcDbSymbolTableRecord
100
AcDbLayerTableRecord
  2
LAYER1
 70
     0
 62
     6
  6
CONTINUOUS
  0
LAYER
  5
74
330
2
100
AcDbSymbolTableRecord
100
AcDbLayerTableRecord
  2
DEFPOINTS
 70
     0
 62
     7
  6
CONTINUOUS
  0
ENDTAB
  0
TABLE
  2
STYLE
  5
3
330
0
100
AcDbSymbolTable
 70
     1
  0
STYLE
  5
11
330
3
100
AcDbSymbolTableRecord
100
AcDbTextStyleTableRecord
  2
STANDARD
 70
     0
 40
0.0
 41
1.0
 50
0.0
 71
     0
 42
0.002
  3
txt
  4

  0
ENDTAB
  0
TABLE
  2
VIEW
  5
6
330
0
100
AcDbSymbolTable
 70
     0
  0
ENDTAB
  0
TABLE
  2
UCS
  5
7
330
0
100
AcDbSymbolTable
 70
     0
  0
ENDTAB
  0
TABLE
  2
APPID
  5
9
330
0
100
AcDbSymbolTable
 70
     2
  0
APPID
  5
12
330
9
100
AcDbSymbolTableRecord
100
AcDbRegAppTableRecord
  2
ACAD
 70
     0
  0
APPID
  5
30F
330
9
100
AcDbSymbolTableRecord
100
AcDbRegAppTableRecord
  2
DCO15
 70
     0
  0
ENDTAB
  0
TABLE
  2
DIMSTYLE
  5
A
330
0
100
AcDbSymbolTable
 70
     1
  0
DIMSTYLE
105
27
330
A
100
AcDbSymbolTableRecord
100
AcDbDimStyleTableRecord
  2
STANDARD
 70
     0
  3

  4

  5

  6

  7

 40
1.0
 41
0.18
 42
0.0625
 43
0.38
 44
0.18
 45
0.0
 46
0.0
 47
0.0
 48
0.0
140
0.18
141
0.09
142
0.0
143
25.4
144
1.0
145
0.0
146
1.0
147
0.09
 71
     0
 72
     0
 73
     1
 74
     1
 75
     0
 76
     0
 77
     0
 78
     0
170
     0
171
     2
172
     0
173
     0
174
     0
175
     0
176
     0
177
     0
178
     0
270
     2
271
     4
272
     4
273
     2
274
     2
340
11
275
     0
280
     0
281
     0
282
     0
283
     1
284
     0
285
     0
286
     0
287
     3
288
     0
  0
ENDTAB
  0
TABLE
  2
BLOCK_RECORD
  5
1
330
0
100
AcDbSymbolTable
 70
     1
  0
BLOCK_RECORD
  5
1F
102
{ACAD_XDICTIONARY
360
4E2
102
}
330
1
100
AcDbSymbolTableRecord
100
AcDbBlockTableRecord
  2
*MODEL_SPACE
  0
BLOCK_RECORD
  5
1B
102
{ACAD_XDICTIONARY
360
4E4
102
}
330
1
100
AcDbSymbolTableRecord
100
AcDbBlockTableRecord
  2
*PAPER_SPACE
  0
ENDTAB
  0
ENDSEC
  0
SECTION
  2
BLOCKS
  0
BLOCK
  5
20
330
1F
100
AcDbEntity
  8
0
100
AcDbBlockBegin
  2
*MODEL_SPACE
 70
     0
 10
0.0
 20
0.0
 30
0.0
  3
*MODEL_SPACE
  1

  0
ENDBLK
  5
21
330
1F
100
AcDbEntity
  8
0
100
AcDbBlockEnd
  0
BLOCK
  5
1C
330
1B
100
AcDbEntity
 67
     1
  8
0
100
AcDbBlockBegin
  2
*PAPER_SPACE
 70
     0
 10
0.0
 20
0.0
 30
0.0
  3
*PAPER_SPACE
  1

  0
ENDBLK
  5
1D
330
1B
100
AcDbEntity
 67
     1
  8
0
100
AcDbBlockEnd
  0
ENDSEC
  0
SECTION
  2
ENTITIES
  0
ATTDEF
  5
447
330
1F
100
AcDbEntity
  8
LAYER1
100
AcDbText
 10
0.0
 20
0.0
 30
0.0
 40
0.002
  1
K-1357
100
AcDbAttributeDefinition
  3

  2
MODELNUMBER
 70
     8
  0
ATTDEF
  5
448
330
1F
100
AcDbEntity
  8
LAYER1
100
AcDbText
 10
0.0
 20
-0.0033333333333333
 30
0.0
 40
0.002
  1
DEVONSHIRE
100
AcDbAttributeDefinition
  3

  2
TRADENAME
 70
     8
  0
ATTDEF
  5
449
330
1F
100
AcDbEntity
  8
LAYER1
100
AcDbText
 10
0.0
 20
-0.0066666666666667
 30
0.0
 40
0.002
  1
WHIRLPOOL
100
AcDbAttributeDefinition
  3

  2
PRODUCT
 70
     8
  0
ATTDEF
  5
44A
330
1F
100
AcDbEntity
  8
LAYER1
100
AcDbText
 10
0.0
 20
-0.01
 30
0.0
 40
0.002
  1
ACRYLIC
100
AcDbAttributeDefinition
  3

  2
MATERIAL
 70
     8
  0
ARC
  5
44B
330
1F
100
AcDbEntity
  8
LAYER1
100
AcDbCircle
 10
29.28615909130351
 20
-0.5000000000000071
 30
0.0
 40
0.5
100
AcDbArc
 50
0.0
 51
90.0
  0
ARC
  5
44C
330
1F
100
AcDbEntity
  8
LAYER1
100
AcDbCircle
 10
25.7287195018267
 20
-2.16525366392139
 30
0.0
 40
0.375
100
AcDbArc
 50
0.0
 51
15.16912500435023
  0
ARC
  5
44D
330
1F
100
AcDbEntity
  8
LAYER1
100
AcDbCircle
 10
23.58029074046476
 20
-3.525115808978995
 30
0.0
 40
0.4375
100
AcDbArc
 50
42.39073627482715
 51
90.0
  0
ARC
  5
44E
330
1F
100
AcDbEntity
  8
LAYER1
100
AcDbCircle
 10
23.69057802106206
 20
-3.275115808978995
 30
0.0
 40
0.4375
100
AcDbArc
 50
42.39073627482659
 51
90.0
  0
ARC
  5
44F
330
1F
100
AcDbEntity
  8
LAYER1
100
AcDbCircle
 10
24.09216158626195
 20
-4.085867963463208
 30
0.0
 40
0.4375
100
AcDbArc
 50
0.0
 51
42.3907362748275
  0
ARC
  5
450
330
1F
100
AcDbEntity
  8
LAYER1
100
AcDbCircle
 10
24.34216158626195
 20
-3.988922604213279
 30
0.0
 40
0.4375
100
AcDbArc
 50
0.0
 51
42.39073627482695
  0
LINE
  5
451
330
1F
100
AcDbEntity
  8
LAYER1
100
AcDbLine
 10
24.41528349108124
 20
-3.790912908198933
 30
0.0
 11
23.90341264528405
 21
-3.23016075371472
 31
0.0
  0
LINE
  5
452
330
1F
100
AcDbEntity
  8
LAYER1
100
AcDbLine
 10
24.66528349108124
 20
-3.693967548949004
 30
0.0
 11
24.01369992588135
 21
-2.980160753714727
 31
0.0
  0
ARC
  5
453
330
1F
100
AcDbEntity
  8
LAYER1
100
AcDbCircle
 10
26.3537195018267
 20
-8.638327978897308
 30
0.0
 40
0.25
100
AcDbArc
 50
180.0
 51
219.8463387543928
  0
ARC
  5
454
330
1F
100
AcDbEntity
  8
LAYER1
100
AcDbCircle
 10
24.77966158626195
 20
-8.68242688381062
 30
0.0
 40
0.25
100
AcDbArc
 50
180.0
 51
217.8947692399967
  0
LINE
  5
455
330
1F
100
AcDbEntity
  8
LAYER1
100
AcDbLine
 10
26.1037195018267
 20
-2.16525366392139
 30
0.0
 11
26.1037195018267
 21
-8.638327978897308
 31
0.0
  0
LINE
  5
456
330
1F
100
AcDbEntity
  8
LAYER1
100
AcDbLine
 10
24.52966158626195
 20
-4.085867963463208
 30
0.0
 11
24.52966158626195
 21
-8.68242688381062
 31
0.0
  0
LINE
  5
457
330
1F
100
AcDbEntity
  8
LAYER1
100
AcDbLine
 10
24.77966158626195
 20
-3.988922604213279
 30
0.0
 11
24.77966158626195
 21
-8.682426883810606
 31
0.0
  0
ARC
  5
458
330
1F
100
AcDbEntity
  8
LAYER1
100
AcDbCircle
 10
24.81105572501475
 20
-2.414046466870516
 30
0.0
 40
1.325791599706398
100
AcDbArc
 50
15.16912500435023
 51
61.55467855632905
  0
ARC
  5
459
330
1F
100
AcDbEntity
  8
LAYER1
100
AcDbCircle
 10
21.90372749513708
 20
-10.65363206315437
 30
0.0
 40
0.5
100
AcDbArc
 50
90.0
 51
180.0
  0
LINE
  5
45A
330
1F
100
AcDbEntity
  8
LAYER1
100
AcDbLine
 10
24.54879591541495
 20
-10.15363206315436
 30
0.0
 11
21.90372749513708
 21
-10.15363206315436
 31
0.0
  0
LINE
  5
45B
330
1F
100
AcDbEntity
  8
LAYER1
100
AcDbLine
 10
28.25948984820054
 20
-16.6277103781643
 30
0.0
 11
28.25948984820054
 21
-15.60688613492682
 31
0.0
  0
LINE
  5
45C
330
1F
100
AcDbEntity
  8
LAYER1
100
AcDbLine
 10
26.8810273189172
 20
-16.41028175691008
 30
0.0
 11
26.8810273189172
 21
-15.60688613492682
 31
0.0
  0
LINE
  5
45D
330
1F
100
AcDbEntity
  8
LAYER1
100
AcDbLine
 10
26.6310273189172
 20
-16.41028175691008
 30
0.0
 11
26.6310273189172
 21
-15.60688613492682
 31
0.0
  0
LINE
  5
45E
330
1F
100
AcDbEntity
  8
LAYER1
100
AcDbLine
 10
26.6310273189172
 20
-14.80349051294357
 30
0.0
 11
26.6310273189172
 21
-15.60688613492684
 31
0.0
  0
LINE
  5
45F
330
1F
100
AcDbEntity
  8
LAYER1
100
AcDbLine
 10
26.8810273189172
 20
-14.80349051294357
 30
0.0
 11
26.8810273189172
 21
-15.60688613492684
 31
0.0
  0
LINE
  5
460
330
1F
100
AcDbEntity
  8
LAYER1
100
AcDbLine
 10
28.25948984820054
 20
-14.58606189168936
 30
0.0
 11
28.25948984820054
 21
-15.60688613492684
 31
0.0
  0
LINE
  5
461
330
1F
100
AcDbEntity
  8
LAYER1
100
AcDbLine
 10
21.40372749513708
 20
-10.65363206315437
 30
0.0
 11
21.40372749513708
 21
-15.60688613492684
 31
0.0
  0
ARC
  5
462
330
1F
100
AcDbEntity
  8
LAYER1
100
AcDbCircle
 10
26.3537195018267
 20
-22.57544429095635
 30
0.0
 40
0.25
100
AcDbArc
 50
140.1536612456071
 51
180.0
  0
ARC
  5
463
330
1F
100
AcDbEntity
  8
LAYER1
100
AcDbCircle
 10
24.77966158626195
 20
-22.53134538604304
 30
0.0
 40
0.25
100
AcDbArc
 50
142.1052307600032
 51
180.0
  0
LINE
  5
464
330
1F
100
AcDbEntity
  8
LAYER1
100
AcDbLine
 10
24.54879591541495
 20
-21.06014020669929
 30
0.0
 11
21.90372749513708
 21
-21.06014020669929
 31
0.0
  0
ARC
  5
465
330
1F
100
AcDbEntity
  8
LAYER1
100
AcDbCircle
 10
21.90372749513708
 20
-20.56014020669929
 30
0.0
 40
0.5
100
AcDbArc
 50
180.0
 51
270.0
  0
ARC
  5
466
330
1F
100
AcDbEntity
  8
LAYER1
100
AcDbCircle
 10
19.22675605630971
 20
-16.6277103781643
 30
0.0
 40
9.032733791890823
100
AcDbArc
 50
320.1536612456066
 51
0.0
  0
LINE
  5
467
330
1F
100
AcDbEntity
  8
LAYER1
100
AcDbLine
 10
21.40372749513708
 20
-20.56014020669929
 30
0.0
 11
21.40372749513708
 21
-15.60688613492681
 31
0.0
  0
ARC
  5
468
330
1F
100
AcDbEntity
  8
LAYER1
100
AcDbCircle
 10
16.91532804929287
 20
-16.41028175691008
 30
0.0
 40
9.965699269624332
100
AcDbArc
 50
322.1052307600021
 51
0.0
  0
ARC
  5
469
330
1F
100
AcDbEntity
  8
LAYER1
100
AcDbCircle
 10
11.6143335978921
 20
-15.33403835806056
 30
0.0
 40
14.39526626912346
100
AcDbArc
 50
330.1549899662747
 51
358.91395115863
  0
ARC
  5
46A
330
1F
100
AcDbEntity
  8
LAYER1
100
AcDbCircle
 10
11.6143335978921
 20
-15.33403835806056
 30
0.0
 40
14.14526626912346
100
AcDbArc
 50
330.1549899662747
 51
358.894754234716
  0
ARC
  5
46B
330
1F
100
AcDbEntity
  8
LAYER1
100
AcDbCircle
 10
16.91532804929287
 20
-16.41028175691008
 30
0.0
 40
9.715699269624332
100
AcDbArc
 50
322.1052307600021
 51
0.0
  0
ARC
  5
46C
330
1F
100
AcDbEntity
  8
LAYER1
100
AcDbCircle
 10
19.22675605630971
 20
-14.58606189168936
 30
0.0
 40
9.032733791890823
100
AcDbArc
 50
0.0
 51
39.84633875439339
  0
ARC
  5
46D
330
1F
100
AcDbEntity
  8
LAYER1
100
AcDbCircle
 10
16.91532804929287
 20
-14.80349051294357
 30
0.0
 40
9.715699269624332
100
AcDbArc
 50
0.0
 51
37.89476923999785
  0
LINE
  5
46E
330
1F
100
AcDbEntity
  8
LAYER1
100
AcDbLine
 10
29.78615909130351
 20
-0.5000000000000071
 30
0.0
 11
29.78615909130351
 21
-15.60688613492684
 31
0.0
  0
ARC
  5
46F
330
1F
100
AcDbEntity
  8
LAYER1
100
AcDbCircle
 10
11.6143335978921
 20
-15.8797339117931
 30
0.0
 40
14.14526626912346
100
AcDbArc
 50
1.105245765283928
 51
29.84501003372531
  0
ARC
  5
470
330
1F
100
AcDbEntity
  8
LAYER1
100
AcDbCircle
 10
11.6143335978921
 20
-15.8797339117931
 30
0.0
 40
14.39526626912346
100
AcDbArc
 50
1.086048841369981
 51
29.84501003372531
  0
ARC
  5
471
330
1F
100
AcDbEntity
  8
LAYER1
100
AcDbCircle
 10
16.91532804929287
 20
-14.80349051294357
 30
0.0
 40
9.965699269624332
100
AcDbArc
 50
0.0
 51
37.89476923999785
  0
ARC
  5
472
330
1F
100
AcDbEntity
  8
LAYER1
100
AcDbCircle
 10
29.28615909130351
 20
-30.71377226985365
 30
0.0
 40
0.5
100
AcDbArc
 50
270.0
 51
0.0
  0
ARC
  5
473
330
1F
100
AcDbEntity
  8
LAYER1
100
AcDbCircle
 10
24.34216158626195
 20
-27.22484966564038
 30
0.0
 40
0.4375
100
AcDbArc
 50
317.609263725173
 51
0.0
  0
ARC
  5
474
330
1F
100
AcDbEntity
  8
LAYER1
100
AcDbCircle
 10
24.09216158626195
 20
-27.12790430639045
 30
0.0
 40
0.4375
100
AcDbArc
 50
317.6092637251724
 51
0.0
  0
ARC
  5
475
330
1F
100
AcDbEntity
  8
LAYER1
100
AcDbCircle
 10
23.69057802106206
 20
-27.93865646087466
 30
0.0
 40
0.4375
100
AcDbArc
 50
270.0
 51
317.6092637251733
  0
ARC
  5
476
330
1F
100
AcDbEntity
  8
LAYER1
100
AcDbCircle
 10
23.58029074046476
 20
-27.68865646087466
 30
0.0
 40
0.4375
100
AcDbArc
 50
270.0
 51
317.6092637251727
  0
LINE
  5
477
330
1F
100
AcDbEntity
  8
LAYER1
100
AcDbLine
 10
24.66528349108124
 20
-27.51980472090465
 30
0.0
 11
24.01369992588135
 21
-28.23361151613893
 31
0.0
  0
LINE
  5
478
330
1F
100
AcDbEntity
  8
LAYER1
100
AcDbLine
 10
24.41528349108124
 20
-27.42285936165473
 30
0.0
 11
23.90341264528405
 21
-27.98361151613894
 31
0.0
  0
ARC
  5
479
330
1F
100
AcDbEntity
  8
LAYER1
100
AcDbCircle
 10
25.7287195018267
 20
-29.04851860593227
 30
0.0
 40
0.375
100
AcDbArc
 50
344.8308749956497
 51
0.0
  0
ARC
  5
47A
330
1F
100
AcDbEntity
  8
LAYER1
100
AcDbCircle
 10
24.81105572501475
 20
-28.79972580298314
 30
0.0
 40
1.325791599706398
100
AcDbArc
 50
298.445321443671
 51
344.8308749956497
  0
LINE
  5
47B
330
1F
100
AcDbEntity
  8
LAYER1
100
AcDbLine
 10
26.1037195018267
 20
-29.04851860593227
 30
0.0
 11
26.1037195018267
 21
-22.57544429095635
 31
0.0
  0
LINE
  5
47C
330
1F
100
AcDbEntity
  8
LAYER1
100
AcDbLine
 10
24.77966158626195
 20
-27.22484966564038
 30
0.0
 11
24.77966158626195
 21
-22.53134538604305
 31
0.0
  0
LINE
  5
47D
330
1F
100
AcDbEntity
  8
LAYER1
100
AcDbLine
 10
24.52966158626195
 20
-27.12790430639045
 30
0.0
 11
24.52966158626195
 21
-22.53134538604304
 31
0.0
  0
LINE
  5
47E
330
1F
100
AcDbEntity
  8
LAYER1
100
AcDbLine
 10
29.78615909130351
 20
-30.71377226985365
 30
0.0
 11
29.78615909130351
 21
-15.60688613492682
 31
0.0
  0
ARC
  5
47F
330
1F
100
AcDbEntity
  8
LAYER1
100
AcDbCircle
 10
14.48669534904571
 20
-3.525115808978995
 30
0.0
 40
0.4375
100
AcDbArc
 50
86.26088589108315
 51
89.9999999999992
  0
ARC
  5
480
330
1F
100
AcDbEntity
  8
LAYER1
100
AcDbCircle
 10
14.49481121079853
 20
-3.275115808979002
 30
0.0
 40
0.4375
100
AcDbArc
 50
86.30143113792511
 51
90.0
  0
ARC
  5
481
330
1F
100
AcDbEntity
  8
LAYER1
100
AcDbCircle
 10
11.94830746426622
 20
-12.56605177720912
 30
0.0
 40
9.816118108590147
100
AcDbArc
 50
26.52286786638379
 51
46.28433331937304
  0
ARC
  5
482
330
1F
100
AcDbEntity
  8
LAYER1
100
AcDbCircle
 10
13.36105673868295
 20
-11.89484703142639
 30
0.0
 40
5.893822720636897
100
AcDbArc
 50
28.7659927939122
 51
88.65484735570673
  0
ARC
  5
483
330
1F
100
AcDbEntity
  8
LAYER1
100
AcDbCircle
 10
16.65879084308785
 20
-7.639510149647691
 30
0.0
 40
3.0
100
AcDbArc
 50
46.28433331937304
 51
73.89332715210231
  0
ARC
  5
484
330
1F
100
AcDbEntity
  8
LAYER1
100
AcDbCircle
 10
13.18137638158452
 20
-15.99010412390628
 30
0.0
 40
10.8608853068997
100
AcDbArc
 50
45.96068733799922
 51
88.90217180887921
  0
ARC
  5
485
330
1F
100
AcDbEntity
  8
LAYER1
100
AcDbCircle
 10
2.361556076024008
 20
-5.627648531333555
 30
0.0
 40
0.375
100
AcDbArc
 50
266.4942073302326
 51
270.0
  0
ARC
  5
486
330
1F
100
AcDbEntity
  8
LAYER1
100
AcDbCircle
 10
3.235432450845621
 20
-7.592151640502279
 30
0.0
 40
0.375
100
AcDbArc
 50
266.6713756836082
 51
270.0
  0
ARC
  5
487
330
1F
100
AcDbEntity
  8
LAYER1
100
AcDbCircle
 10
-6.547524712831695
 20
-5.06797971432033
 30
0.0
 40
0.375
100
AcDbArc
 50
76.71263780895706
 51
90.0
  0
ARC
  5
488
330
1F
100
AcDbEntity
  8
LAYER1
100
AcDbCircle
 10
-6.547524712831695
 20
-5.067979714320337
 30
0.0
 40
0.375
100
AcDbArc
 50
76.71263780895706
 51
90.0
  0
ARC
  5
489
330
1F
100
AcDbEntity
  8
LAYER1
100
AcDbCircle
 10
-6.551501981298919
 20
-6.814204881238715
 30
0.0
 40
0.375
100
AcDbArc
 50
75.51820435081727
 51
90.0
  0
ARC
  5
48A
330
1F
100
AcDbEntity
  8
LAYER1
100
AcDbCircle
 10
-6.551501981298933
 20
-6.814204881238715
 30
0.0
 40
0.375
100
AcDbArc
 50
75.51820435081523
 51
90.0
  0
ARC
  5
48B
330
1F
100
AcDbEntity
  8
LAYER1
100
AcDbCircle
 10
5.528658735948177
 20
46.06824926972563
 30
0.0
 40
52.16782178754172
100
AcDbArc
 50
256.71263780896
 51
266.4942073302354
  0
ARC
  5
48C
330
1F
100
AcDbEntity
  8
LAYER1
100
AcDbCircle
 10
6.13823876472508
 20
42.3177750201845
 30
0.0
 40
50.36927030941678
100
AcDbArc
 50
255.5182043508148
 51
266.6713756836086
  0
ARC
  5
48D
330
1F
100
AcDbEntity
  8
LAYER1
100
AcDbCircle
 10
7.434464579340456
 20
-39.58397440448384
 30
0.0
 40
36.24961641205149
100
AcDbArc
 50
73.89332715210231
 51
105.6517293310869
  0
ARC
  5
48E
330
1F
100
AcDbEntity
  8
LAYER1
100
AcDbCircle
 10
10.32883058322594
 20
162.1673729355304
 30
0.0
 40
167.3265793634065
100
AcDbArc
 50
265.6559798887836
 51
271.0480777910526
  0
LINE
  5
48F
330
1F
100
AcDbEntity
  8
LAYER1
100
AcDbLine
 10
2.361556076024008
 20
-6.002648531333555
 30
0.0
 11
13.499415322802
 21
-6.002648531333555
 31
0.0
  0
LINE
  5
490
330
1F
100
AcDbEntity
  8
LAYER1
100
AcDbLine
 10
3.235432450845621
 20
-7.967151640502279
 30
0.0
 11
13.93664323531793
 21
-7.967151640502279
 31
0.0
  0
LINE
  5
491
330
1F
100
AcDbEntity
  8
LAYER1
100
AcDbLine
 10
17.10654660787918
 20
-11.45960174163681
 30
0.0
 11
17.10654660787918
 21
-15.60688613492684
 31
0.0
  0
ARC
  5
492
330
1F
100
AcDbEntity
  8
LAYER1
100
AcDbCircle
 10
13.94773493776335
 20
-20.07189010949259
 30
0.0
 40
3.174749895595876
100
AcDbArc
 50
269.7998239069247
 51
5.743606961598585
  0
LINE
  5
493
330
1F
100
AcDbEntity
  8
LAYER1
100
AcDbLine
 10
17.10654660787918
 20
-19.75417052821685
 30
0.0
 11
17.10654660787918
 21
-15.60688613492682
 31
0.0
  0
ARC
  5
494
330
1F
100
AcDbEntity
  8
LAYER1
100
AcDbCircle
 10
-11.58423779238489
 20
-15.3067466511818
 30
0.0
 40
30.88075006598705
100
AcDbArc
 50
347.1868720789329
 51
359.4431159733334
  0
ARC
  5
495
330
1F
100
AcDbEntity
  8
LAYER1
100
AcDbCircle
 10
3.235432450845621
 20
-23.62162062935138
 30
0.0
 40
0.375
100
AcDbArc
 50
90.0
 51
93.32862431639167
  0
LINE
  5
496
330
1F
100
AcDbEntity
  8
LAYER1
100
AcDbLine
 10
3.235432450845621
 20
-23.24662062935138
 30
0.0
 11
13.93664323531793
 21
-23.24662062935138
 31
0.0
  0
ARC
  5
497
330
1F
100
AcDbEntity
  8
LAYER1
100
AcDbCircle
 10
13.94773493776335
 20
-11.14188216036107
 30
0.0
 40
3.174749895595876
100
AcDbArc
 50
354.2563930384014
 51
90.20017609307519
  0
ARC
  5
498
330
1F
100
AcDbEntity
  8
LAYER1
100
AcDbCircle
 10
-11.58423779238489
 20
-15.90702561867185
 30
0.0
 40
30.88075006598705
100
AcDbArc
 50
0.5568840266665714
 51
12.81312792106704
  0
ARC
  5
499
330
1F
100
AcDbEntity
  8
LAYER1
100
AcDbCircle
 10
-18.26792841062971
 20
-4.942979714320323
 30
0.0
 40
0.25
100
AcDbArc
 50
90.0
 51
108.7390840899504
  0
ARC
  5
49A
330
1F
100
AcDbEntity
  8
LAYER1
100
AcDbCircle
 10
-17.82955707584253
 20
-6.689204881238715
 30
0.0
 40
0.25
100
AcDbArc
 50
90.0
 51
109.2749574228903
  0
ARC
  5
49B
330
1F
100
AcDbEntity
  8
LAYER1
100
AcDbCircle
 10
-19.48781140564066
 20
-3.337615808978995
 30
0.0
 40
0.25
100
AcDbArc
 50
90.0
 51
112.1789893324721
  0
ARC
  5
49C
330
1F
100
AcDbEntity
  8
LAYER1
100
AcDbCircle
 10
-29.28615909130351
 20
-0.4999999999999929
 30
0.0
 40
0.5
100
AcDbArc
 50
90.0
 51
180.0
  0
ARC
  5
49D
330
1F
100
AcDbEntity
  8
LAYER1
100
AcDbCircle
 10
-27.22501902531348
 20
-3.212615808979002
 30
0.0
 40
0.375
100
AcDbArc
 50
90.0
 51
180.0
  0
ARC
  5
49E
330
1F
100
AcDbEntity
  8
LAYER1
100
AcDbCircle
 10
-27.22501902531348
 20
-8.137846961532623
 30
0.0
 40
0.375
100
AcDbArc
 50
180.0
 51
270.0
  0
LINE
  5
49F
330
1F
100
AcDbEntity
  8
LAYER1
100
AcDbLine
 10
-27.60001902531348
 20
-3.212615808979002
 30
0.0
 11
-27.60001902531348
 21
-8.137846961532623
 31
0.0
  0
LINE
  5
4A0
330
1F
100
AcDbEntity
  8
LAYER1
100
AcDbLine
 10
-27.22501902531348
 20
-2.837615808979002
 30
0.0
 11
-18.73208032063103
 21
-2.837615808978995
 31
0.0
  0
LINE
  5
4A1
330
1F
100
AcDbEntity
  8
LAYER1
100
AcDbLine
 10
-27.22501902531348
 20
-8.512846961532623
 30
0.0
 11
-25.5231859374524
 21
-8.512846961532623
 31
0.0
  0
ARC
  5
4A2
330
1F
100
AcDbEntity
  8
LAYER1
100
AcDbCircle
 10
-21.04159832393308
 20
-15.49774716380164
 30
0.0
 40
1.246224934216142
100
AcDbArc
 50
356.4166811703529
 51
183.5833188296469
  0
LINE
  5
4A3
330
1F
100
AcDbEntity
  8
LAYER1
100
AcDbLine
 10
-23.81413685084071
 20
-16.44404091019899
 30
0.0
 11
-23.81413685084071
 21
-15.60688613492683
 31
0.0
  0
LINE
  5
4A4
330
1F
100
AcDbEntity
  8
LAYER1
100
AcDbLine
 10
-25.45968448544395
 20
-16.5855319411404
 30
0.0
 11
-25.45968448544395
 21
-15.60688613492683
 31
0.0
  0
LINE
  5
4A5
330
1F
100
AcDbEntity
  8
LAYER1
100
AcDbLine
 10
-23.81413685084071
 20
-14.76973135965466
 30
0.0
 11
-23.81413685084071
 21
-15.60688613492683
 31
0.0
  0
LINE
  5
4A6
330
1F
100
AcDbEntity
  8
LAYER1
100
AcDbLine
 10
-25.45968448544395
 20
-14.62824032871325
 30
0.0
 11
-25.45968448544395
 21
-15.60688613492683
 31
0.0
  0
ARC
  5
4A7
330
1F
100
AcDbEntity
  8
LAYER1
100
AcDbCircle
 10
-21.04159832393308
 20
-15.71602510605202
 30
0.0
 40
1.496224934216142
100
AcDbArc
 50
176.416681170353
 51
3.583318829646982
  0
ARC
  5
4A8
330
1F
100
AcDbEntity
  8
LAYER1
100
AcDbCircle
 10
-21.04159832393308
 20
-15.71602510605202
 30
0.0
 40
1.746224934216142
100
AcDbArc
 50
176.416681170353
 51
3.583318829646982
  0
ARC
  5
4A9
330
1F
100
AcDbEntity
  8
LAYER1
100
AcDbCircle
 10
-21.04159832393308
 20
-15.49774716380164
 30
0.0
 40
1.746224934216142
100
AcDbArc
 50
356.4166811703529
 51
183.5833188296469
  0
ARC
  5
4AA
330
1F
100
AcDbEntity
  8
LAYER1
100
AcDbCircle
 10
-21.04159832393308
 20
-15.71602510605202
 30
0.0
 40
1.246224934216142
100
AcDbArc
 50
176.416681170353
 51
3.583318829646982
  0
ARC
  5
4AB
330
1F
100
AcDbEntity
  8
LAYER1
100
AcDbCircle
 10
-21.04159832393308
 20
-15.49774716380164
 30
0.0
 40
1.496224934216142
100
AcDbArc
 50
356.4166811703529
 51
183.5833188296469
  0
LINE
  5
4AC
330
1F
100
AcDbEntity
  8
LAYER1
100
AcDbLine
 10
-26.84873514683945
 20
-13.91559662328045
 30
0.0
 11
-26.84873514683945
 21
-15.60688613492683
 31
0.0
  0
ARC
  5
4AD
330
1F
100
AcDbEntity
  8
LAYER1
100
AcDbCircle
 10
-27.22501902531348
 20
-23.07592530832104
 30
0.0
 40
0.375
100
AcDbArc
 50
90.0
 51
180.0
  0
LINE
  5
4AE
330
1F
100
AcDbEntity
  8
LAYER1
100
AcDbLine
 10
-26.84873514683945
 20
-17.2981756465732
 30
0.0
 11
-26.84873514683945
 21
-15.60688613492683
 31
0.0
  0
LINE
  5
4AF
330
1F
100
AcDbEntity
  8
LAYER1
100
AcDbLine
 10
-27.22501902531348
 20
-22.70092530832104
 30
0.0
 11
-25.5231859374524
 21
-22.70092530832104
 31
0.0
  0
LINE
  5
4B0
330
1F
100
AcDbEntity
  8
LAYER1
100
AcDbLine
 10
-29.78615909130349
 20
-15.60688613492683
 30
0.0
 11
-29.78615909130351
 21
-0.4999999999999929
 31
0.0
  0
ARC
  5
4B1
330
1F
100
AcDbEntity
  8
LAYER1
100
AcDbCircle
 10
-14.98228315927947
 20
-14.62824032871325
 30
0.0
 40
10.47740132616447
100
AcDbArc
 50
108.7390840899504
 51
180.0
  0
ARC
  5
4B2
330
1F
100
AcDbEntity
  8
LAYER1
100
AcDbCircle
 10
-15.17554172826633
 20
-13.91559662328045
 30
0.0
 40
11.67319341857312
100
AcDbArc
 50
112.1789893324717
 51
180.0
  0
ARC
  5
4B3
330
1F
100
AcDbEntity
  8
LAYER1
100
AcDbCircle
 10
-15.0037612682872
 20
-14.76973135965466
 30
0.0
 40
8.810375582553522
100
AcDbArc
 50
109.2749574228899
 51
180.0
  0
LINE
  5
4B4
330
1F
100
AcDbEntity
  8
LAYER1
100
AcDbLine
 10
-18.73208032063103
 20
-2.837615808978995
 30
0.0
 11
14.49481121079853
 21
-2.837615808978995
 31
0.0
  0
LINE
  5
4B5
330
1F
100
AcDbEntity
  8
LAYER1
100
AcDbLine
 10
-18.26792841062971
 20
-4.69297971432033
 30
0.0
 11
-6.547524712831695
 21
-4.69297971432033
 31
0.0
  0
LINE
  5
4B6
330
1F
100
AcDbEntity
  8
LAYER1
100
AcDbLine
 10
-19.48781140564066
 20
-3.087615808978995
 30
0.0
 11
14.48669534904571
 21
-3.087615808978995
 31
0.0
  0
LINE
  5
4B7
330
1F
100
AcDbEntity
  8
LAYER1
100
AcDbLine
 10
-17.82955707584253
 20
-6.439204881238715
 30
0.0
 11
-6.551501981298919
 21
-6.439204881238715
 31
0.0
  0
ARC
  5
4B8
330
1F
100
AcDbEntity
  8
LAYER1
100
AcDbCircle
 10
16.65879084308785
 20
-23.57426212020597
 30
0.0
 40
3.0
100
AcDbArc
 50
286.1066728478976
 51
313.7156666806269
  0
ARC
  5
4B9
330
1F
100
AcDbEntity
  8
LAYER1
100
AcDbCircle
 10
14.49481121079853
 20
-27.93865646087466
 30
0.0
 40
0.4375
100
AcDbArc
 50
270.0
 51
273.6985688620749
  0
ARC
  5
4BA
330
1F
100
AcDbEntity
  8
LAYER1
100
AcDbCircle
 10
14.48669534904571
 20
-27.68865646087466
 30
0.0
 40
0.4375
100
AcDbArc
 50
270.0000000000008
 51
273.7391141089168
  0
ARC
  5
4BB
330
1F
100
AcDbEntity
  8
LAYER1
100
AcDbCircle
 10
2.361556076024008
 20
-25.5861237385201
 30
0.0
 40
0.375
100
AcDbArc
 50
90.0
 51
93.50579266976735
  0
ARC
  5
4BC
330
1F
100
AcDbEntity
  8
LAYER1
100
AcDbCircle
 10
-6.551501981298933
 20
-24.39956738861495
 30
0.0
 40
0.375
100
AcDbArc
 50
270.0
 51
284.4817956491847
  0
ARC
  5
4BD
330
1F
100
AcDbEntity
  8
LAYER1
100
AcDbCircle
 10
-6.551501981298919
 20
-24.39956738861495
 30
0.0
 40
0.375
100
AcDbArc
 50
270.0
 51
284.4817956491827
  0
ARC
  5
4BE
330
1F
100
AcDbEntity
  8
LAYER1
100
AcDbCircle
 10
-6.547524712831695
 20
-26.14579255553332
 30
0.0
 40
0.375
100
AcDbArc
 50
270.0
 51
283.2873621910428
  0
ARC
  5
4BF
330
1F
100
AcDbEntity
  8
LAYER1
100
AcDbCircle
 10
-6.547524712831695
 20
-26.14579255553333
 30
0.0
 40
0.375
100
AcDbArc
 50
270.0
 51
283.2873621910428
  0
ARC
  5
4C0
330
1F
100
AcDbEntity
  8
LAYER1
100
AcDbCircle
 10
5.528658735948177
 20
-77.28202153957929
 30
0.0
 40
52.16782178754172
100
AcDbArc
 50
93.50579266976444
 51
103.28736219104
  0
LINE
  5
4C1
330
1F
100
AcDbEntity
  8
LAYER1
100
AcDbLine
 10
2.361556076024008
 20
-25.21112373852011
 30
0.0
 11
13.499415322802
 21
-25.21112373852011
 31
0.0
  0
ARC
  5
4C2
330
1F
100
AcDbEntity
  8
LAYER1
100
AcDbCircle
 10
10.32883058322594
 20
-193.381145205384
 30
0.0
 40
167.3265793634065
100
AcDbArc
 50
88.95192220894736
 51
94.34402011121632
  0
ARC
  5
4C3
330
1F
100
AcDbEntity
  8
LAYER1
100
AcDbCircle
 10
7.434464579340456
 20
8.370202134630169
 30
0.0
 40
36.24961641205149
100
AcDbArc
 50
254.348270668913
 51
286.1066728478976
  0
ARC
  5
4C4
330
1F
100
AcDbEntity
  8
LAYER1
100
AcDbCircle
 10
-17.82955707584262
 20
-24.52456738861494
 30
0.0
 40
0.25
100
AcDbArc
 50
250.7250425771101
 51
270.0
  0
ARC
  5
4C5
330
1F
100
AcDbEntity
  8
LAYER1
100
AcDbCircle
 10
-18.26792841062965
 20
-26.27079255553333
 30
0.0
 40
0.25
100
AcDbArc
 50
251.2609159100475
 51
270.0
  0
ARC
  5
4C6
330
1F
100
AcDbEntity
  8
LAYER1
100
AcDbCircle
 10
-19.48781140564074
 20
-27.87615646087466
 30
0.0
 40
0.25
100
AcDbArc
 50
247.8210106675277
 51
270.0
  0
ARC
  5
4C7
330
1F
100
AcDbEntity
  8
LAYER1
100
AcDbCircle
 10
-27.22501902531348
 20
-28.00115646087466
 30
0.0
 40
0.375
100
AcDbArc
 50
180.0
 51
270.0
  0
ARC
  5
4C8
330
1F
100
AcDbEntity
  8
LAYER1
100
AcDbCircle
 10
-29.28615909130351
 20
-30.71377226985367
 30
0.0
 40
0.5
100
AcDbArc
 50
180.0
 51
270.0
  0
LINE
  5
4C9
330
1F
100
AcDbEntity
  8
LAYER1
100
AcDbLine
 10
-27.22501902531348
 20
-28.37615646087466
 30
0.0
 11
-18.73208032063103
 21
-28.37615646087467
 31
0.0
  0
LINE
  5
4CA
330
1F
100
AcDbEntity
  8
LAYER1
100
AcDbLine
 10
-18.73208032063103
 20
-28.37615646087467
 30
0.0
 11
14.49481121079853
 21
-28.37615646087467
 31
0.0
  0
LINE
  5
4CB
330
1F
100
AcDbEntity
  8
LAYER1
100
AcDbLine
 10
-19.48781140564074
 20
-28.12615646087467
 30
0.0
 11
14.48669534904571
 21
-28.12615646087467
 31
0.0
  0
LINE
  5
4CC
330
1F
100
AcDbEntity
  8
LAYER1
100
AcDbLine
 10
-18.26792841062965
 20
-26.52079255553333
 30
0.0
 11
-6.547524712831695
 21
-26.52079255553333
 31
0.0
  0
LINE
  5
4CD
330
1F
100
AcDbEntity
  8
LAYER1
100
AcDbLine
 10
-17.82955707584262
 20
-24.77456738861494
 30
0.0
 11
-6.551501981298919
 21
-24.77456738861494
 31
0.0
  0
ARC
  5
4CE
330
1F
100
AcDbEntity
  8
LAYER1
100
AcDbCircle
 10
13.18137638158452
 20
-15.22366814594738
 30
0.0
 40
10.8608853068997
100
AcDbArc
 50
271.0978281911208
 51
314.0393126620007
  0
ARC
  5
4CF
330
1F
100
AcDbEntity
  8
LAYER1
100
AcDbCircle
 10
13.36105673868295
 20
-19.31892523842726
 30
0.0
 40
5.893822720636897
100
AcDbArc
 50
271.3451526442932
 51
331.2340072060877
  0
ARC
  5
4D0
330
1F
100
AcDbEntity
  8
LAYER1
100
AcDbCircle
 10
11.94830746426622
 20
-18.64772049264453
 30
0.0
 40
9.816118108590147
100
AcDbArc
 50
313.7156666806269
 51
333.4771321336162
  0
ARC
  5
4D1
330
1F
100
AcDbEntity
  8
LAYER1
100
AcDbCircle
 10
6.13823876472508
 20
-73.53154729003816
 30
0.0
 40
50.36927030941678
100
AcDbArc
 50
93.32862431639128
 51
104.4817956491852
  0
LINE
  5
4D2
330
1F
100
AcDbEntity
  8
LAYER1
100
AcDbLine
 10
-27.60001902531348
 20
-28.00115646087466
 30
0.0
 11
-27.60001902531348
 21
-23.07592530832104
 31
0.0
  0
LINE
  5
4D3
330
1F
100
AcDbEntity
  8
LAYER1
100
AcDbLine
 10
-29.78615909130349
 20
-15.60688613492683
 30
0.0
 11
-29.78615909130351
 21
-30.71377226985367
 31
0.0
  0
ARC
  5
4D4
330
1F
100
AcDbEntity
  8
LAYER1
100
AcDbCircle
 10
-15.17554172826633
 20
-17.2981756465732
 30
0.0
 40
11.67319341857312
100
AcDbArc
 50
180.0
 51
247.8210106675277
  0
ARC
  5
4D5
330
1F
100
AcDbEntity
  8
LAYER1
100
AcDbCircle
 10
-14.98228315927947
 20
-16.5855319411404
 30
0.0
 40
10.47740132616447
100
AcDbArc
 50
180.0
 51
251.26091591005
  0
ARC
  5
4D6
330
1F
100
AcDbEntity
  8
LAYER1
100
AcDbCircle
 10
-15.0037612682872
 20
-16.44404091019899
 30
0.0
 40
8.810375582553522
100
AcDbArc
 50
180.0
 51
250.7250425771097
  0
LINE
  5
4D7
330
1F
100
AcDbEntity
  8
LAYER1
100
AcDbLine
 10
-29.28615909130351
 20
-31.21377226985367
 30
0.0
 11
29.28615909130351
 21
-31.21377226985365
 31
0.0
  0
ARC
  5
4D8
330
1F
100
AcDbEntity
  8
LAYER1
100
AcDbCircle
 10
13.7468826823498
 20
-16.3683409487398
 30
0.0
 40
12.03196411586219
100
AcDbArc
 50
273.6985688620753
 51
329.3567170021465
  0
ARC
  5
4D9
330
1F
100
AcDbEntity
  8
LAYER1
100
AcDbCircle
 10
13.7468826823498
 20
-16.3683409487398
 30
0.0
 40
11.78196411586219
100
AcDbArc
 50
273.7391141089172
 51
329.3567170021465
  0
LINE
  5
4DA
330
1F
100
AcDbEntity
  8
LAYER1
100
AcDbLine
 10
14.5230331905232
 20
-28.37524524893549
 30
0.0
 11
23.69057802106206
 21
-28.37615646087467
 31
0.0
  0
LINE
  5
4DB
330
1F
100
AcDbEntity
  8
LAYER1
100
AcDbLine
 10
23.58029074046476
 20
-28.12615646087467
 30
0.0
 11
16.30412973700144
 21
-28.12540895002613
 31
0.0
  0
LINE
  5
4DC
330
1F
100
AcDbEntity
  8
LAYER1
100
AcDbLine
 10
23.58029074046476
 20
-3.087615808978995
 30
0.0
 11
16.30412973700144
 21
-3.088363319827529
 31
0.0
  0
LINE
  5
4DD
330
1F
100
AcDbEntity
  8
LAYER1
100
AcDbLine
 10
14.5230331905232
 20
-2.838527020918171
 30
0.0
 11
23.69057802106206
 21
-2.837615808978995
 31
0.0
  0
ARC
  5
4DE
330
1F
100
AcDbEntity
  8
LAYER1
100
AcDbCircle
 10
13.7468826823498
 20
-14.84543132111385
 30
0.0
 40
11.78196411586219
100
AcDbArc
 50
30.64328299785346
 51
86.26088589108274
  0
ARC
  5
4DF
330
1F
100
AcDbEntity
  8
LAYER1
100
AcDbCircle
 10
13.7468826823498
 20
-14.84543132111385
 30
0.0
 40
12.03196411586219
100
AcDbArc
 50
30.64328299785346
 51
86.3014311379247
  0
LINE
  5
4E0
330
1F
100
AcDbEntity
  8
LAYER1
100
AcDbLine
 10
-29.28615909130351
 20
0.0000000000000071
 30
0.0
 11
29.28615909130351
 21
-0.0000000000000071
 31
0.0
  0
ENDSEC
  0
SECTION
  2
OBJECTS
  0
DICTIONARY
  5
C
330
0
100
AcDbDictionary
  3
ACAD_GROUP
350
D
  3
ACAD_LAYOUT
350
1A
  3
ACAD_MLINESTYLE
350
17
  3
ACAD_PLOTSETTINGS
350
19
  3
ACAD_PLOTSTYLENAME
350
E
  3
ACDBHEADERROUNDTRIPXREC
350
527
  3
ACDBVARIABLEDICTIONARY
350
521
  3
ASE_INDEX_DICTIONARY
350
30E
  0
DICTIONARY
  5
4E2
330
1F
100
AcDbDictionary
280
     1
  3
ACAD_LAYOUTSELFREF
360
548
  0
DICTIONARY
  5
4E4
330
1B
100
AcDbDictionary
280
     1
  3
ACAD_LAYOUTSELFREF
360
547
  0
DICTIONARY
  5
D
102
{ACAD_REACTORS
330
C
102
}
330
C
100
AcDbDictionary
  0
DICTIONARY
  5
1A
102
{ACAD_REACTORS
330
C
102
}
330
C
100
AcDbDictionary
  0
DICTIONARY
  5
17
102
{ACAD_REACTORS
330
C
102
}
330
C
100
AcDbDictionary
  3
STANDARD
350
18
  0
DICTIONARY
  5
19
102
{ACAD_REACTORS
330
C
102
}
330
C
100
AcDbDictionary
  0
ACDBDICTIONARYWDFLT
  5
E
102
{ACAD_REACTORS
330
C
102
}
330
C
100
AcDbDictionary
281
     1
  3
Normal
350
F
100
AcDbDictionaryWithDefault
340
F
  0
DICTIONARY
  5
527
102
{ACAD_REACTORS
330
C
102
}
330
C
100
AcDbDictionary
  3
CEPSNTYPE
350
531
  3
FINGERPRINTGUID
350
532
  3
HYPERLINKBASE
350
52A
  3
INSUNITS
350
530
  3
LAYOUTDICT
350
52C
  3
LWETCUNION
350
52F
  3
PLOTSETDICT
350
52D
  3
PLOTSTYLNAMDICT
350
52E
  3
PSVPSCALE
350
534
  3
PUCSBASE
350
537
  3
PUCSORGBACK
350
53D
  3
PUCSORGBOTTOM
350
539
  3
PUCSORGFRONT
350
53C
  3
PUCSORGLEFT
350
53A
  3
PUCSORGRIGHT
350
53B
  3
PUCSORGTOP
350
538
  3
PUCSORTHOREF
350
535
  3
PUCSORTHOVIEW
350
536
  3
STYLESHEET
350
52B
  3
TSTACKALIGN
350
528
  3
TSTACKSIZE
350
529
  3
UCSBASE
350
540
  3
UCSORGBACK
350
546
  3
UCSORGBOTTOM
350
542
  3
UCSORGFRONT
350
545
  3
UCSORGLEFT
350
543
  3
UCSORGRIGHT
350
544
  3
UCSORGTOP
350
541
  3
UCSORTHOREF
350
53E
  3
UCSORTHOVIEW
350
53F
  3
VERSIONGUID
350
533
  0
DICTIONARY
  5
521
102
{ACAD_REACTORS
330
C
102
}
330
C
100
AcDbDictionary
  3
DIMASSOC
350
522
  0
DICTIONARY
  5
30E
102
{ACAD_REACTORS
330
C
102
}
330
C
100
AcDbDictionary
  3
ASEBLOCKHIERARCHYINDEXRECORD
350
310
1001
DCO15
1040
1431679333.589999
  0
XRECORD
  5
548
102
{ACAD_REACTORS
330
4E2
102
}
330
4E2
100
AcDbXrecord
340
1F
  0
XRECORD
  5
547
102
{ACAD_REACTORS
330
4E4
102
}
330
4E4
100
AcDbXrecord
340
1B
  0
MLINESTYLE
  5
18
102
{ACAD_REACTORS
330
17
102
}
330
17
100
AcDbMlineStyle
  2
STANDARD
 70
     0
  3

 62
   256
 51
90.0
 52
90.0
 71
     2
 49
0.5
 62
   256
  6
BYLAYER
 49
-0.5
 62
   256
  6
BYLAYER
  0
ACDBPLACEHOLDER
  5
F
102
{ACAD_REACTORS
330
E
102
}
330
E
100
AcDbPlaceHolder
280
     0
  0
XRECORD
  5
531
102
{ACAD_REACTORS
330
527
102
}
330
527
100
AcDbXrecord
 90
        0
  0
XRECORD
  5
532
102
{ACAD_REACTORS
330
527
102
}
330
527
100
AcDbXrecord
  1
{518C75D8-3C9D-11D6-8BC2-00C04F8CF26C}
  0
XRECORD
  5
52A
102
{ACAD_REACTORS
330
527
102
}
330
527
100
AcDbXrecord
  1

  0
XRECORD
  5
530
102
{ACAD_REACTORS
330
527
102
}
330
527
100
AcDbXrecord
 90
        1
  0
XRECORD
  5
52C
102
{ACAD_REACTORS
330
527
102
}
330
527
100
AcDbXrecord
340
1A
  0
XRECORD
  5
52F
102
{ACAD_REACTORS
330
527
102
}
330
527
100
AcDbXrecord
 90
     2589
  0
XRECORD
  5
52D
102
{ACAD_REACTORS
330
527
102
}
330
527
100
AcDbXrecord
340
19
  0
XRECORD
  5
52E
102
{ACAD_REACTORS
330
527
102
}
330
527
100
AcDbXrecord
340
E
  0
XRECORD
  5
534
102
{ACAD_REACTORS
330
527
102
}
330
527
100
AcDbXrecord
 40
0.0
  0
XRECORD
  5
537
102
{ACAD_REACTORS
330
527
102
}
330
527
100
AcDbXrecord
340
0
  0
XRECORD
  5
53D
102
{ACAD_REACTORS
330
527
102
}
330
527
100
AcDbXrecord
 10
0.0
 20
0.0
 30
0.0
  0
XRECORD
  5
539
102
{ACAD_REACTORS
330
527
102
}
330
527
100
AcDbXrecord
 10
0.0
 20
0.0
 30
0.0
  0
XRECORD
  5
53C
102
{ACAD_REACTORS
330
527
102
}
330
527
100
AcDbXrecord
 10
0.0
 20
0.0
 30
0.0
  0
XRECORD
  5
53A
102
{ACAD_REACTORS
330
527
102
}
330
527
100
AcDbXrecord
 10
0.0
 20
0.0
 30
0.0
  0
XRECORD
  5
53B
102
{ACAD_REACTORS
330
527
102
}
330
527
100
AcDbXrecord
 10
0.0
 20
0.0
 30
0.0
  0
XRECORD
  5
538
102
{ACAD_REACTORS
330
527
102
}
330
527
100
AcDbXrecord
 10
0.0
 20
0.0
 30
0.0
  0
XRECORD
  5
535
102
{ACAD_REACTORS
330
527
102
}
330
527
100
AcDbXrecord
340
0
  0
XRECORD
  5
536
102
{ACAD_REACTORS
330
527
102
}
330
527
100
AcDbXrecord
 70
     0
  0
XRECORD
  5
52B
102
{ACAD_REACTORS
330
527
102
}
330
527
100
AcDbXrecord
  1

  0
XRECORD
  5
528
102
{ACAD_REACTORS
330
527
102
}
330
527
100
AcDbXrecord
 90
        1
  0
XRECORD
  5
529
102
{ACAD_REACTORS
330
527
102
}
330
527
100
AcDbXrecord
 90
       70
  0
XRECORD
  5
540
102
{ACAD_REACTORS
330
527
102
}
330
527
100
AcDbXrecord
340
0
  0
XRECORD
  5
546
102
{ACAD_REACTORS
330
527
102
}
330
527
100
AcDbXrecord
 10
0.0
 20
0.0
 30
0.0
  0
XRECORD
  5
542
102
{ACAD_REACTORS
330
527
102
}
330
527
100
AcDbXrecord
 10
0.0
 20
0.0
 30
0.0
  0
XRECORD
  5
545
102
{ACAD_REACTORS
330
527
102
}
330
527
100
AcDbXrecord
 10
0.0
 20
0.0
 30
0.0
  0
XRECORD
  5
543
102
{ACAD_REACTORS
330
527
102
}
330
527
100
AcDbXrecord
 10
0.0
 20
0.0
 30
0.0
  0
XRECORD
  5
544
102
{ACAD_REACTORS
330
527
102
}
330
527
100
AcDbXrecord
 10
0.0
 20
0.0
 30
0.0
  0
XRECORD
  5
541
102
{ACAD_REACTORS
330
527
102
}
330
527
100
AcDbXrecord
 10
0.0
 20
0.0
 30
0.0
  0
XRECORD
  5
53E
102
{ACAD_REACTORS
330
527
102
}
330
527
100
AcDbXrecord
340
0
  0
XRECORD
  5
53F
102
{ACAD_REACTORS
330
527
102
}
330
527
100
AcDbXrecord
 70
     0
  0
XRECORD
  5
533
102
{ACAD_REACTORS
330
527
102
}
330
527
100
AcDbXrecord
  1
{7569B009-CBE9-11D6-A95A-00B0D07221EC}
  0
DICTIONARYVAR
  5
522
102
{ACAD_REACTORS
330
521
102
}
330
521
100
DictionaryVariables
280
     0
  1
1
  0
XRECORD
  5
310
102
{ACAD_REACTORS
330
30E
102
}
330
30E
100
AcDbXrecord
330
0
330
0
  0
ENDSEC
  0
EOF
