  0
SECTION
  2
HEADER
  9
$ACADVER
  1
AC1014
  9
$ACADMAINTVER
 70
     9
  9
$DWGCODEPAGE
  3
ANSI_1252
  9
$INSBASE
 10
0.0
 20
0.0
 30
0.0
  9
$EXTMIN
 10
-117.3520089605523
 20
-18.7329875246522
 30
0.0
  9
$EXTMAX
 10
16.10380990886399
 20
44.86876167670444
 30
0.0
  9
$LIMMIN
 10
0.0
 20
0.0
  9
$LIMMAX
 10
12.0
 20
9.0
  9
$ORTHOMODE
 70
     0
  9
$REGENMODE
 70
     1
  9
$FILLMODE
 70
     1
  9
$QTEXTMODE
 70
     0
  9
$MIRRTEXT
 70
     1
  9
$DRAGMODE
 70
     2
  9
$LTSCALE
 40
1.0
  9
$OSMODE
 70
    37
  9
$ATTMODE
 70
     1
  9
$TEXTSIZE
 40
0.002
  9
$TRACEWID
 40
0.05
  9
$TEXTSTYLE
  7
STANDARD
  9
$CLAYER
  8
LAYER1
  9
$CELTYPE
  6
BYLAYER
  9
$CECOLOR
 62
   256
  9
$CELTSCALE
 40
1.0
  9
$DELOBJ
 70
     1
  9
$DISPSILH
 70
     0
  9
$DIMSCALE
 40
1.0
  9
$DIMASZ
 40
0.18
  9
$DIMEXO
 40
0.0625
  9
$DIMDLI
 40
0.38
  9
$DIMRND
 40
0.0
  9
$DIMDLE
 40
0.0
  9
$DIMEXE
 40
0.18
  9
$DIMTP
 40
0.0
  9
$DIMTM
 40
0.0
  9
$DIMTXT
 40
0.18
  9
$DIMCEN
 40
0.09
  9
$DIMTSZ
 40
0.0
  9
$DIMTOL
 70
     0
  9
$DIMLIM
 70
     0
  9
$DIMTIH
 70
     1
  9
$DIMTOH
 70
     1
  9
$DIMSE1
 70
     0
  9
$DIMSE2
 70
     0
  9
$DIMTAD
 70
     0
  9
$DIMZIN
 70
     0
  9
$DIMBLK
  1

  9
$DIMASO
 70
     1
  9
$DIMSHO
 70
     1
  9
$DIMPOST
  1

  9
$DIMAPOST
  1

  9
$DIMALT
 70
     0
  9
$DIMALTD
 70
     2
  9
$DIMALTF
 40
25.4
  9
$DIMLFAC
 40
1.0
  9
$DIMTOFL
 70
     0
  9
$DIMTVP
 40
0.0
  9
$DIMTIX
 70
     0
  9
$DIMSOXD
 70
     0
  9
$DIMSAH
 70
     0
  9
$DIMBLK1
  1

  9
$DIMBLK2
  1

  9
$DIMSTYLE
  2
STANDARD
  9
$DIMCLRD
 70
     0
  9
$DIMCLRE
 70
     0
  9
$DIMCLRT
 70
     0
  9
$DIMTFAC
 40
1.0
  9
$DIMGAP
 40
0.09
  9
$DIMJUST
 70
     0
  9
$DIMSD1
 70
     0
  9
$DIMSD2
 70
     0
  9
$DIMTOLJ
 70
     1
  9
$DIMTZIN
 70
     0
  9
$DIMALTZ
 70
     0
  9
$DIMALTTZ
 70
     0
  9
$DIMFIT
 70
     3
  9
$DIMUPT
 70
     0
  9
$DIMUNIT
 70
     2
  9
$DIMDEC
 70
     4
  9
$DIMTDEC
 70
     4
  9
$DIMALTU
 70
     2
  9
$DIMALTTD
 70
     2
  9
$DIMTXSTY
  7
STANDARD
  9
$DIMAUNIT
 70
     0
  9
$LUNITS
 70
     2
  9
$LUPREC
 70
     4
  9
$SKETCHINC
 40
0.1
  9
$FILLETRAD
 40
0.375
  9
$AUNITS
 70
     0
  9
$AUPREC
 70
     0
  9
$MENU
  1
.
  9
$ELEVATION
 40
0.0
  9
$PELEVATION
 40
0.0
  9
$THICKNESS
 40
0.0
  9
$LIMCHECK
 70
     0
  9
$BLIPMODE
 70
     0
  9
$CHAMFERA
 40
0.5
  9
$CHAMFERB
 40
0.5
  9
$CHAMFERC
 40
1.0
  9
$CHAMFERD
 40
0.0
  9
$SKPOLY
 70
     0
  9
$TDCREATE
 40
2452355.453559490
  9
$TDUPDATE
 40
2452537.685121146
  9
$TDINDWG
 40
0.3098122917
  9
$TDUSRTIMER
 40
0.3098122917
  9
$USRTIMER
 70
     1
  9
$ANGBASE
 50
0.0
  9
$ANGDIR
 70
     0
  9
$PDMODE
 70
     0
  9
$PDSIZE
 40
0.0
  9
$PLINEWID
 40
0.0
  9
$COORDS
 70
     1
  9
$SPLFRAME
 70
     0
  9
$SPLINETYPE
 70
     6
  9
$SPLINESEGS
 70
     8
  9
$ATTDIA
 70
     0
  9
$ATTREQ
 70
     1
  9
$HANDLING
 70
 22529
  9
$HANDSEED
  5
1D5
  9
$SURFTAB1
 70
     6
  9
$SURFTAB2
 70
     6
  9
$SURFTYPE
 70
     6
  9
$SURFU
 70
     6
  9
$SURFV
 70
     6
  9
$UCSNAME
  2

  9
$UCSORG
 10
0.0
 20
0.0
 30
0.0
  9
$UCSXDIR
 10
1.0
 20
0.0
 30
0.0
  9
$UCSYDIR
 10
0.0
 20
1.0
 30
0.0
  9
$PUCSNAME
  2

  9
$PUCSORG
 10
0.0
 20
0.0
 30
0.0
  9
$PUCSXDIR
 10
1.0
 20
0.0
 30
0.0
  9
$PUCSYDIR
 10
0.0
 20
1.0
 30
0.0
  9
$USERI1
 70
     0
  9
$USERI2
 70
     0
  9
$USERI3
 70
     0
  9
$USERI4
 70
     0
  9
$USERI5
 70
     0
  9
$USERR1
 40
0.0
  9
$USERR2
 40
0.0
  9
$USERR3
 40
0.0
  9
$USERR4
 40
0.0
  9
$USERR5
 40
0.0
  9
$WORLDVIEW
 70
     1
  9
$SHADEDGE
 70
     3
  9
$SHADEDIF
 70
    70
  9
$TILEMODE
 70
     1
  9
$MAXACTVP
 70
    48
  9
$PINSBASE
 10
0.0
 20
0.0
 30
0.0
  9
$PLIMCHECK
 70
     0
  9
$PEXTMIN
 10
1.000000000000000E+20
 20
1.000000000000000E+20
 30
1.000000000000000E+20
  9
$PEXTMAX
 10
-1.000000000000000E+20
 20
-1.000000000000000E+20
 30
-1.000000000000000E+20
  9
$PLIMMIN
 10
0.0
 20
0.0
  9
$PLIMMAX
 10
12.0
 20
9.0
  9
$UNITMODE
 70
     0
  9
$VISRETAIN
 70
     1
  9
$PLINEGEN
 70
     0
  9
$PSLTSCALE
 70
     1
  9
$TREEDEPTH
 70
  3020
  9
$PICKSTYLE
 70
     1
  9
$CMLSTYLE
  2
STANDARD
  9
$CMLJUST
 70
     0
  9
$CMLSCALE
 40
1.0
  9
$PROXYGRAPHICS
 70
     1
  9
$MEASUREMENT
 70
     0
  0
ENDSEC
  0
SECTION
  2
CLASSES
  0
CLASS
  1
ACDBDICTIONARYWDFLT
  2
AcDbDictionaryWithDefault
  3
AutoCAD 2000
 90
        0
280
     0
281
     0
  0
CLASS
  1
ACDBPLACEHOLDER
  2
AcDbPlaceHolder
  3
AutoCAD 2000
 90
        0
280
     0
281
     0
  0
CLASS
  1
LAYOUT
  2
AcDbLayout
  3
AutoCAD 2000
 90
        0
280
     0
281
     0
  0
CLASS
  1
DICTIONARYVAR
  2
AcDbDictionaryVar
  3
AutoCAD 2000
 90
        0
280
     0
281
     0
  0
CLASS
  1
LONG_TRANSACTION
  2
AcDbLongTransaction
  3
AutoCAD 2000
 90
        0
280
     0
281
     0
  0
CLASS
  1
LWPOLYLINE
  2
AcDbPolyline
  3
AutoCAD 2000
 90
        0
280
     0
281
     1
  0
CLASS
  1
HATCH
  2
AcDbHatch
  3
AutoCAD 2000
 90
        0
280
     0
281
     1
  0
CLASS
  1
XRECORD
  2
AcDbXrecord
  3
AutoCAD 2000
 90
        0
280
     0
281
     0
  0
CLASS
  1
LONG_TRANSACTION
  2
AcDbLongTransaction
  3
AutoCAD 2000
 90
        0
280
     0
281
     0
  0
CLASS
  1
LWPOLYLINE
  2
AcDbPolyline
  3
AutoCAD 2000
 90
        0
280
     0
281
     1
  0
CLASS
  1
HATCH
  2
AcDbHatch
  3
AutoCAD 2000
 90
        0
280
     0
281
     1
  0
CLASS
  1
XRECORD
  2
AcDbXrecord
  3
AutoCAD 2000
 90
        0
280
     0
281
     0
  0
ENDSEC
  0
SECTION
  2
TABLES
  0
TABLE
  2
VPORT
  5
8
330
0
100
AcDbSymbolTable
 70
     2
  0
VPORT
  5
1B1
330
8
100
AcDbSymbolTableRecord
100
AcDbViewportTableRecord
  2
*ACTIVE
 70
     0
 10
0.0
 20
0.0
 11
1.0
 21
1.0
 12
-14.99031178166833
 22
-1.948828209233866
 13
0.0
 23
0.0
 14
0.5
 24
0.5
 15
0.5
 25
0.5
 16
0.0
 26
0.0
 36
1.0
 17
0.0
 27
0.0
 37
0.0
 40
41.61815312474615
 41
1.773480662983425
 42
50.0
 43
0.0
 44
0.0
 50
0.0
 51
0.0
 71
     0
 72
   100
 73
     1
 74
     2
 75
     0
 76
     0
 77
     0
 78
     0
  0
ENDTAB
  0
TABLE
  2
LTYPE
  5
5
330
0
100
AcDbSymbolTable
 70
     1
  0
LTYPE
  5
14
330
5
100
AcDbSymbolTableRecord
100
AcDbLinetypeTableRecord
  2
BYBLOCK
 70
     0
  3

 72
    65
 73
     0
 40
0.0
  0
LTYPE
  5
15
330
5
100
AcDbSymbolTableRecord
100
AcDbLinetypeTableRecord
  2
BYLAYER
 70
     0
  3

 72
    65
 73
     0
 40
0.0
  0
LTYPE
  5
16
330
5
100
AcDbSymbolTableRecord
100
AcDbLinetypeTableRecord
  2
CONTINUOUS
 70
     0
  3
Solid line
 72
    65
 73
     0
 40
0.0
  0
ENDTAB
  0
TABLE
  2
LAYER
  5
2
330
0
100
AcDbSymbolTable
 70
     3
  0
LAYER
  5
10
330
2
100
AcDbSymbolTableRecord
100
AcDbLayerTableRecord
  2
0
 70
     0
 62
     7
  6
CONTINUOUS
  0
LAYER
  5
32
330
2
100
AcDbSymbolTableRecord
100
AcDbLayerTableRecord
  2
LAYER1
 70
     0
 62
     6
  6
CONTINUOUS
  0
LAYER
  5
74
330
2
100
AcDbSymbolTableRecord
100
AcDbLayerTableRecord
  2
DEFPOINTS
 70
     0
 62
     7
  6
CONTINUOUS
  0
ENDTAB
  0
TABLE
  2
STYLE
  5
3
330
0
100
AcDbSymbolTable
 70
     1
  0
STYLE
  5
11
330
3
100
AcDbSymbolTableRecord
100
AcDbTextStyleTableRecord
  2
STANDARD
 70
     0
 40
0.0
 41
1.0
 50
0.0
 71
     0
 42
0.002
  3
txt
  4

  0
ENDTAB
  0
TABLE
  2
VIEW
  5
6
330
0
100
AcDbSymbolTable
 70
     0
  0
ENDTAB
  0
TABLE
  2
UCS
  5
7
330
0
100
AcDbSymbolTable
 70
     0
  0
ENDTAB
  0
TABLE
  2
APPID
  5
9
330
0
100
AcDbSymbolTable
 70
     1
  0
APPID
  5
12
330
9
100
AcDbSymbolTableRecord
100
AcDbRegAppTableRecord
  2
ACAD
 70
     0
  0
ENDTAB
  0
TABLE
  2
DIMSTYLE
  5
A
330
0
100
AcDbSymbolTable
 70
     1
  0
DIMSTYLE
105
27
330
A
100
AcDbSymbolTableRecord
100
AcDbDimStyleTableRecord
  2
STANDARD
 70
     0
  3

  4

  5

  6

  7

 40
1.0
 41
0.18
 42
0.0625
 43
0.38
 44
0.18
 45
0.0
 46
0.0
 47
0.0
 48
0.0
140
0.18
141
0.09
142
0.0
143
25.4
144
1.0
145
0.0
146
1.0
147
0.09
 71
     0
 72
     0
 73
     1
 74
     1
 75
     0
 76
     0
 77
     0
 78
     0
170
     0
171
     2
172
     0
173
     0
174
     0
175
     0
176
     0
177
     0
178
     0
270
     2
271
     4
272
     4
273
     2
274
     2
340
11
275
     0
280
     0
281
     0
282
     0
283
     1
284
     0
285
     0
286
     0
287
     3
288
     0
  0
ENDTAB
  0
TABLE
  2
BLOCK_RECORD
  5
1
330
0
100
AcDbSymbolTable
 70
     1
  0
BLOCK_RECORD
  5
1F
102
{ACAD_XDICTIONARY
360
16F
102
}
330
1
100
AcDbSymbolTableRecord
100
AcDbBlockTableRecord
  2
*MODEL_SPACE
  0
BLOCK_RECORD
  5
1B
102
{ACAD_XDICTIONARY
360
171
102
}
330
1
100
AcDbSymbolTableRecord
100
AcDbBlockTableRecord
  2
*PAPER_SPACE
  0
ENDTAB
  0
ENDSEC
  0
SECTION
  2
BLOCKS
  0
BLOCK
  5
20
330
1F
100
AcDbEntity
  8
0
100
AcDbBlockBegin
  2
*MODEL_SPACE
 70
     0
 10
0.0
 20
0.0
 30
0.0
  3
*MODEL_SPACE
  1

  0
ENDBLK
  5
21
330
1F
100
AcDbEntity
  8
0
100
AcDbBlockEnd
  0
BLOCK
  5
1C
330
1B
100
AcDbEntity
 67
     1
  8
0
100
AcDbBlockBegin
  2
*PAPER_SPACE
 70
     0
 10
0.0
 20
0.0
 30
0.0
  3
*PAPER_SPACE
  1

  0
ENDBLK
  5
1D
330
1B
100
AcDbEntity
 67
     1
  8
0
100
AcDbBlockEnd
  0
ENDSEC
  0
SECTION
  2
ENTITIES
  0
ATTDEF
  5
112
330
1F
100
AcDbEntity
  8
LAYER1
100
AcDbText
 10
0.0
 20
0.0
 30
0.0
 40
0.002
  1
K-1357
100
AcDbAttributeDefinition
  3

  2
MODELNUMBER
 70
     8
  0
ATTDEF
  5
113
330
1F
100
AcDbEntity
  8
LAYER1
100
AcDbText
 10
0.0
 20
-0.0033333333333333
 30
0.0
 40
0.002
  1
DEVONSHIRE
100
AcDbAttributeDefinition
  3

  2
TRADENAME
 70
     8
  0
ATTDEF
  5
114
330
1F
100
AcDbEntity
  8
LAYER1
100
AcDbText
 10
0.0
 20
-0.0066666666666667
 30
0.0
 40
0.002
  1
WHIRLPOOL
100
AcDbAttributeDefinition
  3

  2
PRODUCT
 70
     8
  0
ATTDEF
  5
115
330
1F
100
AcDbEntity
  8
LAYER1
100
AcDbText
 10
0.0
 20
-0.01
 30
0.0
 40
0.002
  1
ACRYLIC
100
AcDbAttributeDefinition
  3

  2
MATERIAL
 70
     8
  0
ARC
  5
116
330
1F
100
AcDbEntity
  8
LAYER1
100
AcDbCircle
 10
-106.9255376622632
 20
41.30259247713216
 30
0.0
 40
0.375
100
AcDbArc
 50
90.0
 51
112.3029070856175
  0
ARC
  5
117
330
1F
100
AcDbEntity
  8
LAYER1
100
AcDbCircle
 10
-106.9255376622632
 20
41.30259247713216
 30
0.0
 40
0.375
100
AcDbArc
 50
90.0
 51
112.3029070856175
  0
LINE
  5
118
330
1F
100
AcDbEntity
  8
LAYER1
100
AcDbLine
 10
-106.9255376622632
 20
41.67759247713216
 30
0.0
 11
-63.57871571654824
 21
41.67759247713216
 31
0.0
  0
ARC
  5
119
330
1F
100
AcDbEntity
  8
LAYER1
100
AcDbCircle
 10
-94.01379845995448
 20
37.95100340487245
 30
0.0
 40
0.375
100
AcDbArc
 50
75.51820435081291
 51
90.0
  0
ARC
  5
11A
330
1F
100
AcDbEntity
  8
LAYER1
100
AcDbCircle
 10
-94.00982119148721
 20
39.69722857179083
 30
0.0
 40
0.375
100
AcDbArc
 50
76.71263780895692
 51
90.0
  0
ARC
  5
11B
330
1F
100
AcDbEntity
  8
LAYER1
100
AcDbCircle
 10
-61.73357697682882
 20
42.59995462218976
 30
0.0
 40
0.375
100
AcDbArc
 50
0.0
 51
15.16912500435023
  0
ARC
  5
11C
330
1F
100
AcDbEntity
  8
LAYER1
100
AcDbCircle
 10
-62.65124075364077
 20
42.35116181924064
 30
0.0
 40
1.325791599706398
100
AcDbArc
 50
15.16912500435025
 51
61.55467855632895
  0
ARC
  5
11D
330
1F
100
AcDbEntity
  8
LAYER1
100
AcDbCircle
 10
-108.5038948025885
 20
29.26746112230952
 30
0.0
 40
1.246224934216142
100
AcDbArc
 50
356.416681170353
 51
183.5833188296469
  0
ARC
  5
11E
330
1F
100
AcDbEntity
  8
LAYER1
100
AcDbCircle
 10
-108.5038948025885
 20
29.26746112230952
 30
0.0
 40
1.496224934216142
100
AcDbArc
 50
356.416681170353
 51
183.5833188296469
  0
ARC
  5
11F
330
1F
100
AcDbEntity
  8
LAYER1
100
AcDbCircle
 10
-94.01379845995446
 20
37.95100340487244
 30
0.0
 40
0.375
100
AcDbArc
 50
75.51820435081528
 51
90.0
  0
ARC
  5
120
330
1F
100
AcDbEntity
  8
LAYER1
100
AcDbCircle
 10
-94.00982119148721
 20
39.69722857179082
 30
0.0
 40
0.375
100
AcDbArc
 50
76.71263780895718
 51
90.0
  0
ARC
  5
121
330
1F
100
AcDbEntity
  8
LAYER1
100
AcDbCircle
 10
-114.687315503969
 20
36.62736132457853
 30
0.0
 40
0.375
100
AcDbArc
 50
180.0
 51
270.0
  0
ARC
  5
122
330
1F
100
AcDbEntity
  8
LAYER1
100
AcDbCircle
 10
-114.687315503969
 20
41.55259247713216
 30
0.0
 40
0.375
100
AcDbArc
 50
90.0
 51
180.0
  0
LINE
  5
123
330
1F
100
AcDbEntity
  8
LAYER1
100
AcDbLine
 10
-114.687315503969
 20
41.92759247713215
 30
0.0
 11
-106.1943767992865
 21
41.92759247713216
 31
0.0
  0
ARC
  5
124
330
1F
100
AcDbEntity
  8
LAYER1
100
AcDbCircle
 10
-105.2056330501347
 20
37.57600340487244
 30
0.0
 40
0.75
100
AcDbArc
 50
90.0
 51
109.8696754347304
  0
ARC
  5
125
330
1F
100
AcDbEntity
  8
LAYER1
100
AcDbCircle
 10
-105.6466608370847
 20
39.32222857179082
 30
0.0
 40
0.75
100
AcDbArc
 50
90.0
 51
109.2191074009057
  0
ARC
  5
126
330
1F
100
AcDbEntity
  8
LAYER1
100
AcDbCircle
 10
-65.55856898351844
 20
34.11157622295679
 30
0.0
 40
0.5
100
AcDbArc
 50
90.0
 51
180.0
  0
LINE
  5
127
330
1F
100
AcDbEntity
  8
LAYER1
100
AcDbLine
 10
-117.248455569959
 20
29.15832215118433
 30
0.0
 11
-57.67613738735201
 21
29.15832215118432
 31
0.0
  0
ARC
  5
128
330
1F
100
AcDbEntity
  8
LAYER1
100
AcDbCircle
 10
-116.748455569959
 20
14.05143601625749
 30
0.0
 40
0.5
100
AcDbArc
 50
180.0
 51
270.0
  0
ARC
  5
129
330
1F
100
AcDbEntity
  8
LAYER1
100
AcDbCircle
 10
-58.17613738735201
 20
14.05143601625749
 30
0.0
 40
0.5
100
AcDbArc
 50
270.0
 51
0.0
  0
ARC
  5
12A
330
1F
100
AcDbEntity
  8
LAYER1
100
AcDbCircle
 10
-58.17613738735201
 20
44.26520828611115
 30
0.0
 40
0.5
100
AcDbArc
 50
0.0
 51
90.0
  0
ARC
  5
12B
330
1F
100
AcDbEntity
  8
LAYER1
100
AcDbCircle
 10
-116.748455569959
 20
44.26520828611116
 30
0.0
 40
0.5
100
AcDbArc
 50
90.0
 51
180.0
  0
ARC
  5
12C
330
1F
100
AcDbEntity
  8
LAYER1
100
AcDbCircle
 10
-112.3621086387338
 20
-17.18704055593183
 30
0.0
 40
0.5
100
AcDbArc
 50
186.3968647997984
 51
212.2726531616883
  0
ARC
  5
12D
330
1F
100
AcDbEntity
  8
LAYER1
100
AcDbCircle
 10
-69.16262166832942
 20
-16.7370373450934
 30
0.0
 40
0.5
100
AcDbArc
 50
271.6872883778
 51
337.1348210481326
  0
ARC
  5
12E
330
1F
100
AcDbEntity
  8
LAYER1
100
AcDbCircle
 10
-115.1232463519584
 20
-1.534265737045052
 30
0.0
 40
0.5
100
AcDbArc
 50
6.396864799798336
 51
90.0
  0
ARC
  5
12F
330
1F
100
AcDbEntity
  8
LAYER1
100
AcDbCircle
 10
-61.66632532956363
 20
-1.534265737045047
 30
0.0
 40
0.5
100
AcDbArc
 50
90.0
 51
157.1348210481327
  0
ARC
  5
130
330
1F
100
AcDbEntity
  8
LAYER1
100
AcDbCircle
 10
-58.14537549711642
 20
-0.269106804880022
 30
0.0
 40
0.5
100
AcDbArc
 50
0.0
 51
90.0
  0
ARC
  5
131
330
1F
100
AcDbEntity
  8
LAYER1
100
AcDbCircle
 10
-116.6325654959717
 20
-0.269106804880022
 30
0.0
 40
0.5
100
AcDbArc
 50
90.0
 51
180.0
  0
ARC
  5
132
330
1F
100
AcDbEntity
  8
LAYER1
100
AcDbCircle
 10
-10.13750699939315
 20
-17.54827149152105
 30
0.0
 40
0.5
100
AcDbArc
 50
244.4122050141737
 51
269.9241113979792
  0
ARC
  5
133
330
1F
100
AcDbEntity
  8
LAYER1
100
AcDbCircle
 10
12.96468290960127
 20
-1.722182554961127
 30
0.0
 40
0.5
100
AcDbArc
 50
90.00000000000003
 51
175.4449892193931
  0
ARC
  5
134
330
1F
100
AcDbEntity
  8
LAYER1
100
AcDbCircle
 10
-13.30118789516074
 20
-1.722182554961132
 30
0.0
 40
0.5
100
AcDbArc
 50
6.212919195861951
 51
90.0
  0
ARC
  5
135
330
1F
100
AcDbEntity
  8
LAYER1
100
AcDbCircle
 10
15.50025651827071
 20
-0.5
 30
0.0
 40
0.5
100
AcDbArc
 50
0.0
 51
90.0
  0
ARC
  5
136
330
1F
100
AcDbEntity
  8
LAYER1
100
AcDbCircle
 10
-15.50025651827072
 20
-0.5
 30
0.0
 40
0.5
100
AcDbArc
 50
90.0
 51
180.0
  0
ARC
  5
137
330
1F
100
AcDbEntity
  8
LAYER1
100
AcDbCircle
 10
-68.2355404223458
 20
30.1791463944218
 30
0.0
 40
9.032733791890823
100
AcDbArc
 50
353.5109184077831
 51
40.41770491842062
  0
ARC
  5
138
330
1F
100
AcDbEntity
  8
LAYER1
100
AcDbCircle
 10
-70.54696842936265
 20
29.96171777316758
 30
0.0
 40
9.965699269624332
100
AcDbArc
 50
355.3760210270085
 51
37.89476923999792
  0
LINE
  5
139
330
1F
100
AcDbEntity
  8
LAYER1
100
AcDbLine
 10
-62.68263489239357
 20
40.94594006058525
 30
0.0
 11
-62.68263489239357
 21
36.08278140230055
 31
0.0
  0
LINE
  5
13A
330
1F
100
AcDbEntity
  8
LAYER1
100
AcDbLine
 10
-62.68263489239357
 20
40.94594006058525
 30
0.0
 11
-63.57871571654824
 21
41.92759247713216
 31
0.0
  0
LINE
  5
13B
330
1F
100
AcDbEntity
  8
LAYER1
100
AcDbLine
 10
-61.35857697682882
 20
42.59995462218976
 30
0.0
 11
-61.35857697682882
 21
36.03556624994697
 31
0.0
  0
LINE
  5
13C
330
1F
100
AcDbEntity
  8
LAYER1
100
AcDbLine
 10
-63.57871571654824
 20
41.92759247713216
 30
0.0
 11
-63.57871571654824
 21
42.64568469775825
 31
0.0
  0
ARC
  5
13D
330
1F
100
AcDbEntity
  8
LAYER1
100
AcDbCircle
 10
-99.04653427104042
 20
28.8581826674393
 30
0.0
 40
30.88075006598705
100
AcDbArc
 50
0.6892213060787001
 51
12.81312792106694
  0
LINE
  5
13E
330
1F
100
AcDbEntity
  8
LAYER1
100
AcDbLine
 10
-66.05856898351844
 20
34.11157622295679
 30
0.0
 11
-66.05856898351844
 21
29.15832215118431
 31
0.0
  0
LINE
  5
13F
330
1F
100
AcDbEntity
  8
LAYER1
100
AcDbLine
 10
-62.91350056324056
 20
34.61157622295679
 30
0.0
 11
-65.55856898351844
 21
34.61157622295679
 31
0.0
  0
LINE
  5
140
330
1F
100
AcDbEntity
  8
LAYER1
100
AcDbLine
 10
-70.35574987077634
 20
33.30560654447435
 30
0.0
 11
-70.35574987077634
 21
29.19094002166944
 31
0.0
  0
ARC
  5
141
330
1F
100
AcDbEntity
  8
LAYER1
100
AcDbCircle
 10
-74.280920097071
 20
28.77510416220487
 30
0.0
 40
10.8608853068997
100
AcDbArc
 50
45.96068733799937
 51
88.9021718088793
  0
ARC
  5
142
330
1F
100
AcDbEntity
  8
LAYER1
100
AcDbCircle
 10
-74.57654700658351
 20
29.06863848854409
 30
0.0
 40
12.95998524718511
100
AcDbArc
 50
31.94037926089539
 51
82.84110824698892
  0
ARC
  5
143
330
1F
100
AcDbEntity
  8
LAYER1
100
AcDbCircle
 10
-76.75625256092532
 20
31.20026718922306
 30
0.0
 40
11.37875173486408
100
AcDbArc
 50
28.23021583474778
 51
70.51874045203188
  0
ARC
  5
144
330
1F
100
AcDbEntity
  8
LAYER1
100
AcDbCircle
 10
-73.51456154089217
 20
33.62332612575009
 30
0.0
 40
3.174749895595876
100
AcDbArc
 50
354.2563930384015
 51
90.20017609307517
  0
ARC
  5
145
330
1F
100
AcDbEntity
  8
LAYER1
100
AcDbCircle
 10
-74.10123973997257
 20
32.87036125468477
 30
0.0
 40
5.893822720636897
100
AcDbArc
 50
28.76599279391214
 51
88.65484735570662
  0
LINE
  5
146
330
1F
100
AcDbEntity
  8
LAYER1
100
AcDbLine
 10
-84.23773961702979
 20
36.79805664560888
 30
0.0
 11
-73.52565324333759
 21
36.79805664560888
 31
0.0
  0
LINE
  5
147
330
1F
100
AcDbEntity
  8
LAYER1
100
AcDbLine
 10
-85.11219594547201
 20
38.7625597547776
 30
0.0
 11
-73.96288115585353
 21
38.7625597547776
 31
0.0
  0
ARC
  5
148
330
1F
100
AcDbEntity
  8
LAYER1
100
AcDbCircle
 10
-81.32405771393043
 20
87.08298330629565
 30
0.0
 40
50.36927030941678
100
AcDbArc
 50
255.5182043508146
 51
266.6837931353855
  0
ARC
  5
149
330
1F
100
AcDbEntity
  8
LAYER1
100
AcDbCircle
 10
-81.93363774270734
 20
90.83345755583678
 30
0.0
 40
52.16782178754172
100
AcDbArc
 50
256.71263780896
 51
266.506834388045
  0
LINE
  5
14A
330
1F
100
AcDbEntity
  8
LAYER1
100
AcDbLine
 10
-105.2056330501347
 20
38.32600340487244
 30
0.0
 11
-94.01379845995448
 21
38.32600340487244
 31
0.0
  0
LINE
  5
14B
330
1F
100
AcDbEntity
  8
LAYER1
100
AcDbLine
 10
-105.6466608370847
 20
40.07222857179082
 30
0.0
 11
-94.00982119148721
 21
40.07222857179082
 31
0.0
  0
ARC
  5
14C
330
1F
100
AcDbEntity
  8
LAYER1
100
AcDbCircle
 10
-108.5038948025885
 20
29.26746112230952
 30
0.0
 40
1.746224934216142
100
AcDbArc
 50
356.416681170353
 51
183.5833188296469
  0
ARC
  5
14D
330
1F
100
AcDbEntity
  8
LAYER1
100
AcDbCircle
 10
-102.4660577469427
 20
29.99547692645649
 30
0.0
 40
8.810375582553522
100
AcDbArc
 50
109.8696754347306
 51
185.4524244704261
  0
ARC
  5
14E
330
1F
100
AcDbEntity
  8
LAYER1
100
AcDbCircle
 10
-102.4445796379349
 20
30.1369679573979
 30
0.0
 40
10.47740132616447
100
AcDbArc
 50
109.2191074009059
 51
185.3595475404428
  0
ARC
  5
14F
330
1F
100
AcDbEntity
  8
LAYER1
100
AcDbCircle
 10
-102.6378382069218
 20
30.8496116628307
 30
0.0
 40
11.67319341857312
100
AcDbArc
 50
112.3029070856174
 51
188.3307135253858
  0
ARC
  5
150
330
1F
100
AcDbEntity
  8
LAYER1
100
AcDbCircle
 10
-75.84796288076342
 20
28.88547437431805
 30
0.0
 40
14.14526626912346
100
AcDbArc
 50
330.1549899662747
 51
29.84501003372528
  0
LINE
  5
151
330
1F
100
AcDbEntity
  8
LAYER1
100
AcDbLine
 10
-63.57871571654824
 20
16.17077365028396
 30
0.0
 11
-63.57871571654824
 21
21.84600480283754
 31
0.0
  0
LINE
  5
152
330
1F
100
AcDbEntity
  8
LAYER1
100
AcDbLine
 10
-115.062315503969
 20
16.17077365028396
 30
0.0
 11
-63.57871571654824
 21
16.17077365028396
 31
0.0
  0
LINE
  5
153
330
1F
100
AcDbEntity
  8
LAYER1
100
AcDbLine
 10
-115.062315503969
 20
21.84600480283754
 30
0.0
 11
-115.062315503969
 21
16.17077365028396
 31
0.0
  0
LINE
  5
154
330
1F
100
AcDbEntity
  8
LAYER1
100
AcDbLine
 10
-115.062315503969
 20
21.84600480283754
 30
0.0
 11
-112.8761754379789
 21
21.84600480283754
 31
0.0
  0
LINE
  5
155
330
1F
100
AcDbEntity
  8
LAYER1
100
AcDbLine
 10
-114.687315503969
 20
36.25236132457853
 30
0.0
 11
-112.9854824161079
 21
36.25236132457853
 31
0.0
  0
LINE
  5
156
330
1F
100
AcDbEntity
  8
LAYER1
100
AcDbLine
 10
-115.062315503969
 20
41.55259247713216
 30
0.0
 11
-115.062315503969
 21
36.62736132457853
 31
0.0
  0
LINE
  5
157
330
1F
100
AcDbEntity
  8
LAYER1
100
AcDbLine
 10
-63.57871571654824
 20
41.92759247713216
 30
0.0
 11
-63.57871571654824
 21
35.92494394579857
 31
0.0
  0
LINE
  5
158
330
1F
100
AcDbEntity
  8
LAYER1
100
AcDbLine
 10
-106.1943767992865
 20
41.92759247713216
 30
0.0
 11
-63.57871571654824
 21
41.92759247713216
 31
0.0
  0
LINE
  5
159
330
1F
100
AcDbEntity
  8
LAYER1
100
AcDbLine
 10
-117.248455569959
 20
14.05143601625749
 30
0.0
 11
-117.248455569959
 21
44.26520828611116
 31
0.0
  0
LINE
  5
15A
330
1F
100
AcDbEntity
  8
LAYER1
100
AcDbLine
 10
-58.17613738735201
 20
13.55143601625749
 30
0.0
 11
-116.748455569959
 21
13.55143601625749
 31
0.0
  0
LINE
  5
15B
330
1F
100
AcDbEntity
  8
LAYER1
100
AcDbLine
 10
-57.67613738735201
 20
44.26520828611115
 30
0.0
 11
-57.67613738735201
 21
14.05143601625749
 31
0.0
  0
LINE
  5
15C
330
1F
100
AcDbEntity
  8
LAYER1
100
AcDbLine
 10
-116.748455569959
 20
44.76520828611117
 30
0.0
 11
-58.17613738735201
 21
44.76520828611115
 31
0.0
  0
LINE
  5
15D
330
1F
100
AcDbEntity
  8
LAYER1
100
AcDbLine
 10
-110.9451831556271
 20
-18.4680537361971
 30
0.0
 11
-69.14789942765671
 21
-17.23682055372447
 31
0.0
  0
ARC
  5
15E
330
1F
100
AcDbEntity
  8
LAYER1
100
AcDbCircle
 10
-110.9451831556271
 20
-16.29224372519543
 30
0.0
 40
2.175810011001667
100
AcDbArc
 50
212.2726531616882
 51
273.3745767555976
  0
LINE
  5
15F
330
1F
100
AcDbEntity
  8
LAYER1
100
AcDbLine
 10
-114.6263593433562
 20
-1.47855846030005
 30
0.0
 11
-112.858995647336
 21
-17.24274783267684
 31
0.0
  0
LINE
  5
160
330
1F
100
AcDbEntity
  8
LAYER1
100
AcDbLine
 10
-62.12703619075117
 20
-1.339983719390707
 30
0.0
 11
-68.7019108071419
 21
-16.93131936274774
 31
0.0
  0
LINE
  5
161
330
1F
100
AcDbEntity
  8
LAYER1
100
AcDbLine
 10
-117.1325654959717
 20
-0.269106804880022
 30
0.0
 11
-117.1325654959717
 21
-1.034265737045046
 31
0.0
  0
LINE
  5
162
330
1F
100
AcDbEntity
  8
LAYER1
100
AcDbLine
 10
-57.64537549711641
 20
-1.034265737045026
 30
0.0
 11
-117.1325654959717
 21
-1.034265737045052
 31
0.0
  0
LINE
  5
163
330
1F
100
AcDbEntity
  8
LAYER1
100
AcDbLine
 10
9.728805334141981
 20
-18.07458499477528
 30
0.0
 11
-10.13816925218451
 21
-18.0482710529421
 31
0.0
  0
ARC
  5
164
330
1F
100
AcDbEntity
  8
LAYER1
100
AcDbCircle
 10
9.733488185928578
 20
-16.52809765632174
 30
0.0
 40
1.546494428408305
100
AcDbArc
 50
269.8265056449274
 51
357.8259338151689
  0
ARC
  5
165
330
1F
100
AcDbEntity
  8
LAYER1
100
AcDbCircle
 10
-9.628945611108498
 20
-16.48624147897518
 30
0.0
 40
1.677515364316815
100
AcDbArc
 50
208.4406379486126
 51
244.4122050141738
  0
LINE
  5
166
330
1F
100
AcDbEntity
  8
LAYER1
100
AcDbLine
 10
-12.80412460179332
 20
-1.668070796657202
 30
0.0
 11
-11.1040033362953
 21
-17.28515480649307
 31
0.0
  0
LINE
  5
167
330
1F
100
AcDbEntity
  8
LAYER1
100
AcDbLine
 10
12.46626213751963
 20
-1.682474445492962
 30
0.0
 11
11.2788694314712
 21
-16.58676470860036
 31
0.0
  0
LINE
  5
168
330
1F
100
AcDbEntity
  8
LAYER1
100
AcDbLine
 10
-16.00025651827072
 20
-1.222182554961131
 30
0.0
 11
16.00025651827071
 21
-1.222182554961127
 31
0.0
  0
LINE
  5
169
330
1F
100
AcDbEntity
  8
LAYER1
100
AcDbLine
 10
-16.00025651827072
 20
-0.5
 30
0.0
 11
-16.00025651827072
 21
-1.222182554961133
 31
0.0
  0
LINE
  5
16A
330
1F
100
AcDbEntity
  8
LAYER1
100
AcDbLine
 10
16.00025651827071
 20
-1.222182554961133
 30
0.0
 11
16.00025651827071
 21
-0.5
 31
0.0
  0
LINE
  5
16B
330
1F
100
AcDbEntity
  8
LAYER1
100
AcDbLine
 10
-15.50025651827072
 20
0.0
 30
0.0
 11
15.50025651827071
 21
0.0
 31
0.0
  0
LINE
  5
16C
330
1F
100
AcDbEntity
  8
LAYER1
100
AcDbLine
 10
-57.64537549711641
 20
-1.034265737045026
 30
0.0
 11
-57.64537549711642
 21
-0.269106804880022
 31
0.0
  0
LINE
  5
16D
330
1F
100
AcDbEntity
  8
LAYER1
100
AcDbLine
 10
-116.6325654959717
 20
0.230893195119978
 30
0.0
 11
-58.14537549711642
 21
0.230893195119978
 31
0.0
  0
ENDSEC
  0
SECTION
  2
OBJECTS
  0
DICTIONARY
  5
C
330
0
100
AcDbDictionary
  3
ACAD_GROUP
350
D
  3
ACAD_LAYOUT
350
1A
  3
ACAD_MLINESTYLE
350
17
  3
ACAD_PLOTSETTINGS
350
19
  3
ACAD_PLOTSTYLENAME
350
E
  3
ACDBHEADERROUNDTRIPXREC
350
1B2
  3
ACDBVARIABLEDICTIONARY
350
1AC
  0
DICTIONARY
  5
16F
330
1F
100
AcDbDictionary
280
     1
  3
ACAD_LAYOUTSELFREF
360
1D3
  0
DICTIONARY
  5
171
330
1B
100
AcDbDictionary
280
     1
  3
ACAD_LAYOUTSELFREF
360
1D2
  0
DICTIONARY
  5
D
102
{ACAD_REACTORS
330
C
102
}
330
C
100
AcDbDictionary
  0
DICTIONARY
  5
1A
102
{ACAD_REACTORS
330
C
102
}
330
C
100
AcDbDictionary
  0
DICTIONARY
  5
17
102
{ACAD_REACTORS
330
C
102
}
330
C
100
AcDbDictionary
  3
STANDARD
350
18
  0
DICTIONARY
  5
19
102
{ACAD_REACTORS
330
C
102
}
330
C
100
AcDbDictionary
  0
ACDBDICTIONARYWDFLT
  5
E
102
{ACAD_REACTORS
330
C
102
}
330
C
100
AcDbDictionary
281
     1
  3
Normal
350
F
100
AcDbDictionaryWithDefault
340
F
  0
DICTIONARY
  5
1B2
102
{ACAD_REACTORS
330
C
102
}
330
C
100
AcDbDictionary
  3
CEPSNTYPE
350
1BC
  3
FINGERPRINTGUID
350
1BD
  3
HYPERLINKBASE
350
1B5
  3
INSUNITS
350
1BB
  3
LAYOUTDICT
350
1B7
  3
LWETCUNION
350
1BA
  3
PLOTSETDICT
350
1B8
  3
PLOTSTYLNAMDICT
350
1B9
  3
PSVPSCALE
350
1BF
  3
PUCSBASE
350
1C2
  3
PUCSORGBACK
350
1C8
  3
PUCSORGBOTTOM
350
1C4
  3
PUCSORGFRONT
350
1C7
  3
PUCSORGLEFT
350
1C5
  3
PUCSORGRIGHT
350
1C6
  3
PUCSORGTOP
350
1C3
  3
PUCSORTHOREF
350
1C0
  3
PUCSORTHOVIEW
350
1C1
  3
STYLESHEET
350
1B6
  3
TSTACKALIGN
350
1B3
  3
TSTACKSIZE
350
1B4
  3
UCSBASE
350
1CB
  3
UCSORGBACK
350
1D1
  3
UCSORGBOTTOM
350
1CD
  3
UCSORGFRONT
350
1D0
  3
UCSORGLEFT
350
1CE
  3
UCSORGRIGHT
350
1CF
  3
UCSORGTOP
350
1CC
  3
UCSORTHOREF
350
1C9
  3
UCSORTHOVIEW
350
1CA
  3
VERSIONGUID
350
1BE
  0
DICTIONARY
  5
1AC
102
{ACAD_REACTORS
330
C
102
}
330
C
100
AcDbDictionary
  3
DIMASSOC
350
1AD
  0
XRECORD
  5
1D3
102
{ACAD_REACTORS
330
16F
102
}
330
16F
100
AcDbXrecord
340
1F
  0
XRECORD
  5
1D2
102
{ACAD_REACTORS
330
171
102
}
330
171
100
AcDbXrecord
340
1B
  0
MLINESTYLE
  5
18
102
{ACAD_REACTORS
330
17
102
}
330
17
100
AcDbMlineStyle
  2
STANDARD
 70
     0
  3

 62
   256
 51
90.0
 52
90.0
 71
     2
 49
0.5
 62
   256
  6
BYLAYER
 49
-0.5
 62
   256
  6
BYLAYER
  0
ACDBPLACEHOLDER
  5
F
102
{ACAD_REACTORS
330
E
102
}
330
E
100
AcDbPlaceHolder
280
     0
  0
XRECORD
  5
1BC
102
{ACAD_REACTORS
330
1B2
102
}
330
1B2
100
AcDbXrecord
 90
        0
  0
XRECORD
  5
1BD
102
{ACAD_REACTORS
330
1B2
102
}
330
1B2
100
AcDbXrecord
  1
{518C75D8-3C9D-11D6-8BC2-00C04F8CF26C}
  0
XRECORD
  5
1B5
102
{ACAD_REACTORS
330
1B2
102
}
330
1B2
100
AcDbXrecord
  1

  0
XRECORD
  5
1BB
102
{ACAD_REACTORS
330
1B2
102
}
330
1B2
100
AcDbXrecord
 90
        1
  0
XRECORD
  5
1B7
102
{ACAD_REACTORS
330
1B2
102
}
330
1B2
100
AcDbXrecord
340
1A
  0
XRECORD
  5
1BA
102
{ACAD_REACTORS
330
1B2
102
}
330
1B2
100
AcDbXrecord
 90
     2589
  0
XRECORD
  5
1B8
102
{ACAD_REACTORS
330
1B2
102
}
330
1B2
100
AcDbXrecord
340
19
  0
XRECORD
  5
1B9
102
{ACAD_REACTORS
330
1B2
102
}
330
1B2
100
AcDbXrecord
340
E
  0
XRECORD
  5
1BF
102
{ACAD_REACTORS
330
1B2
102
}
330
1B2
100
AcDbXrecord
 40
0.0
  0
XRECORD
  5
1C2
102
{ACAD_REACTORS
330
1B2
102
}
330
1B2
100
AcDbXrecord
340
0
  0
XRECORD
  5
1C8
102
{ACAD_REACTORS
330
1B2
102
}
330
1B2
100
AcDbXrecord
 10
0.0
 20
0.0
 30
0.0
  0
XRECORD
  5
1C4
102
{ACAD_REACTORS
330
1B2
102
}
330
1B2
100
AcDbXrecord
 10
0.0
 20
0.0
 30
0.0
  0
XRECORD
  5
1C7
102
{ACAD_REACTORS
330
1B2
102
}
330
1B2
100
AcDbXrecord
 10
0.0
 20
0.0
 30
0.0
  0
XRECORD
  5
1C5
102
{ACAD_REACTORS
330
1B2
102
}
330
1B2
100
AcDbXrecord
 10
0.0
 20
0.0
 30
0.0
  0
XRECORD
  5
1C6
102
{ACAD_REACTORS
330
1B2
102
}
330
1B2
100
AcDbXrecord
 10
0.0
 20
0.0
 30
0.0
  0
XRECORD
  5
1C3
102
{ACAD_REACTORS
330
1B2
102
}
330
1B2
100
AcDbXrecord
 10
0.0
 20
0.0
 30
0.0
  0
XRECORD
  5
1C0
102
{ACAD_REACTORS
330
1B2
102
}
330
1B2
100
AcDbXrecord
340
0
  0
XRECORD
  5
1C1
102
{ACAD_REACTORS
330
1B2
102
}
330
1B2
100
AcDbXrecord
 70
     0
  0
XRECORD
  5
1B6
102
{ACAD_REACTORS
330
1B2
102
}
330
1B2
100
AcDbXrecord
  1

  0
XRECORD
  5
1B3
102
{ACAD_REACTORS
330
1B2
102
}
330
1B2
100
AcDbXrecord
 90
        1
  0
XRECORD
  5
1B4
102
{ACAD_REACTORS
330
1B2
102
}
330
1B2
100
AcDbXrecord
 90
       70
  0
XRECORD
  5
1CB
102
{ACAD_REACTORS
330
1B2
102
}
330
1B2
100
AcDbXrecord
340
0
  0
XRECORD
  5
1D1
102
{ACAD_REACTORS
330
1B2
102
}
330
1B2
100
AcDbXrecord
 10
0.0
 20
0.0
 30
0.0
  0
XRECORD
  5
1CD
102
{ACAD_REACTORS
330
1B2
102
}
330
1B2
100
AcDbXrecord
 10
0.0
 20
0.0
 30
0.0
  0
XRECORD
  5
1D0
102
{ACAD_REACTORS
330
1B2
102
}
330
1B2
100
AcDbXrecord
 10
0.0
 20
0.0
 30
0.0
  0
XRECORD
  5
1CE
102
{ACAD_REACTORS
330
1B2
102
}
330
1B2
100
AcDbXrecord
 10
0.0
 20
0.0
 30
0.0
  0
XRECORD
  5
1CF
102
{ACAD_REACTORS
330
1B2
102
}
330
1B2
100
AcDbXrecord
 10
0.0
 20
0.0
 30
0.0
  0
XRECORD
  5
1CC
102
{ACAD_REACTORS
330
1B2
102
}
330
1B2
100
AcDbXrecord
 10
0.0
 20
0.0
 30
0.0
  0
XRECORD
  5
1C9
102
{ACAD_REACTORS
330
1B2
102
}
330
1B2
100
AcDbXrecord
340
0
  0
XRECORD
  5
1CA
102
{ACAD_REACTORS
330
1B2
102
}
330
1B2
100
AcDbXrecord
 70
     0
  0
XRECORD
  5
1BE
102
{ACAD_REACTORS
330
1B2
102
}
330
1B2
100
AcDbXrecord
  1
{7569B006-CBE9-11D6-A95A-00B0D07221EC}
  0
DICTIONARYVAR
  5
1AD
102
{ACAD_REACTORS
330
1AC
102
}
330
1AC
100
DictionaryVariables
280
     0
  1
1
  0
ENDSEC
  0
EOF
