  0
SECTION
  2
HEADER
  9
$ACADVER
  1
AC1009
  9
$INSBASE
 10
33.9928162398
 20
13.529275344449999
 30
0.0
  9
$EXTMIN
 10
24.169981594100001
 20
9.5332123523999996
 30
0.0
  9
$EXTMAX
 10
34.284807298054233
 20
14.680850147599999
 30
0.0
  9
$LIMMIN
 10
0.0
 20
0.0
  9
$LIMMAX
 10
22.0
 20
17.0
  9
$ORTHOMODE
 70
     0
  9
$REGENMODE
 70
     1
  9
$FILLMODE
 70
     1
  9
$QTEXTMODE
 70
     0
  9
$MIRRTEXT
 70
     0
  9
$DRAGMODE
 70
     2
  9
$LTSCALE
 40
1.2099999999999991
  9
$OSMODE
 70
    39
  9
$ATTMODE
 70
     1
  9
$TEXTSIZE
 40
0.2
  9
$TRACEWID
 40
0.05
  9
$TEXTSTYLE
  7
STANDARD
  9
$CLAYER
  8
0
  9
$CELTYPE
  6
BYLAYER
  9
$CECOLOR
 62
   256
  9
$DIMSCALE
 40
1.0
  9
$DIMASZ
 40
0.1875
  9
$DIMEXO
 40
0.0625
  9
$DIMDLI
 40
0.8359999999999999
  9
$DIMRND
 40
0.0
  9
$DIMDLE
 40
0.0
  9
$DIMEXE
 40
0.125
  9
$DIMTP
 40
0.0
  9
$DIMTM
 40
0.0
  9
$DIMTXT
 40
0.15625
  9
$DIMCEN
 40
0.198
  9
$DIMTSZ
 40
0.0
  9
$DIMTOL
 70
     0
  9
$DIMLIM
 70
     0
  9
$DIMTIH
 70
     1
  9
$DIMTOH
 70
     1
  9
$DIMSE1
 70
     0
  9
$DIMSE2
 70
     0
  9
$DIMTAD
 70
     0
  9
$DIMZIN
 70
     0
  9
$DIMBLK
  1

  9
$DIMASO
 70
     1
  9
$DIMSHO
 70
     1
  9
$DIMPOST
  1

  9
$DIMAPOST
  1

  9
$DIMALT
 70
     0
  9
$DIMALTD
 70
     2
  9
$DIMALTF
 40
25.399999999999999
  9
$DIMLFAC
 40
1.0
  9
$DIMTOFL
 70
     0
  9
$DIMTVP
 40
0.0
  9
$DIMTIX
 70
     0
  9
$DIMSOXD
 70
     0
  9
$DIMSAH
 70
     0
  9
$DIMBLK1
  1

  9
$DIMBLK2
  1

  9
$DIMSTYLE
  2
STANDARD
  9
$DIMCLRD
 70
     0
  9
$DIMCLRE
 70
     0
  9
$DIMCLRT
 70
     0
  9
$DIMTFAC
 40
1.0
  9
$DIMGAP
 40
0.09
  9
$LUNITS
 70
     2
  9
$LUPREC
 70
     4
  9
$SKETCHINC
 40
0.1
  9
$FILLETRAD
 40
0.0
  9
$AUNITS
 70
     0
  9
$AUPREC
 70
     0
  9
$MENU
  1
.
  9
$ELEVATION
 40
0.0
  9
$PELEVATION
 40
0.0
  9
$THICKNESS
 40
0.0
  9
$LIMCHECK
 70
     0
  9
$BLIPMODE
 70
     0
  9
$CHAMFERA
 40
0.0
  9
$CHAMFERB
 40
0.0
  9
$SKPOLY
 70
     0
  9
$TDCREATE
 40
2457486.5715339701
  9
$TDUPDATE
 40
2457490.7336425688
  9
$TDINDWG
 40
0.1790994097
  9
$TDUSRTIMER
 40
0.1790994097
  9
$USRTIMER
 70
     1
  9
$ANGBASE
 50
0.0
  9
$ANGDIR
 70
     0
  9
$PDMODE
 70
     0
  9
$PDSIZE
 40
0.3125
  9
$PLINEWID
 40
0.0
  9
$COORDS
 70
     1
  9
$SPLFRAME
 70
     0
  9
$SPLINETYPE
 70
     6
  9
$SPLINESEGS
 70
     8
  9
$ATTDIA
 70
     1
  9
$ATTREQ
 70
     1
  9
$HANDLING
 70
     1
  9
$HANDSEED
  5
8C0
  9
$SURFTAB1
 70
     6
  9
$SURFTAB2
 70
     6
  9
$SURFTYPE
 70
     6
  9
$SURFU
 70
     6
  9
$SURFV
 70
     6
  9
$UCSNAME
  2

  9
$UCSORG
 10
0.0
 20
0.0
 30
0.0
  9
$UCSXDIR
 10
1.0
 20
0.0
 30
0.0
  9
$UCSYDIR
 10
0.0
 20
1.0
 30
0.0
  9
$PUCSNAME
  2

  9
$PUCSORG
 10
0.0
 20
0.0
 30
0.0
  9
$PUCSXDIR
 10
1.0
 20
0.0
 30
0.0
  9
$PUCSYDIR
 10
0.0
 20
1.0
 30
0.0
  9
$USERI1
 70
     0
  9
$USERI2
 70
     0
  9
$USERI3
 70
     0
  9
$USERI4
 70
     0
  9
$USERI5
 70
     0
  9
$USERR1
 40
0.0
  9
$USERR2
 40
0.0
  9
$USERR3
 40
0.0
  9
$USERR4
 40
0.0
  9
$USERR5
 40
0.0
  9
$WORLDVIEW
 70
     1
  9
$SHADEDGE
 70
     3
  9
$SHADEDIF
 70
    70
  9
$TILEMODE
 70
     1
  9
$MAXACTVP
 70
    48
  9
$PLIMCHECK
 70
     0
  9
$PEXTMIN
 10
1.0000000000000000E+020
 20
1.0000000000000000E+020
 30
1.0000000000000000E+020
  9
$PEXTMAX
 10
-1.0000000000000000E+020
 20
-1.0000000000000000E+020
 30
-1.0000000000000000E+020
  9
$PLIMMIN
 10
0.0
 20
0.0
  9
$PLIMMAX
 10
12.0
 20
9.0
  9
$UNITMODE
 70
     0
  9
$VISRETAIN
 70
     1
  9
$PLINEGEN
 70
     0
  9
$PSLTSCALE
 70
     1
  0
ENDSEC
  0
SECTION
  2
TABLES
  0
TABLE
  2
VPORT
 70
     1
  0
VPORT
  2
*ACTIVE
 70
     0
 10
0.0
 20
0.0
 11
1.0
 21
1.0
 12
-0.5046142873078489
 22
0.2457578360826851
 13
0.0
 23
0.0
 14
1.0
 24
1.0
 15
0.0
 25
0.0
 16
-0.0000000000000071
 26
0.0
 36
30.459085412956188
 17
29.089426945099671
 27
12.10703125
 37
0.0
 40
11.28197794645607
 41
1.8163481953290861
 42
50.0
 43
0.0
 44
0.0
 50
0.0
 51
0.0
 71
     0
 72
   100
 73
     1
 74
     1
 75
     0
 76
     0
 77
     0
 78
     0
  0
ENDTAB
  0
TABLE
  2
LTYPE
 70
     1
  0
LTYPE
  2
CONTINUOUS
 70
     0
  3
Solid line
 72
    65
 73
     0
 40
0.0
  0
ENDTAB
  0
TABLE
  2
LAYER
 70
     2
  0
LAYER
  2
0
 70
     0
 62
     7
  6
CONTINUOUS
  0
LAYER
  2
DEFPOINTS
 70
     0
 62
     7
  6
CONTINUOUS
  0
ENDTAB
  0
TABLE
  2
STYLE
 70
     1
  0
STYLE
  2
STANDARD
 70
     0
 40
0.0
 41
0.8
 50
0.0
 71
     0
 42
0.2
  3
txt
  4

  0
ENDTAB
  0
TABLE
  2
VIEW
 70
     1
  0
ENDTAB
  0
TABLE
  2
UCS
 70
     0
  0
ENDTAB
  0
TABLE
  2
APPID
 70
     5
  0
APPID
  2
ACAD
 70
     0
  0
APPID
  2
ACAD_MLEADERVER
 70
     0
  0
APPID
  2
ACAD_NAV_VCDISPLAY
 70
     0
  0
APPID
  2
ACAD_EXEMPT_FROM_CAD_STANDARDS
 70
     0
  0
APPID
  2
ACDBATTR
 70
     0
  0
ENDTAB
  0
TABLE
  2
DIMSTYLE
 70
     1
  0
DIMSTYLE
  2
STANDARD
 70
     0
  3

  4

  5

  6

  7

 40
1.0
 41
0.1875
 42
0.0625
 43
0.38
 44
0.125
 45
0.0
 46
0.0
 47
1.5
 48
1.5
140
0.15625
141
0.09
142
0.0
143
25.399999999999999
144
1.0
145
0.0
146
1.0
147
0.09
 71
     0
 72
     0
 73
     1
 74
     1
 75
     0
 76
     0
 77
     0
 78
     4
170
     0
171
     2
172
     0
173
     0
174
     0
175
     0
176
     0
177
     0
178
     0
  0
ENDTAB
  0
ENDSEC
  0
SECTION
  2
BLOCKS
  0
BLOCK
  8
0
  2
$MODEL_SPACE
 70
     0
 10
0.0
 20
0.0
 30
0.0
  3
$MODEL_SPACE
  1

  0
ENDBLK
  5
21
  8
0
  0
BLOCK
 67
     1
  8
0
  2
$PAPER_SPACE
 70
     0
 10
0.0
 20
0.0
 30
0.0
  3
$PAPER_SPACE
  1

  0
ENDBLK
  5
1D
 67
     1
  8
0
  0
ENDSEC
  0
SECTION
  2
ENTITIES
  0
LINE
  5
34D
  8
0
 10
27.900296554699999
 20
13.155259596500001
 30
0.0
 11
27.900296554699999
 21
10.2311352395
 31
0.0
  0
LINE
  5
34E
  8
0
 10
28.2743123027
 20
13.155259596500001
 30
0.0
 11
28.2743123027
 21
10.2311352395
 31
0.0
  0
LINE
  5
356
  8
0
 10
33.817326589400011
 20
12.4517247506
 30
0.0
 11
33.8042470014
 21
12.4517247506
 31
0.0
  0
LINE
  5
35C
  8
0
 10
33.008564271300003
 20
13.155259596500001
 30
0.0
 11
32.764352885900003
 21
13.155259596500001
 31
0.0
  0
LINE
  5
35D
  8
0
 10
32.386632681800002
 20
13.155259596500001
 30
0.0
 11
28.274312302799999
 21
13.155259596500001
 31
0.0
  0
LINE
  5
35E
  8
0
 10
24.543997342099999
 20
13.155259596500001
 30
0.0
 11
27.900296554600001
 21
13.155259596500001
 31
0.0
  0
LINE
  5
361
  8
0
 10
24.543997342099999
 20
13.9032910925
 30
0.0
 11
33.008564271300003
 21
13.9032910925
 31
0.0
  0
LINE
  5
369
  8
0
 10
33.817326589400011
 20
14.6068259384
 30
0.0
 11
33.8042470014
 21
14.6068259384
 31
0.0
  0
LINE
  5
36B
  8
0
 10
33.008564271300003
 20
13.155259596500001
 30
0.0
 11
33.008564271300003
 21
13.9032910925
 31
0.0
  0
LINE
  5
36D
  8
0
 10
33.792520913499999
 20
14.596428825
 30
0.0
 11
33.792520913499999
 21
12.462121864
 31
0.0
  0
LINE
  5
36F
  8
0
 10
33.817326589400011
 20
14.6346295522
 30
0.0
 11
33.817326589400011
 21
12.423921136800001
 31
0.0
  0
LINE
  5
371
  8
0
 10
33.9928162398
 20
12.377700541299999
 30
0.0
 11
33.9928162398
 21
14.680850147599999
 31
0.0
  0
CIRCLE
  5
3DC
  8
0
 10
28.087304428700001
 20
9.9072281003999993
 30
0.0
 40
0.374015748
  0
CIRCLE
  5
3DE
  8
0
 10
24.543997342099999
 20
13.5292753445
 30
0.0
 40
0.374015748
  0
ARC
  5
3E0
  8
0
 10
33.010781726399998
 20
14.690689545
 30
0.0
 40
0.7874015748000001
 50
270.68778218450001
 51
353.12456953499998
  0
ARC
  5
3E1
  8
0
 10
33.010781726399998
 20
12.367861144000001
 30
0.0
 40
0.7874015748000001
 50
6.8754304649999991
 51
89.312217815499977
  0
ARC
  5
3E2
  8
0
 10
33.9928162398
 20
12.796007628
 30
0.0
 40
0.4183070866
 50
246.25559245240001
 51
270.0
  0
ARC
  5
3E3
  8
0
 10
33.9928162398
 20
14.262543061000001
 30
0.0
 40
0.4183070866
 50
90.0
 51
113.74440754760001
  0
ARC
  5
3E4
  8
0
 10
33.020375294899999
 20
13.167016160899999
 30
0.0
 40
0.0118110236
 50
180.0
 51
269.31221632180001
  0
ARC
  5
3E5
  8
0
 10
33.020375294899999
 20
13.891534528099999
 30
0.0
 40
0.0118110236
 50
90.687783678200006
 51
180.0
  0
ARC
  5
3E6
  8
0
 10
33.8042470014
 20
12.4635357742
 30
0.0
 40
0.0118110236
 50
186.8754304265
 51
270.0
  0
ARC
  5
3E7
  8
0
 10
33.8042470014
 20
14.5950149148
 30
0.0
 40
0.0118110236
 50
90.0
 51
173.1245695735
  0
ARC
  5
3E8
  8
0
 10
33.829137613
 20
14.6346295515
 30
0.0
 40
0.0118110236
 50
113.7444075888
 51
179.99999652209999
  0
ARC
  5
3E9
  8
0
 10
33.829137613
 20
12.423921137500001
 30
0.0
 40
0.0118110236
 50
180.00000347790001
 51
246.25559241120001
  0
ARC
  5
635
  8
0
 10
28.087304428749999
 20
12.83024789796216
 30
0.0
 40
0.3749727311994222
 50
60.084388279309721
 51
119.9156117206898
  0
ARC
  5
636
  8
0
 10
32.575491964281078
 20
12.76783062711028
 30
0.0
 40
0.4310145435264528
 50
64.013551556456747
 51
115.9891831595841
  0
ATTDEF
  5
71C
  8
DEFPOINTS
 10
33.99820562943269
 20
13.53094201111667
 30
0.0
 40
0.001
  1
K-13448
  3

  2
MODELNUMBER
 70
     0
1001
ACDBATTR
1070
     0
1070
     1
  0
ATTDEF
  5
71D
  8
DEFPOINTS
 10
33.99820562943269
 20
13.529275344449999
 30
0.0
 40
0.001
  1
CORALAIS
  3

  2
TRADENAME
 70
     0
1001
ACDBATTR
1070
     0
1070
     1
  0
ATTDEF
  5
71E
  8
DEFPOINTS
 10
33.99820562943269
 20
13.527608677783331
 30
0.0
 40
0.001
  1
HOTELIER
  3

  2
PRODUCT
 70
     0
1001
ACDBATTR
1070
     0
1070
     1
  0
ATTDEF
  5
71F
  8
DEFPOINTS
 10
33.99820562943269
 20
13.525942011116671
 30
0.0
 40
0.001
  1
PREMIUM METAL
  3

  2
MATERIAL
 70
     0
1001
ACDBATTR
1070
     0
1070
     1
  0
ENDSEC
  0
EOF
