  0
SECTION
  2
HEADER
  9
$ACADVER
  1
AC1009
  9
$INSBASE
 10
7.0962567666999989
 20
13.5292753445
 30
0.0
  9
$EXTMIN
 10
-6.055318036400001
 20
9.5332123522999996
 30
0.0
  9
$EXTMAX
 10
20.247831569799999
 20
14.68085014760001
 30
0.0
  9
$LIMMIN
 10
0.0
 20
0.0
  9
$LIMMAX
 10
22.0
 20
17.0
  9
$ORTHOMODE
 70
     0
  9
$REGENMODE
 70
     1
  9
$FILLMODE
 70
     1
  9
$QTEXTMODE
 70
     0
  9
$MIRRTEXT
 70
     0
  9
$DRAGMODE
 70
     2
  9
$LTSCALE
 40
1.2099999999999991
  9
$OSMODE
 70
    39
  9
$ATTMODE
 70
     1
  9
$TEXTSIZE
 40
0.2
  9
$TRACEWID
 40
0.05
  9
$TEXTSTYLE
  7
STANDARD
  9
$CLAYER
  8
0
  9
$CELTYPE
  6
BYLAYER
  9
$CECOLOR
 62
   256
  9
$DIMSCALE
 40
1.0
  9
$DIMASZ
 40
0.1875
  9
$DIMEXO
 40
0.0625
  9
$DIMDLI
 40
0.8359999999999999
  9
$DIMRND
 40
0.0
  9
$DIMDLE
 40
0.0
  9
$DIMEXE
 40
0.125
  9
$DIMTP
 40
0.0
  9
$DIMTM
 40
0.0
  9
$DIMTXT
 40
0.15625
  9
$DIMCEN
 40
0.198
  9
$DIMTSZ
 40
0.0
  9
$DIMTOL
 70
     0
  9
$DIMLIM
 70
     0
  9
$DIMTIH
 70
     1
  9
$DIMTOH
 70
     1
  9
$DIMSE1
 70
     0
  9
$DIMSE2
 70
     0
  9
$DIMTAD
 70
     0
  9
$DIMZIN
 70
     0
  9
$DIMBLK
  1

  9
$DIMASO
 70
     1
  9
$DIMSHO
 70
     1
  9
$DIMPOST
  1

  9
$DIMAPOST
  1

  9
$DIMALT
 70
     0
  9
$DIMALTD
 70
     2
  9
$DIMALTF
 40
25.399999999999999
  9
$DIMLFAC
 40
1.0
  9
$DIMTOFL
 70
     0
  9
$DIMTVP
 40
0.0
  9
$DIMTIX
 70
     0
  9
$DIMSOXD
 70
     0
  9
$DIMSAH
 70
     0
  9
$DIMBLK1
  1

  9
$DIMBLK2
  1

  9
$DIMSTYLE
  2
STANDARD
  9
$DIMCLRD
 70
     0
  9
$DIMCLRE
 70
     0
  9
$DIMCLRT
 70
     0
  9
$DIMTFAC
 40
1.0
  9
$DIMGAP
 40
0.09
  9
$LUNITS
 70
     2
  9
$LUPREC
 70
     4
  9
$SKETCHINC
 40
0.1
  9
$FILLETRAD
 40
0.0
  9
$AUNITS
 70
     0
  9
$AUPREC
 70
     0
  9
$MENU
  1
.
  9
$ELEVATION
 40
0.0
  9
$PELEVATION
 40
0.0
  9
$THICKNESS
 40
0.0
  9
$LIMCHECK
 70
     0
  9
$BLIPMODE
 70
     0
  9
$CHAMFERA
 40
0.0
  9
$CHAMFERB
 40
0.0
  9
$SKPOLY
 70
     0
  9
$TDCREATE
 40
2457486.5715339701
  9
$TDUPDATE
 40
2457490.7333770711
  9
$TDINDWG
 40
0.1703444907
  9
$TDUSRTIMER
 40
0.1703444907
  9
$USRTIMER
 70
     1
  9
$ANGBASE
 50
0.0
  9
$ANGDIR
 70
     0
  9
$PDMODE
 70
     0
  9
$PDSIZE
 40
0.3125
  9
$PLINEWID
 40
0.0
  9
$COORDS
 70
     1
  9
$SPLFRAME
 70
     0
  9
$SPLINETYPE
 70
     6
  9
$SPLINESEGS
 70
     8
  9
$ATTDIA
 70
     1
  9
$ATTREQ
 70
     1
  9
$HANDLING
 70
     1
  9
$HANDSEED
  5
726
  9
$SURFTAB1
 70
     6
  9
$SURFTAB2
 70
     6
  9
$SURFTYPE
 70
     6
  9
$SURFU
 70
     6
  9
$SURFV
 70
     6
  9
$UCSNAME
  2

  9
$UCSORG
 10
0.0
 20
0.0
 30
0.0
  9
$UCSXDIR
 10
1.0
 20
0.0
 30
0.0
  9
$UCSYDIR
 10
0.0
 20
1.0
 30
0.0
  9
$PUCSNAME
  2

  9
$PUCSORG
 10
0.0
 20
0.0
 30
0.0
  9
$PUCSXDIR
 10
1.0
 20
0.0
 30
0.0
  9
$PUCSYDIR
 10
0.0
 20
1.0
 30
0.0
  9
$USERI1
 70
     0
  9
$USERI2
 70
     0
  9
$USERI3
 70
     0
  9
$USERI4
 70
     0
  9
$USERI5
 70
     0
  9
$USERR1
 40
0.0
  9
$USERR2
 40
0.0
  9
$USERR3
 40
0.0
  9
$USERR4
 40
0.0
  9
$USERR5
 40
0.0
  9
$WORLDVIEW
 70
     1
  9
$SHADEDGE
 70
     3
  9
$SHADEDIF
 70
    70
  9
$TILEMODE
 70
     1
  9
$MAXACTVP
 70
    48
  9
$PLIMCHECK
 70
     0
  9
$PEXTMIN
 10
1.0000000000000000E+020
 20
1.0000000000000000E+020
 30
1.0000000000000000E+020
  9
$PEXTMAX
 10
-1.0000000000000000E+020
 20
-1.0000000000000000E+020
 30
-1.0000000000000000E+020
  9
$PLIMMIN
 10
0.0
 20
0.0
  9
$PLIMMAX
 10
12.0
 20
9.0
  9
$UNITMODE
 70
     0
  9
$VISRETAIN
 70
     1
  9
$PLINEGEN
 70
     0
  9
$PSLTSCALE
 70
     1
  0
ENDSEC
  0
SECTION
  2
TABLES
  0
TABLE
  2
VPORT
 70
     1
  0
VPORT
  2
*ACTIVE
 70
     0
 10
0.0
 20
0.0
 11
1.0
 21
1.0
 12
3.709492218921596
 22
-2.9989370257354109
 13
0.0
 23
0.0
 14
1.0
 24
1.0
 15
0.0
 25
0.0
 16
-0.000000000000016
 26
0.0
 36
73.503546021570926
 17
7.0962567666999989
 27
12.10475180770494
 37
0.0
 40
22.23196451846804
 41
1.8163481953290861
 42
50.0
 43
0.0
 44
0.0
 50
0.0
 51
0.0
 71
     0
 72
   100
 73
     1
 74
     1
 75
     0
 76
     0
 77
     0
 78
     0
  0
ENDTAB
  0
TABLE
  2
LTYPE
 70
     1
  0
LTYPE
  2
CONTINUOUS
 70
     0
  3
Solid line
 72
    65
 73
     0
 40
0.0
  0
ENDTAB
  0
TABLE
  2
LAYER
 70
     2
  0
LAYER
  2
0
 70
     0
 62
     7
  6
CONTINUOUS
  0
LAYER
  2
DEFPOINTS
 70
     0
 62
     7
  6
CONTINUOUS
  0
ENDTAB
  0
TABLE
  2
STYLE
 70
     1
  0
STYLE
  2
STANDARD
 70
     0
 40
0.0
 41
0.8
 50
0.0
 71
     0
 42
0.2
  3
txt
  4

  0
ENDTAB
  0
TABLE
  2
VIEW
 70
     2
  0
ENDTAB
  0
TABLE
  2
UCS
 70
     0
  0
ENDTAB
  0
TABLE
  2
APPID
 70
     5
  0
APPID
  2
ACAD
 70
     0
  0
APPID
  2
ACAD_MLEADERVER
 70
     0
  0
APPID
  2
ACAD_NAV_VCDISPLAY
 70
     0
  0
APPID
  2
ACAD_EXEMPT_FROM_CAD_STANDARDS
 70
     0
  0
APPID
  2
ACDBATTR
 70
     0
  0
ENDTAB
  0
TABLE
  2
DIMSTYLE
 70
     1
  0
DIMSTYLE
  2
STANDARD
 70
     0
  3

  4

  5

  6

  7

 40
1.0
 41
0.1875
 42
0.0625
 43
0.38
 44
0.125
 45
0.0
 46
0.0
 47
1.5
 48
1.5
140
0.15625
141
0.09
142
0.0
143
25.399999999999999
144
1.0
145
0.0
146
1.0
147
0.09
 71
     0
 72
     0
 73
     1
 74
     1
 75
     0
 76
     0
 77
     0
 78
     4
170
     0
171
     2
172
     0
173
     0
174
     0
175
     0
176
     0
177
     0
178
     0
  0
ENDTAB
  0
ENDSEC
  0
SECTION
  2
BLOCKS
  0
BLOCK
  8
0
  2
$MODEL_SPACE
 70
     0
 10
0.0
 20
0.0
 30
0.0
  3
$MODEL_SPACE
  1

  0
ENDBLK
  5
21
  8
0
  0
BLOCK
 67
     1
  8
0
  2
$PAPER_SPACE
 70
     0
 10
0.0
 20
0.0
 30
0.0
  3
$PAPER_SPACE
  1

  0
ENDBLK
  5
1D
 67
     1
  8
0
  0
ENDSEC
  0
SECTION
  2
ENTITIES
  0
LINE
  5
280
  8
0
 10
-5.7383889025999988
 20
9.5332123523999996
 30
0.0
 11
19.930902436
 21
9.5332123523999996
 31
0.0
  0
LINE
  5
282
  8
0
 10
19.950587475399999
 20
9.5332123523999996
 30
0.0
 11
19.984843015799999
 21
9.5332123523999996
 31
0.0
  0
LINE
  5
288
  8
0
 10
-4.7068928396
 20
10.281243848400001
 30
0.0
 11
18.899406373000001
 21
10.281243848400001
 31
0.0
  0
LINE
  5
28A
  8
0
 10
19.293107160399991
 20
10.281243848400001
 30
0.0
 11
19.930902436
 21
10.281243848400001
 31
0.0
  0
LINE
  5
28B
  8
0
 10
19.950587475399999
 20
10.281243848400001
 30
0.0
 11
19.984843015799999
 21
10.281243848400001
 31
0.0
  0
LINE
  5
295
  8
0
 10
19.930902436
 20
13.155259596500001
 30
0.0
 11
-5.7383889025999988
 21
13.155259596500001
 31
0.0
  0
LINE
  5
297
  8
0
 10
19.950587475399999
 20
13.155259596500001
 30
0.0
 11
19.984843015799999
 21
13.155259596500001
 31
0.0
  0
LINE
  5
298
  8
0
 10
19.930902436
 20
13.9032910925
 30
0.0
 11
-5.7383889025999988
 21
13.9032910925
 31
0.0
  0
LINE
  5
29A
  8
0
 10
19.950587475399999
 20
13.9032910925
 30
0.0
 11
19.984843015799999
 21
13.9032910925
 31
0.0
  0
LINE
  5
2A7
  8
0
 10
18.909248892699999
 20
13.155259596500001
 30
0.0
 11
18.909248892699999
 21
10.27535095790037
 31
0.0
  0
LINE
  5
2A8
  8
0
 10
19.283264640700001
 20
10.275350957900381
 30
0.0
 11
19.283264640700001
 21
13.155259596500001
 31
0.0
  0
LINE
  5
2A9
  8
0
 10
19.930902436
 20
9.5332123523999996
 30
0.0
 11
19.930902436
 21
10.281243848400001
 31
0.0
  0
LINE
  5
2AA
  8
0
 10
19.930902436
 20
13.1553095748
 30
0.0
 11
19.930902436
 21
13.9032411141
 31
0.0
  0
ARC
  5
39A
  8
0
 10
19.087714758699999
 20
9.9072281003999993
 30
0.0
 40
0.9842519684999999
 50
338.44802712379999
 51
21.551972876200001
  0
ARC
  5
39B
  8
0
 10
19.950587475399999
 20
9.5528973917000002
 30
0.0
 40
0.0196850394
 50
180.0
 51
270.0
  0
ARC
  5
39C
  8
0
 10
19.950587475399999
 20
10.2615588091
 30
0.0
 40
0.0196850394
 50
90.0
 51
180.0
  0
ARC
  5
39D
  8
0
 10
19.984843015799999
 20
9.5528973917000002
 30
0.0
 40
0.0196850394
 50
270.0
 51
338.4479111128
  0
ARC
  5
39E
  8
0
 10
19.984843015799999
 20
10.2615588091
 30
0.0
 40
0.0196850394
 50
21.5520888872
 51
90.0
  0
ARC
  5
39F
  8
0
 10
19.096256766700002
 20
13.5292753445
 30
0.0
 40
1.151574803099999
 50
198.99683050620001
 51
260.64204534020001
  0
ARC
  5
3A0
  8
0
 10
19.096256766700002
 20
13.5292753445
 30
0.0
 40
1.151574803099999
 50
279.35795523090002
 51
161.0031707199
  0
ARC
  5
3A3
  8
0
 10
19.096256766700002
 20
13.5292753445
 30
0.0
 40
1.1053542077
 50
199.82925823119999
 51
260.24366202829998
  0
ARC
  5
3A4
  8
0
 10
19.096256766700002
 20
13.5292753445
 30
0.0
 40
1.1053542077
 50
279.75633683270001
 51
160.17073890430001
  0
ARC
  5
3A7
  8
0
 10
19.096256766700002
 20
13.5292753445
 30
0.0
 40
1.0671534805
 50
200.57120057079999
 51
259.8859532015
  0
ARC
  5
3A8
  8
0
 10
19.096256766700002
 20
13.5292753445
 30
0.0
 40
1.0671534805
 50
280.1140467985
 51
159.42879942920001
  0
ARC
  5
3A9
  8
0
 10
19.087714758699999
 20
13.5292753445
 30
0.0
 40
0.9842519684999999
 50
338.44802712379999
 51
21.551972876200001
  0
ARC
  5
3AA
  8
0
 10
19.950587475399999
 20
13.174944635799999
 30
0.0
 40
0.0196850394
 50
180.0
 51
270.0
  0
ARC
  5
3AB
  8
0
 10
19.950587475399999
 20
13.883606053099999
 30
0.0
 40
0.0196850394
 50
90.0
 51
180.0
  0
ARC
  5
3AC
  8
0
 10
19.984843015799999
 20
13.174944635799999
 30
0.0
 40
0.0196850394
 50
270.0
 51
338.4479111128
  0
ARC
  5
3AD
  8
0
 10
19.984843015799999
 20
13.883606053099999
 30
0.0
 40
0.0196850394
 50
21.5520888872
 51
90.0
  0
ARC
  5
5C0
  8
0
 10
19.096256766699991
 20
10.598864411996351
 30
0.0
 40
0.373674858559027
 50
238.21077692187691
 51
301.78922307812388
  0
LINE
  5
5C1
  8
0
 10
-5.7580739419999993
 20
9.5332123524000085
 30
0.0
 11
-5.7923294823999987
 21
9.5332123524000085
 31
0.0
  0
LINE
  5
5C2
  8
0
 10
-5.1005936269999976
 20
10.28124384840001
 30
0.0
 11
-5.7383889025999997
 21
10.28124384840001
 31
0.0
  0
LINE
  5
5C3
  8
0
 10
-5.7580739419999993
 20
10.28124384840001
 30
0.0
 11
-5.7923294823999987
 21
10.28124384840001
 31
0.0
  0
LINE
  5
5C4
  8
0
 10
-5.7580739419999993
 20
13.155259596500009
 30
0.0
 11
-5.7923294823999987
 21
13.155259596500009
 31
0.0
  0
LINE
  5
5C5
  8
0
 10
-5.7580739419999993
 20
13.903291092500011
 30
0.0
 11
-5.7923294823999987
 21
13.903291092500011
 31
0.0
  0
LINE
  5
5C6
  8
0
 10
-4.7167353592999994
 20
13.155259596500009
 30
0.0
 11
-4.7167353592999994
 21
10.275350957900381
 31
0.0
  0
LINE
  5
5C7
  8
0
 10
-5.0907511073
 20
10.27535095790039
 30
0.0
 11
-5.0907511073
 21
13.155259596500009
 31
0.0
  0
LINE
  5
5C8
  8
0
 10
-5.7383889025999997
 20
9.5332123524000085
 30
0.0
 11
-5.7383889025999997
 21
10.28124384840001
 31
0.0
  0
LINE
  5
5C9
  8
0
 10
-5.7383889025999997
 20
13.155309574800009
 30
0.0
 11
-5.7383889025999997
 21
13.903241114100011
 31
0.0
  0
ARC
  5
5CA
  8
0
 10
-4.8952012252999992
 20
9.9072281004000082
 30
0.0
 40
0.9842519684999999
 50
158.44802712379999
 51
201.55197287620001
  0
ARC
  5
5CB
  8
0
 10
-5.7580739419999993
 20
9.5528973917000091
 30
0.0
 40
0.0196850394
 50
270.0
 51
360.0
  0
ARC
  5
5CC
  8
0
 10
-5.7580739419999993
 20
10.261558809100009
 30
0.0
 40
0.0196850394
 50
360.0
 51
90.0
  0
ARC
  5
5CD
  8
0
 10
-5.7923294823999987
 20
9.5528973917000091
 30
0.0
 40
0.0196850394
 50
201.55208888719989
 51
270.0
  0
ARC
  5
5CE
  8
0
 10
-5.7923294823999987
 20
10.261558809100009
 30
0.0
 40
0.0196850394
 50
90.0
 51
158.4479111128
  0
ARC
  5
5CF
  8
0
 10
-4.9037432333000011
 20
13.529275344500009
 30
0.0
 40
1.151574803099999
 50
279.35795465979999
 51
341.00316949379999
  0
ARC
  5
5D0
  8
0
 10
-4.9037432333000011
 20
13.529275344500009
 30
0.0
 40
1.151574803099999
 50
18.996829280099959
 51
260.64204476909993
  0
ARC
  5
5D1
  8
0
 10
-4.9037432333000011
 20
13.529275344500009
 30
0.0
 40
1.1053542077
 50
279.75633797170002
 51
340.17074176879999
  0
ARC
  5
5D2
  8
0
 10
-4.9037432333000011
 20
13.529275344500009
 30
0.0
 40
1.1053542077
 50
19.829261095699941
 51
260.24366316729999
  0
ARC
  5
5D3
  8
0
 10
-4.9037432333000011
 20
13.529275344500009
 30
0.0
 40
1.0671534805
 50
280.11404679849988
 51
339.42879942920001
  0
ARC
  5
5D4
  8
0
 10
-4.9037432333000011
 20
13.529275344500009
 30
0.0
 40
1.0671534805
 50
20.57120057079997
 51
259.8859532015
  0
ARC
  5
5D5
  8
0
 10
-4.8952012252999992
 20
13.529275344500009
 30
0.0
 40
0.9842519684999999
 50
158.44802712379999
 51
201.55197287620001
  0
ARC
  5
5D6
  8
0
 10
-5.7580739419999993
 20
13.17494463580001
 30
0.0
 40
0.0196850394
 50
270.0
 51
360.0
  0
ARC
  5
5D7
  8
0
 10
-5.7580739419999993
 20
13.88360605310001
 30
0.0
 40
0.0196850394
 50
360.0
 51
90.0
  0
ARC
  5
5D8
  8
0
 10
-5.7923294823999987
 20
13.17494463580001
 30
0.0
 40
0.0196850394
 50
201.55208888719989
 51
270.0
  0
ARC
  5
5D9
  8
0
 10
-5.7923294823999987
 20
13.88360605310001
 30
0.0
 40
0.0196850394
 50
90.0
 51
158.4479111128
  0
ARC
  5
5DA
  8
0
 10
-4.903743233299994
 20
10.59886441199636
 30
0.0
 40
0.373674858559027
 50
238.210776921876
 51
301.78922307812297
  0
ATTDEF
  5
60E
  8
DEFPOINTS
 10
7.092540985354721
 20
13.51838215647272
 30
0.0
 40
0.001
  1
PREMIUM METAL
  3

  2
MATERIAL
 70
     0
1001
ACDBATTR
1070
     0
1070
     1
  0
ATTDEF
  5
60F
  8
DEFPOINTS
 10
7.092540985354721
 20
13.52004882313938
 30
0.0
 40
0.001
  1
HOTELIER
  3

  2
PRODUCT
 70
     0
1001
ACDBATTR
1070
     0
1070
     1
  0
ATTDEF
  5
610
  8
DEFPOINTS
 10
7.092540985354721
 20
13.52171548980605
 30
0.0
 40
0.001
  1
CORALAIS
  3

  2
TRADENAME
 70
     0
1001
ACDBATTR
1070
     0
1070
     1
  0
ATTDEF
  5
611
  8
DEFPOINTS
 10
7.092540985354721
 20
13.523382156472721
 30
0.0
 40
0.001
  1
K-13448
  3

  2
MODELNUMBER
 70
     0
1001
ACDBATTR
1070
     0
1070
     1
  0
ENDSEC
  0
EOF
