  0
SECTION
  2
HEADER
  9
$ACADVER
  1
AC1009
  9
$INSBASE
 10
17.0420411405
 20
3.7945264226999988
 30
0.0
  9
$EXTMIN
 10
11.237243268948969
 20
3.7775024060997562
 30
-0.0000000349181948
  9
$EXTMAX
 10
19.075488171027331
 20
10.392056054798489
 30
0.0000000814935746
  9
$LIMMIN
 10
0.0
 20
0.0
  9
$LIMMAX
 10
11.692913385800001
 20
8.2677165353999982
  9
$ORTHOMODE
 70
     0
  9
$REGENMODE
 70
     1
  9
$FILLMODE
 70
     1
  9
$QTEXTMODE
 70
     0
  9
$MIRRTEXT
 70
     0
  9
$DRAGMODE
 70
     2
  9
$LTSCALE
 40
0.6431102362
  9
$OSMODE
 70
  3071
  9
$ATTMODE
 70
     1
  9
$TEXTSIZE
 40
0.2
  9
$TRACEWID
 40
0.05
  9
$TEXTSTYLE
  7
STANDARD
  9
$CLAYER
  8
0
  9
$CELTYPE
  6
BYLAYER
  9
$CECOLOR
 62
   256
  9
$DIMSCALE
 40
1.0
  9
$DIMASZ
 40
0.1875
  9
$DIMEXO
 40
0.0625
  9
$DIMDLI
 40
0.4443307087
  9
$DIMRND
 40
0.0
  9
$DIMDLE
 40
0.0
  9
$DIMEXE
 40
0.125
  9
$DIMTP
 40
0.01
  9
$DIMTM
 40
0.01
  9
$DIMTXT
 40
0.15625
  9
$DIMCEN
 40
0.1052362205
  9
$DIMTSZ
 40
0.0
  9
$DIMTOL
 70
     1
  9
$DIMLIM
 70
     0
  9
$DIMTIH
 70
     1
  9
$DIMTOH
 70
     1
  9
$DIMSE1
 70
     0
  9
$DIMSE2
 70
     0
  9
$DIMTAD
 70
     0
  9
$DIMZIN
 70
     0
  9
$DIMBLK
  1

  9
$DIMASO
 70
     1
  9
$DIMSHO
 70
     1
  9
$DIMPOST
  1

  9
$DIMAPOST
  1

  9
$DIMALT
 70
     0
  9
$DIMALTD
 70
     2
  9
$DIMALTF
 40
25.399999999999999
  9
$DIMLFAC
 40
1.0
  9
$DIMTOFL
 70
     0
  9
$DIMTVP
 40
0.0
  9
$DIMTIX
 70
     0
  9
$DIMSOXD
 70
     0
  9
$DIMSAH
 70
     0
  9
$DIMBLK1
  1

  9
$DIMBLK2
  1

  9
$DIMSTYLE
  2
STANDARD
  9
$DIMCLRD
 70
     0
  9
$DIMCLRE
 70
     0
  9
$DIMCLRT
 70
     0
  9
$DIMTFAC
 40
1.0
  9
$DIMGAP
 40
0.09
  9
$LUNITS
 70
     2
  9
$LUPREC
 70
     4
  9
$SKETCHINC
 40
0.1
  9
$FILLETRAD
 40
0.0
  9
$AUNITS
 70
     0
  9
$AUPREC
 70
     0
  9
$MENU
  1
.
  9
$ELEVATION
 40
0.0
  9
$PELEVATION
 40
0.0
  9
$THICKNESS
 40
0.0
  9
$LIMCHECK
 70
     0
  9
$BLIPMODE
 70
     0
  9
$CHAMFERA
 40
0.0
  9
$CHAMFERB
 40
0.0
  9
$SKPOLY
 70
     0
  9
$TDCREATE
 40
2457700.631292535
  9
$TDUPDATE
 40
2457700.7395353941
  9
$TDINDWG
 40
0.1076902199
  9
$TDUSRTIMER
 40
0.1076902199
  9
$USRTIMER
 70
     1
  9
$ANGBASE
 50
0.0
  9
$ANGDIR
 70
     0
  9
$PDMODE
 70
     0
  9
$PDSIZE
 40
0.3125
  9
$PLINEWID
 40
0.0
  9
$COORDS
 70
     1
  9
$SPLFRAME
 70
     0
  9
$SPLINETYPE
 70
     6
  9
$SPLINESEGS
 70
     8
  9
$ATTDIA
 70
     1
  9
$ATTREQ
 70
     1
  9
$HANDLING
 70
     1
  9
$HANDSEED
  5
1182
  9
$SURFTAB1
 70
     6
  9
$SURFTAB2
 70
     6
  9
$SURFTYPE
 70
     6
  9
$SURFU
 70
     6
  9
$SURFV
 70
     6
  9
$UCSNAME
  2

  9
$UCSORG
 10
0.0
 20
0.0
 30
0.0
  9
$UCSXDIR
 10
1.0
 20
0.0
 30
0.0
  9
$UCSYDIR
 10
0.0
 20
1.0
 30
0.0
  9
$PUCSNAME
  2

  9
$PUCSORG
 10
0.0
 20
0.0
 30
0.0
  9
$PUCSXDIR
 10
1.0
 20
0.0
 30
0.0
  9
$PUCSYDIR
 10
0.0
 20
1.0
 30
0.0
  9
$USERI1
 70
     0
  9
$USERI2
 70
     0
  9
$USERI3
 70
     0
  9
$USERI4
 70
     0
  9
$USERI5
 70
     0
  9
$USERR1
 40
0.0
  9
$USERR2
 40
0.0
  9
$USERR3
 40
0.0
  9
$USERR4
 40
0.0
  9
$USERR5
 40
0.0
  9
$WORLDVIEW
 70
     1
  9
$SHADEDGE
 70
     3
  9
$SHADEDIF
 70
    70
  9
$TILEMODE
 70
     1
  9
$MAXACTVP
 70
    64
  9
$PLIMCHECK
 70
     0
  9
$PEXTMIN
 10
1.0000000000000000E+020
 20
1.0000000000000000E+020
 30
1.0000000000000000E+020
  9
$PEXTMAX
 10
-1.0000000000000000E+020
 20
-1.0000000000000000E+020
 30
-1.0000000000000000E+020
  9
$PLIMMIN
 10
0.0
 20
0.0
  9
$PLIMMAX
 10
12.0
 20
9.0
  9
$UNITMODE
 70
     0
  9
$VISRETAIN
 70
     1
  9
$PLINEGEN
 70
     0
  9
$PSLTSCALE
 70
     1
  0
ENDSEC
  0
SECTION
  2
TABLES
  0
TABLE
  2
VPORT
 70
     1
  0
VPORT
  2
*ACTIVE
 70
     0
 10
0.0
 20
0.0
 11
1.0
 21
1.0
 12
-0.000131457122333
 22
0.001235275499111
 13
0.0
 23
0.0
 14
1.0
 24
1.0
 15
0.0
 25
0.0
 16
-0.0000000000000053
 26
0.0
 36
25.63091428512223
 17
15.156497177110481
 27
7.0835439549500139
 37
0.0
 40
6.6704512851666138
 41
1.798307475317348
 42
50.0
 43
0.0
 44
0.0
 50
0.0
 51
0.0
 71
     0
 72
   100
 73
     1
 74
     1
 75
     0
 76
     0
 77
     0
 78
     1
  0
ENDTAB
  0
TABLE
  2
LTYPE
 70
     3
  0
LTYPE
  2
CONTINUOUS
 70
     0
  3
Solid line
 72
    65
 73
     0
 40
0.0
  0
LTYPE
  2
PHANTOM2
 70
     0
  3
___ _ _ ___ _ _ ___ _ _ ___ _ _
 72
    65
 73
     6
 40
1.25
 49
0.625
 49
-0.125
 49
0.125
 49
-0.125
 49
0.125
 49
-0.125
  0
ENDTAB
  0
TABLE
  2
LAYER
 70
     3
  0
LAYER
  2
0
 70
     0
 62
     7
  6
CONTINUOUS
  0
LAYER
  2
DEFPOINTS
 70
     0
 62
     7
  6
CONTINUOUS
  0
ENDTAB
  0
TABLE
  2
STYLE
 70
     1
  0
STYLE
  2
STANDARD
 70
     0
 40
0.0
 41
0.8
 50
0.0
 71
     0
 42
0.2
  3
txt
  4

  0
ENDTAB
  0
TABLE
  2
VIEW
 70
     0
  0
ENDTAB
  0
TABLE
  2
UCS
 70
     0
  0
ENDTAB
  0
TABLE
  2
APPID
 70
     5
  0
APPID
  2
ACAD
 70
     0
  0
APPID
  2
ACAD_NAV_VCDISPLAY
 70
     0
  0
APPID
  2
ACAD_MLEADERVER
 70
     0
  0
APPID
  2
ACAD_EXEMPT_FROM_CAD_STANDARDS
 70
     0
  0
APPID
  2
AcDbAttr
 70
     0
  0
ENDTAB
  0
TABLE
  2
DIMSTYLE
 70
     2
  0
DIMSTYLE
  2
STANDARD
 70
     0
  3

  4

  5

  6

  7

 40
1.0
 41
0.1875
 42
0.0625
 43
0.38
 44
0.125
 45
0.0
 46
0.0
 47
0.01
 48
0.01
140
0.15625
141
0.09
142
0.0
143
25.399999999999999
144
1.0
145
0.0
146
1.0
147
0.09
 71
     1
 72
     0
 73
     1
 74
     1
 75
     0
 76
     0
 77
     0
 78
     4
170
     0
171
     2
172
     0
173
     0
174
     0
175
     0
176
     0
177
     0
178
     0
  0
ENDTAB
  0
ENDSEC
  0
SECTION
  2
BLOCKS
  0
BLOCK
  8
0
  2
$MODEL_SPACE
 70
     0
 10
0.0
 20
0.0
 30
0.0
  3
$MODEL_SPACE
  1

  0
ENDBLK
  5
21
  8
0
  0
BLOCK
 67
     1
  8
0
  2
$PAPER_SPACE
 70
     0
 10
0.0
 20
0.0
 30
0.0
  3
$PAPER_SPACE
  1

  0
ENDBLK
  5
1D
 67
     1
  8
0
  0
ENDSEC
  0
SECTION
  2
ENTITIES
  0
ARC
  5
CE4
  8
0
 10
13.72825386060015
 20
9.9507523057594902
 30
0.0
 40
0.1495484933844018
 50
143.97782376890501
 51
199.4451203194871
  0
ARC
  5
CE5
  8
0
 10
14.12853630128086
 20
9.7036091659148962
 30
0.0
 40
0.6196559737055442
 50
115.7627528919807
 51
147.26381868906259
  0
ARC
  5
CE6
  8
0
 10
14.430334296036341
 20
9.0702027637793652
 30
0.0
 40
1.3212826049943649
 50
86.539019691847301
 51
115.6106477405781
  0
ARC
  5
CE8
  8
0
 10
14.485608026494109
 20
8.7084407594095108
 30
0.0
 40
1.6808132081226661
 50
74.190758818605957
 51
89.165135787683127
  0
ARC
  5
CE9
  8
0
 10
13.4512354722946
 20
5.1215010778356467
 30
0.0
 40
5.4139033297962502
 50
66.561670203374845
 51
73.999871854230662
  0
ARC
  5
CEA
  8
0
 10
12.630141855876101
 20
3.0982431539317341
 30
0.0
 40
7.5969934189372372
 50
61.093813015935311
 51
66.949556903162446
  0
ARC
  5
CEC
  8
0
 10
16.661328269565839
 20
10.442222921263159
 30
0.0
 40
0.7808808660500859
 50
242.63189973998971
 51
252.98870298828771
  0
ARC
  5
CED
  8
0
 10
16.523575166268841
 20
10.02873958498841
 30
0.0
 40
0.3453551209125631
 50
254.7736560948949
 51
271.25652908147231
  0
LINE
  5
CEE
  8
0
 10
16.531148393700001
 20
9.6834675099999998
 30
0.0
 11
17.59230091845
 21
9.6823735026000008
 31
0.0
  0
ARC
  5
CEF
  8
0
 10
17.589908670917211
 20
9.5224495016271344
 30
0.0
 40
0.1599418923716592
 50
312.10437708101142
 51
89.142996270818855
  0
ARC
  5
CF0
  8
0
 10
16.67661451211778
 20
9.6808024991064716
 30
0.0
 40
0.1897749187630507
 50
147.1325712298605
 51
178.63066585939359
  0
ARC
  5
CF1
  8
0
 10
16.731853760198359
 20
9.6153007698183224
 30
0.0
 40
0.2728707317417166
 50
113.50129441864959
 51
141.86770999598201
  0
ARC
  5
CF2
  8
0
 10
17.041183834591259
 20
9.0032691612837414
 30
0.0
 40
0.958305488669314
 50
62.079907610685638
 51
115.87030253512791
  0
ARC
  5
CF3
  8
0
 10
17.395366980144569
 20
9.6644956846853756
 30
0.0
 40
0.2082289978633867
 50
31.510458889831231
 51
63.000140511508278
  0
ARC
  5
CF4
  8
0
 10
17.403527876296462
 20
9.6801338161369692
 30
0.0
 40
0.1933108829454514
 50
0.6247677269173035
 51
28.822122652031119
  0
ARC
  5
CF5
  8
0
 10
13.645178963931761
 20
9.9193274278008907
 30
0.0
 40
0.0607828046159194
 50
197.58170192016129
 51
261.02945348621643
  0
ARC
  5
CF6
  8
0
 10
13.68367008700656
 20
10.238228239796079
 30
0.0
 40
0.381964198416512
 50
262.78548836505632
 51
279.32737948479922
  0
ARC
  5
CF7
  8
0
 10
10.396180637203891
 20
30.127022405676659
 30
0.0
 40
20.54062765635322
 50
279.38467231536782
 51
280.79725954434059
  0
ARC
  5
CF8
  8
0
 10
14.604666661311651
 20
7.8566265954506589
 30
0.0
 40
2.1242321539164442
 50
89.040030353020455
 51
99.771446349115621
  0
ARC
  5
CF9
  8
0
 10
14.54758411872783
 20
7.49149458381443
 30
0.0
 40
2.4907905706793199
 50
72.282320249663101
 51
87.867778371883773
  0
ARC
  5
CFA
  8
0
 10
14.38779766973016
 20
6.6260496696591042
 30
0.0
 40
3.3656492505271189
 50
58.466574725349631
 51
74.17520323005192
  0
ARC
  5
CFB
  8
0
 10
16.448861066522149
 20
9.8746625508300259
 30
0.0
 40
0.4846333538955561
 50
231.62809304477489
 51
257.33631497721871
  0
ARC
  5
CFC
  8
0
 10
17.132391439142431
 20
-68.10875850579697
 30
0.0
 40
77.514600553864113
 50
89.582550921202568
 51
90.583781450402768
  0
ARC
  5
CFD
  8
0
 10
17.699443825440941
 20
8.8687044119273502
 30
0.0
 40
0.5350851910312989
 50
85.980668560344
 51
90.245935774350386
  0
ARC
  5
CFE
  8
0
 10
17.728420722877939
 20
9.3394271414175165
 30
0.0
 40
0.0636206688314759
 50
308.3681822086063
 51
82.295853868386914
  0
ARC
  5
CFF
  8
0
 10
17.859991628826968
 20
9.1440780948117304
 30
0.0
 40
0.1721621560683693
 50
122.3336738388589
 51
241.06214303574421
  0
ARC
  5
D00
  8
0
 10
3.1829336144615219
 20
-15.11742020644771
 30
0.0
 40
28.18350391603353
 50
58.190229495515858
 51
58.814403532242103
  0
ARC
  5
D01
  8
0
 10
17.907884987229931
 20
8.5338986978428935
 30
0.0
 40
0.3263692137153491
 50
314.58880027400369
 51
66.412993149260316
  0
ARC
  5
D03
  8
0
 10
18.112588034171871
 20
8.3186893716681372
 30
0.0
 40
0.029874182500941
 50
269.87505491386491
 51
324.8037539344474
  0
ARC
  5
D04
  8
0
 10
17.042080680864469
 20
-119.85917967307419
 30
0.0
 40
128.15246564907059
 50
89.521409646254384
 51
90.478820858625284
  0
ARC
  5
D05
  8
0
 10
15.971081023156479
 20
8.3187542657423172
 30
0.0
 40
0.0299433423618419
 50
215.2994735547492
 51
270.08017998919479
  0
ARC
  5
D06
  8
0
 10
16.285192980391582
 20
8.5818242698367744
 30
0.0
 40
0.4395736502941217
 50
187.27608889792629
 51
219.63011426874439
  0
ARC
  5
D07
  8
0
 10
16.12801467742095
 20
8.5418225046683052
 30
0.0
 40
0.2792955914334871
 50
134.66629855938771
 51
183.21640117603141
  0
ARC
  5
D08
  8
0
 10
16.768120813758639
 20
7.8110190296743358
 30
0.0
 40
1.250400697569847
 50
116.0494969567327
 51
131.98538796980131
  0
ARC
  5
D09
  8
0
 10
15.9967213417242
 20
9.3591932575148462
 30
0.0
 40
0.4794410157570134
 50
297.6223994027369
 51
321.76781939638522
  0
ARC
  5
D0A
  8
0
 10
16.239013939160049
 20
9.1435539129577705
 30
0.0
 40
0.156879192832072
 50
328.88752620144868
 51
45.339989022177178
  0
ARC
  5
D0B
  8
0
 10
16.505173958776432
 20
9.4372556176731415
 30
0.0
 40
0.2397239093836397
 50
208.28249056065471
 51
229.4365866544328
  0
ARC
  5
D0C
  8
0
 10
16.354410287381722
 20
9.3403374613406012
 30
0.0
 40
0.0626021523896156
 50
100.8595216593272
 51
195.44104304019561
  0
ARC
  5
D0D
  8
0
 10
15.091376635401369
 20
8.0578355117003007
 30
0.0
 40
2.8897241737190091
 50
352.23311007556578
 51
4.6064733862293741
  0
ARC
  5
D29
  8
0
 10
18.033151730722839
 20
4.6745266320117942
 30
0.0
 40
0.0100002093628389
 50
270.0057890542538
 51
353.27455058769721
  0
LINE
  5
D2A
  8
0
 10
17.042041137272491
 20
4.664526422699999
 30
0.0
 11
18.0870411404725
 21
4.664526422699999
 31
0.0
  0
ARC
  5
D2B
  8
0
 10
18.0870411404725
 20
4.5645264227000002
 30
0.0
 40
0.0999999999999997
 50
270.0
 51
90.0
  0
LINE
  5
D2C
  8
0
 10
18.0870411404725
 20
4.4645264226999997
 30
0.0
 11
17.042041140472492
 21
4.4645264226999997
 31
0.0
  0
ARC
  5
D2D
  8
0
 10
17.992041140472519
 20
4.4445289228000053
 30
0.0
 40
0.0499999999999783
 50
359.99999999999392
 51
23.595195502103682
  0
LINE
  5
D2E
  8
0
 10
18.042041140472492
 20
4.4445289228
 30
0.0
 11
18.042041140472492
 21
4.4345264227000039
 31
0.0
  0
ARC
  5
D2F
  8
0
 10
18.422041140472398
 20
4.4345264226999701
 30
0.0
 40
0.3799999999999093
 50
179.9999999999948
 51
216.16128731369599
  0
ARC
  5
D30
  8
0
 10
17.808448164239088
 20
3.9860805952521821
 30
0.0
 40
0.3800000004199472
 50
355.336480096927
 51
36.161287313696043
  0
ARC
  5
D31
  8
0
 10
18.232041140520099
 20
3.9515264227417908
 30
0.0
 40
0.0450000000417921
 50
175.33648009692689
 51
269.9999999393869
  0
ARC
  5
D32
  8
0
 10
18.23204114040902
 20
3.8465264226365261
 30
0.0
 40
0.0600000000634737
 50
0.0000000606128738
 51
89.999999939386853
  0
LINE
  5
D33
  8
0
 10
18.292041140472492
 20
3.8465264226999989
 30
0.0
 11
18.292041140527498
 21
3.7945264226999988
 31
0.0
  0
LINE
  5
D34
  8
0
 10
18.292041140527498
 20
3.7945264226999988
 30
0.0
 11
15.79204114047249
 21
3.7945264226999988
 31
0.0
  0
ARC
  5
D35
  8
0
 10
16.052198388503228
 20
4.6746079586178286
 30
0.0
 40
0.0100471536547573
 50
180.3096597524131
 51
264.83610905033851
  0
LINE
  5
D36
  8
0
 10
17.042041150794809
 20
4.664526422699999
 30
0.0
 11
15.99704114759481
 21
4.664526428920527
 31
0.0
  0
ARC
  5
D37
  8
0
 10
15.997041146999541
 20
4.5645264289205283
 30
0.0
 40
0.0999999999999997
 50
89.999999658937668
 51
269.99999965893772
  0
LINE
  5
D38
  8
0
 10
15.99704114640428
 20
4.4645264289205278
 30
0.0
 11
17.04204114640428
 21
4.4645264226999997
 31
0.0
  0
ARC
  5
D39
  8
0
 10
16.092041146285219
 20
4.4445289284550311
 30
0.0
 40
0.0499999999999783
 50
156.4048041568341
 51
179.99999965894389
  0
LINE
  5
D3A
  8
0
 10
16.042041146285239
 20
4.444528928752657
 30
0.0
 11
16.042041146225699
 21
4.4345264286526618
 31
0.0
  0
ARC
  5
D3B
  8
0
 10
15.662041146225789
 20
4.4345264309146391
 30
0.0
 40
0.3799999999999093
 50
323.83871234524167
 51
359.99999965894301
  0
ARC
  5
D3C
  8
0
 10
16.27563411978965
 20
3.9860805998143412
 30
0.0
 40
0.3800000004199472
 50
143.83871234524179
 51
184.66351956201069
  0
ARC
  5
D3D
  8
0
 10
15.85204114330296
 20
3.9515264298254551
 30
0.0
 40
0.0450000000417921
 50
269.999999719551
 51
4.6635195620108814
  0
ARC
  5
D3E
  8
0
 10
15.852041142789011
 20
3.8465264297201891
 30
0.0
 40
0.0600000000634737
 50
89.9999997195508
 51
179.99999959832491
  0
LINE
  5
D3F
  8
0
 10
15.792041142725539
 20
3.846526430140822
 30
0.0
 11
15.79204114236099
 21
3.7945264301408219
 31
0.0
  0
ARC
  5
D40
  8
0
 10
18.99780735154366
 20
8.0579756972472083
 30
0.0
 40
2.8947980745888868
 50
175.40441305735001
 51
187.75599286408331
  0
LINE
  5
D41
  8
0
 10
16.0693355509
 20
7.6673094697000002
 30
0.0
 11
17.9983354646
 21
7.6673094697000002
 31
0.0
  0
ARC
  5
D42
  8
0
 10
17.9983354646
 20
7.6223094697456988
 30
0.0
 40
0.0449999999543005
 50
0.9894266546154018
 51
90.000000000000099
  0
LINE
  5
D43
  8
0
 10
18.043328755000001
 20
7.6230865249999988
 30
0.0
 11
18.09109241605724
 21
4.8574604506336474
 31
0.0
  0
ARC
  5
D44
  8
0
 10
18.061001446606269
 20
4.8569407654603474
 30
0.0
 40
0.030095456719887
 50
270.371912721706
 51
0.9894266546181103
  0
ARC
  5
D46
  8
0
 10
17.977841377918569
 20
8.0119495028342023
 30
0.0
 40
3.1861940955321999
 50
263.71762426354911
 51
271.49911103286428
  0
ARC
  5
D47
  8
0
 10
17.866026884464539
 20
6.2348857891067819
 30
0.0
 40
1.410030342215725
 50
223.28602107697029
 51
260.33005048816739
  0
ARC
  5
D48
  8
0
 10
17.84024803244435
 20
6.220108990557061
 30
0.0
 40
1.3811506353732961
 50
210.71542560570879
 51
223.57302616362421
  0
ARC
  5
D4A
  8
0
 10
25.514875467230471
 20
10.29950450104799
 30
0.0
 40
10.071259124340891
 50
205.09510202202429
 51
208.3658397600687
  0
ARC
  5
D4B
  8
0
 10
12.995353821777339
 20
4.317658343673445
 30
0.0
 40
3.8050312308584862
 50
26.712316603673379
 51
45.648229953794463
  0
ARC
  5
D4C
  8
0
 10
13.97460089250929
 20
5.4095907891220767
 30
0.0
 40
2.3405293185501082
 50
44.103209368075113
 51
81.589984434550047
  0
ARC
  5
D4D
  8
0
 10
14.012876632844391
 20
5.4970485720682696
 30
0.0
 40
2.2485537278595831
 50
82.228885297281863
 51
160.275726172872
  0
LINE
  5
D4E
  8
0
 10
12.1059411092
 20
5.9879008945000001
 30
0.0
 11
12.089352203600001
 21
5.960556187399999
 31
0.0
  0
LINE
  5
D4F
  8
0
 10
12.089352203600001
 20
5.960556187399999
 30
0.0
 11
11.496443254900001
 21
6.1418266444
 31
0.0
  0
LINE
  5
D50
  8
0
 10
11.496443254900001
 20
6.1418266444
 30
0.0
 11
11.4979813949014
 21
6.1737728322290719
 31
0.0
  0
LINE
  5
D51
  8
0
 10
11.30924718483177
 20
6.2314746708054018
 30
0.0
 11
12.29467531932659
 21
5.9301990557918698
 31
0.0
  0
ARC
  5
D52
  8
0
 10
12.323995005121679
 20
6.0252725925093067
 30
0.0
 40
0.0994918155381863
 50
252.86078387271951
 51
56.062089429505029
  0
LINE
  5
D53
  8
0
 10
12.379540706328889
 20
6.1078152871375027
 30
0.0
 11
11.342569166300001
 21
6.425197011299999
 31
0.0
  0
ARC
  5
D54
  8
0
 10
11.33379801502204
 20
6.39650786702913
 30
0.0
 40
0.0300000015622603
 50
73.000000639855372
 51
93.796570989777322
  0
ARC
  5
D55
  8
0
 10
11.33841797464469
 20
6.3268880286675628
 30
0.0
 40
0.0997729613705251
 50
93.796570989778331
 51
253.00000060709991
  0
ARC
  5
D57
  8
0
 10
14.00994025214889
 20
5.4933943348717023
 30
0.0
 40
2.7491493316919371
 50
125.1485783515899
 51
160.6808563640908
  0
ARC
  5
D58
  8
0
 10
14.01298592177414
 20
5.4890685860756943
 30
0.0
 40
2.7544397197790551
 50
84.709350375302563
 51
125.14857835158971
  0
ARC
  5
D5A
  8
0
 10
14.01806557495242
 20
5.5439229126665959
 30
0.0
 40
2.6993507007085271
 50
62.750882174818457
 51
84.709350375302606
  0
ARC
  5
D5B
  8
0
 10
12.338637671215739
 20
2.6514940785341912
 30
0.0
 40
6.0420893938075508
 50
55.173977566858099
 51
61.150703126661192
  0
ARC
  5
D5C
  8
0
 10
15.89252353704574
 20
7.751404259565394
 30
0.0
 40
0.1740194105300193
 50
233.5737985187005
 51
323.0085776809164
  0
ARC
  5
D5D
  8
0
 10
16.069338689325662
 20
7.6223037114107433
 30
0.0
 40
0.0450057583986869
 50
90.003995456382995
 51
147.17898901742021
  0
ARC
  5
D5E
  8
0
 10
14.003819010892689
 20
5.5004100023911908
 30
0.0
 40
1.740698309596846
 50
124.84581292250191
 51
159.50967957588711
  0
ARC
  5
D5F
  8
0
 10
14.013938997834989
 20
5.4858740641603543
 30
0.0
 40
1.7584101032937851
 50
58.266789145462667
 51
124.84581292250201
  0
ARC
  5
D60
  8
0
 10
13.73841433377552
 20
5.040339461037977
 30
0.0
 40
2.282256381398823
 50
6.7510708454240289
 51
58.266789145462681
  0
ARC
  5
D61
  8
0
 10
10.6608614923353
 20
4.6760287537813889
 30
0.0
 40
5.3812971657833257
 50
359.98516338464071
 51
6.7510708454240476
  0
LINE
  5
D62
  8
0
 10
18.072051826031849
 20
5.959954503223357
 30
0.0
 11
18.790743925226419
 21
7.9345448179202593
 31
0.0
  0
LINE
  5
D63
  8
0
 10
18.062988723010449
 20
6.4847290593577682
 30
0.0
 11
18.614081712781651
 21
7.9988446047495971
 31
0.0
  0
LINE
  5
D64
  8
0
 10
18.599085717400001
 20
8.0043027007000003
 30
0.0
 11
18.805739920800001
 21
7.9290867219000001
 31
0.0
  0
ARC
  5
D65
  8
0
 10
19.411553345979272
 20
7.4244692928051244
 30
0.0
 40
0.7884469898945407
 50
116.9576043274793
 51
140.20710653824301
  0
LINE
  5
D66
  8
0
 10
19.05412582011893
 20
8.1272453735243797
 30
0.0
 11
19.074323860100002
 21
8.1827390321999953
 31
0.0
  0
ARC
  5
D67
  8
0
 10
18.62162065928835
 20
7.7447200764174067
 30
0.0
 40
0.6299212598809376
 50
44.05552023017519
 51
95.944479769925849
  0
LINE
  5
D68
  8
0
 10
18.55638304545376
 20
8.3712540718168285
 30
0.0
 11
18.536185005493898
 21
8.3157604131022183
 31
0.0
  0
ARC
  5
D69
  8
0
 10
17.811651309815289
 20
8.0074551042200852
 30
0.0
 40
0.7874015745847939
 50
359.77164792907581
 51
23.05083878563001
  0
LINE
  5
D6A
  8
0
 10
18.556383045499999
 20
8.3712540717999993
 30
0.0
 11
19.074323859963641
 21
8.1827390318253581
 31
0.0
  0
LINE
  5
D6B
  8
0
 10
19.054125820108879
 20
8.1272453734967698
 30
0.0
 11
18.536185005636352
 21
8.3157604134746421
 31
0.0
  0
LINE
  5
E35
  8
0
 10
18.06119679795647
 20
4.8268459427648391
 30
0.0
 11
18.043082929805848
 21
4.6733538263980101
 31
0.0
  0
ATTDEF
  5
FD8
  8
DEFPOINTS
 10
17.039920052624879
 20
3.778012372500029
 30
0.0
 40
0.001
  1
METAL
  3

  2
MATERIAL
 70
     0
1001
AcDbAttr
1070
     0
1070
     1
  0
ATTDEF
  5
FD9
  8
DEFPOINTS
 10
17.039920052624879
 20
3.7796790391667008
 30
0.0
 40
0.001
  1
BATHROOM SINK FAUCET
  3

  2
PRODUCT
 70
     0
1001
AcDbAttr
1070
     0
1070
     1
  0
ATTDEF
  5
FDA
  8
DEFPOINTS
 10
17.039920052624879
 20
3.7813457058333659
 30
0.0
 40
0.001
  1
FAIRFAX
  3

  2
TRADENAME
 70
     0
1001
AcDbAttr
1070
     0
1070
     1
  0
ATTDEF
  5
FDB
  8
DEFPOINTS
 10
17.039920052624879
 20
3.7830123725000311
 30
0.0
 40
0.001
  1
K-12182
  3

  2
MODELNUMBER
 70
     0
1001
AcDbAttr
1070
     0
1070
     1
  0
ENDSEC
  0
EOF
