  0
SECTION
  2
HEADER
  9
$ACADVER
  1
AC1009
  9
$INSBASE
 10
725.68529605411447
 20
145.66468894449119
 30
0.0
  9
$EXTMIN
 10
724.43529605411459
 20
145.65811120139679
 30
0.0
  9
$EXTMAX
 10
734.68702648283318
 20
152.6186889444912
 30
0.0
  9
$LIMMIN
 10
0.0
 20
0.0
  9
$LIMMAX
 10
11.692913385800001
 20
8.2677165353999982
  9
$ORTHOMODE
 70
     1
  9
$REGENMODE
 70
     1
  9
$FILLMODE
 70
     1
  9
$QTEXTMODE
 70
     0
  9
$MIRRTEXT
 70
     0
  9
$DRAGMODE
 70
     2
  9
$LTSCALE
 40
0.6431102362
  9
$OSMODE
 70
  3071
  9
$ATTMODE
 70
     1
  9
$TEXTSIZE
 40
0.2
  9
$TRACEWID
 40
0.05
  9
$TEXTSTYLE
  7
STANDARD
  9
$CLAYER
  8
0
  9
$CELTYPE
  6
BYLAYER
  9
$CECOLOR
 62
   256
  9
$DIMSCALE
 40
1.0
  9
$DIMASZ
 40
0.1875
  9
$DIMEXO
 40
0.0625
  9
$DIMDLI
 40
0.4443307087
  9
$DIMRND
 40
0.0
  9
$DIMDLE
 40
0.0
  9
$DIMEXE
 40
0.125
  9
$DIMTP
 40
0.01
  9
$DIMTM
 40
0.01
  9
$DIMTXT
 40
2.0
  9
$DIMCEN
 40
0.1052362205
  9
$DIMTSZ
 40
0.0
  9
$DIMTOL
 70
     1
  9
$DIMLIM
 70
     0
  9
$DIMTIH
 70
     1
  9
$DIMTOH
 70
     1
  9
$DIMSE1
 70
     0
  9
$DIMSE2
 70
     0
  9
$DIMTAD
 70
     0
  9
$DIMZIN
 70
     0
  9
$DIMBLK
  1

  9
$DIMASO
 70
     1
  9
$DIMSHO
 70
     1
  9
$DIMPOST
  1
\X
  9
$DIMAPOST
  1

  9
$DIMALT
 70
     1
  9
$DIMALTD
 70
     2
  9
$DIMALTF
 40
25.399999999999999
  9
$DIMLFAC
 40
1.0
  9
$DIMTOFL
 70
     0
  9
$DIMTVP
 40
0.0
  9
$DIMTIX
 70
     0
  9
$DIMSOXD
 70
     0
  9
$DIMSAH
 70
     0
  9
$DIMBLK1
  1

  9
$DIMBLK2
  1

  9
$DIMSTYLE
  2
STANDARD
  9
$DIMCLRD
 70
     0
  9
$DIMCLRE
 70
     0
  9
$DIMCLRT
 70
     0
  9
$DIMTFAC
 40
1.0
  9
$DIMGAP
 40
0.09
  9
$LUNITS
 70
     2
  9
$LUPREC
 70
     4
  9
$SKETCHINC
 40
0.1
  9
$FILLETRAD
 40
0.0
  9
$AUNITS
 70
     0
  9
$AUPREC
 70
     0
  9
$MENU
  1
.
  9
$ELEVATION
 40
0.0
  9
$PELEVATION
 40
0.0
  9
$THICKNESS
 40
0.0
  9
$LIMCHECK
 70
     0
  9
$BLIPMODE
 70
     0
  9
$CHAMFERA
 40
0.0
  9
$CHAMFERB
 40
0.0
  9
$SKPOLY
 70
     0
  9
$TDCREATE
 40
2458060.4683680669
  9
$TDUPDATE
 40
2458507.7533592358
  9
$TDINDWG
 40
0.2645143171
  9
$TDUSRTIMER
 40
0.2645143171
  9
$USRTIMER
 70
     1
  9
$ANGBASE
 50
0.0
  9
$ANGDIR
 70
     0
  9
$PDMODE
 70
     0
  9
$PDSIZE
 40
0.3125
  9
$PLINEWID
 40
0.0
  9
$COORDS
 70
     1
  9
$SPLFRAME
 70
     0
  9
$SPLINETYPE
 70
     6
  9
$SPLINESEGS
 70
     8
  9
$ATTDIA
 70
     1
  9
$ATTREQ
 70
     1
  9
$HANDLING
 70
     1
  9
$HANDSEED
  5
517C
  9
$SURFTAB1
 70
     6
  9
$SURFTAB2
 70
     6
  9
$SURFTYPE
 70
     6
  9
$SURFU
 70
     6
  9
$SURFV
 70
     6
  9
$UCSNAME
  2

  9
$UCSORG
 10
0.0
 20
0.0
 30
0.0
  9
$UCSXDIR
 10
1.0
 20
0.0
 30
0.0
  9
$UCSYDIR
 10
0.0
 20
1.0
 30
0.0
  9
$PUCSNAME
  2

  9
$PUCSORG
 10
0.0
 20
0.0
 30
0.0
  9
$PUCSXDIR
 10
1.0
 20
0.0
 30
0.0
  9
$PUCSYDIR
 10
0.0
 20
1.0
 30
0.0
  9
$USERI1
 70
     0
  9
$USERI2
 70
     0
  9
$USERI3
 70
     0
  9
$USERI4
 70
     0
  9
$USERI5
 70
     0
  9
$USERR1
 40
0.0
  9
$USERR2
 40
0.0
  9
$USERR3
 40
0.0
  9
$USERR4
 40
0.0
  9
$USERR5
 40
0.0
  9
$WORLDVIEW
 70
     1
  9
$SHADEDGE
 70
     3
  9
$SHADEDIF
 70
    70
  9
$TILEMODE
 70
     1
  9
$MAXACTVP
 70
    64
  9
$PLIMCHECK
 70
     0
  9
$PEXTMIN
 10
1.0000000000000000E+020
 20
1.0000000000000000E+020
 30
1.0000000000000000E+020
  9
$PEXTMAX
 10
-1.0000000000000000E+020
 20
-1.0000000000000000E+020
 30
-1.0000000000000000E+020
  9
$PLIMMIN
 10
0.0
 20
0.0
  9
$PLIMMAX
 10
12.0
 20
9.0
  9
$UNITMODE
 70
     0
  9
$VISRETAIN
 70
     1
  9
$PLINEGEN
 70
     0
  9
$PSLTSCALE
 70
     1
  0
ENDSEC
  0
SECTION
  2
TABLES
  0
TABLE
  2
VPORT
 70
     1
  0
VPORT
  2
*ACTIVE
 70
     0
 10
0.0
 20
0.0
 11
1.0
 21
1.0
 12
0.0
 22
0.0
 13
0.0
 23
0.0
 14
1.0
 24
1.0
 15
0.0
 25
0.0
 16
0.0
 26
0.0
 36
35.864476728646508
 17
729.56116126847394
 27
149.13840007294399
 37
0.0
 40
12.39214349322982
 41
2.1758620689655168
 42
50.0
 43
0.0
 44
0.0
 50
0.0
 51
0.0
 71
     0
 72
   100
 73
     1
 74
     1
 75
     0
 76
     0
 77
     0
 78
     0
  0
ENDTAB
  0
TABLE
  2
LTYPE
 70
     2
  0
LTYPE
  2
CONTINUOUS
 70
     0
  3
Solid line
 72
    65
 73
     0
 40
0.0
  0
LTYPE
  2
PHANTOM2
 70
     0
  3
___ _ _ ___ _ _ ___ _ _ ___ _ _
 72
    65
 73
     6
 40
1.25
 49
0.625
 49
-0.125
 49
0.125
 49
-0.125
 49
0.125
 49
-0.125
  0
ENDTAB
  0
TABLE
  2
LAYER
 70
     2
  0
LAYER
  2
0
 70
     0
 62
   255
  6
CONTINUOUS
  0
LAYER
  2
DEFPOINTS
 70
     0
 62
     7
  6
CONTINUOUS
  0
ENDTAB
  0
TABLE
  2
STYLE
 70
     1
  0
STYLE
  2
STANDARD
 70
     0
 40
0.0
 41
0.8
 50
0.0
 71
     0
 42
0.2
  3
txt
  4

  0
ENDTAB
  0
TABLE
  2
VIEW
 70
     0
  0
ENDTAB
  0
TABLE
  2
UCS
 70
     0
  0
ENDTAB
  0
TABLE
  2
APPID
 70
     9
  0
APPID
  2
ACAD
 70
     0
  0
APPID
  2
ACAD_MLEADERVER
 70
     0
  0
APPID
  2
ACAD_EXEMPT_FROM_CAD_STANDARDS
 70
     0
  0
APPID
  2
ACAD_NAV_VCDISPLAY
 70
     0
  0
APPID
  2
ACAECLAYERSTANDARD
 70
     0
  0
APPID
  2
ACCMTRANSPARENCY
 70
     0
  0
APPID
  2
ACAD_DSTYLE_DIMJAG
 70
     0
  0
APPID
  2
ACAD_DSTYLE_DIMTALN
 70
     0
  0
APPID
  2
ACDBATTR
 70
     0
  0
ENDTAB
  0
TABLE
  2
DIMSTYLE
 70
     1
  0
DIMSTYLE
  2
STANDARD
 70
     0
  3

  4

  5

  6

  7

 40
1.0
 41
0.1875
 42
0.0625
 43
0.38
 44
0.125
 45
0.0
 46
0.0
 47
0.01
 48
0.01
140
0.15625
141
0.09
142
0.0
143
25.399999999999999
144
1.0
145
0.0
146
1.0
147
0.09
 71
     1
 72
     0
 73
     1
 74
     1
 75
     0
 76
     0
 77
     0
 78
     4
170
     0
171
     2
172
     0
173
     0
174
     0
175
     0
176
     0
177
     0
178
     0
  0
ENDTAB
  0
ENDSEC
  0
SECTION
  2
BLOCKS
  0
BLOCK
  8
0
  2
$MODEL_SPACE
 70
     0
 10
0.0
 20
0.0
 30
0.0
  3
$MODEL_SPACE
  1

  0
ENDBLK
  5
21
  8
0
  0
BLOCK
 67
     1
  8
0
  2
$PAPER_SPACE
 70
     0
 10
0.0
 20
0.0
 30
0.0
  3
$PAPER_SPACE
  1

  0
ENDBLK
  5
1D
 67
     1
  8
0
  0
ENDSEC
  0
SECTION
  2
ENTITIES
  0
ATTDEF
  5
3930
  8
DEFPOINTS
 10
725.67963974862369
 20
145.66311120139679
 30
0.0
 40
0.001
  1
K-12176
  3

  2
MODELNUMBER
 70
     0
1001
ACDBATTR
1070
     0
1070
     1
  0
ATTDEF
  5
3931
  8
DEFPOINTS
 10
725.67963974862369
 20
145.66144453473021
 30
0.0
 40
0.001
  1
FAIRFAX
  3

  2
TRADENAME
 70
     0
1001
ACDBATTR
1070
     0
1070
     1
  0
ATTDEF
  5
3932
  8
DEFPOINTS
 10
725.67963974862369
 20
145.65977786806349
 30
0.0
 40
0.001
  1
KITCHEN SINK FAUCET
  3

  2
PRODUCT
 70
     0
1001
ACDBATTR
1070
     0
1070
     1
  0
ATTDEF
  5
3933
  8
DEFPOINTS
 10
725.67963974862369
 20
145.65811120139679
 30
0.0
 40
0.001
  1
METAL
  3

  2
MATERIAL
 70
     0
1001
ACDBATTR
1070
     0
1070
     1
  0
LINE
  5
4F37
  8
0
 10
724.43529605411459
 20
145.71668894449121
 30
0.0
 11
724.43529605411459
 21
145.66468894449119
 31
0.0
  0
LINE
  5
4F38
  8
0
 10
724.43529605411459
 20
145.66468894449119
 30
0.0
 11
726.93529605411447
 21
145.66468894449119
 31
0.0
  0
LINE
  5
4F39
  8
0
 10
724.49529605411465
 20
145.77668894449121
 30
0.0
 11
726.87529605411464
 21
145.77668894449121
 31
0.0
  0
ARC
  5
4F3A
  8
0
 10
724.30538989370496
 20
146.3046889443518
 30
0.0
 40
0.379999999206745
 50
323.82792646624728
 51
358.7266556569549
  0
ARC
  5
4F3B
  8
0
 10
724.91889843611455
 20
145.8561276138912
 30
0.0
 40
0.38
 50
143.8279265228002
 51
184.64789696560061
  0
ARC
  5
4F3C
  8
0
 10
724.75527876796593
 20
146.29468894461061
 30
0.0
 40
0.0699999998806247
 50
89.999999960161745
 51
178.72665573411351
  0
ARC
  5
4F3D
  8
0
 10
724.49529605411465
 20
145.71668894449121
 30
0.0
 40
0.06
 50
90.0
 51
180.0
  0
ARC
  5
4F3E
  8
0
 10
724.49529605411465
 20
145.8216889444912
 30
0.0
 40
0.045
 50
270.0
 51
4.6478969656005944
  0
LINE
  5
4F3F
  8
0
 10
724.69529605433331
 20
146.56468894449119
 30
0.0
 11
724.68529605433332
 21
146.57468894449119
 31
0.0
  0
LINE
  5
4F40
  8
0
 10
732.72357388793318
 20
145.66468894449119
 30
0.0
 11
734.64702648283333
 21
145.66468894449119
 31
0.0
  0
LINE
  5
4F41
  8
0
 10
732.71736152533333
 20
145.84825766186219
 30
0.0
 11
734.65323884543329
 21
145.84825766186219
 31
0.0
  0
LINE
  5
4F42
  8
0
 10
734.35553028343315
 20
145.96552818316209
 30
0.0
 11
733.01507008733336
 21
145.96552818316209
 31
0.0
  0
LINE
  5
4F43
  8
0
 10
724.68529605433332
 20
149.79968894449121
 30
0.0
 11
724.68529605433332
 21
146.57468894449119
 31
0.0
  0
LINE
  5
4F44
  8
0
 10
724.64029605433325
 20
146.36468894449121
 30
0.0
 11
726.73029605389593
 21
146.36468894449121
 31
0.0
  0
LINE
  5
4F45
  8
0
 10
725.18529605433332
 20
152.1186889444912
 30
0.0
 11
725.18529605433332
 21
150.83812570719121
 31
0.0
  0
LINE
  5
4F46
  8
0
 10
725.18529605433332
 20
147.6340909919912
 30
0.0
 11
725.18529605433332
 21
150.41231859099119
 31
0.0
  0
LINE
  5
4F47
  8
0
 10
724.70129605433317
 20
149.8156889444912
 30
0.0
 11
724.68529605433332
 21
149.79968894449121
 31
0.0
  0
LINE
  5
4F48
  8
0
 10
726.73029605389593
 20
146.56468894449119
 30
0.0
 11
724.64029605433325
 21
146.56468894449119
 31
0.0
  0
LINE
  5
4F49
  8
0
 10
733.07495275333315
 20
146.71468894446221
 30
0.0
 11
734.29564761743325
 21
146.71468894446221
 31
0.0
  0
LINE
  5
4F4A
  8
0
 10
725.3786435874332
 20
150.4903365832912
 30
0.0
 11
725.34702899783315
 21
150.5970281777912
 31
0.0
  0
LINE
  5
4F4B
  8
0
 10
725.18529605433332
 20
149.8156889444912
 30
0.0
 11
724.70129605433317
 21
149.8156889444912
 31
0.0
  0
LINE
  5
4F4C
  8
0
 10
725.18529605433332
 20
150.36518448859121
 30
0.0
 11
724.61459559613331
 21
150.36518448859121
 31
0.0
  0
LINE
  5
4F4D
  8
0
 10
725.18529605433332
 20
151.4792801280912
 30
0.0
 11
724.99779682443329
 21
151.4792801280912
 31
0.0
  0
LINE
  5
4F4E
  8
0
 10
725.13709125123319
 20
151.7586125988912
 30
0.0
 11
725.18529605433332
 21
151.7586125988912
 31
0.0
  0
LINE
  5
4F4F
  8
0
 10
725.16119365278325
 20
151.7586125988912
 30
0.0
 11
725.13030103448943
 21
151.7591587785727
 31
0.0
  0
LINE
  5
4F50
  8
0
 10
733.01507008733336
 20
145.96552818316209
 30
0.0
 11
732.71736152533333
 21
145.84825766186219
 31
0.0
  0
LINE
  5
4F51
  8
0
 10
733.17529675873334
 20
150.91661462016219
 30
0.0
 11
733.1780879159495
 21
150.80558433415999
 31
0.0
  0
LINE
  5
4F52
  8
0
 10
733.03159390523331
 20
150.92109044586209
 30
0.0
 11
733.03159390523331
 21
150.60893557386211
 31
0.0
  0
LINE
  5
4F53
  8
0
 10
733.06462201333318
 20
146.69538693436209
 30
0.0
 11
733.04038567133318
 21
146.00134890596209
 31
0.0
  0
LINE
  5
4F54
  8
0
 10
732.7049953948333
 20
145.83312227406219
 30
0.0
 11
732.68418157781275
 21
145.71163487156869
 31
0.0
  0
ARC
  5
4F55
  8
0
 10
724.64029605433325
 20
146.4646889444912
 30
0.0
 40
0.1
 50
90.0
 51
270.0
  0
ARC
  5
4F56
  8
0
 10
725.68529608292533
 20
150.23968894148641
 30
0.0
 40
0.9400000287372039
 50
172.32776797170951
 51
179.02470195177219
  0
ARC
  5
4F57
  8
0
 10
725.68883806755605
 20
152.11514693127
 30
0.0
 40
0.5035544706762679
 50
90.403023121703157
 51
179.5969769033527
  0
ARC
  5
4F58
  8
0
 10
725.13708705785803
 20
151.59879056177439
 30
0.0
 40
0.1598220371717542
 50
89.998496685991384
 51
228.39774270555111
  0
ARC
  5
4F59
  8
0
 10
724.61459559613331
 20
150.39518448859121
 30
0.0
 40
0.03
 50
215.3209208657986
 51
270.0
  0
ARC
  5
4F5A
  8
0
 10
728.24492518083332
 20
150.19611447639119
 30
0.0
 40
3.5
 50
179.0247046544998
 51
186.2399787595231
  0
ARC
  5
4F5B
  8
0
 10
733.00041003823333
 20
146.0027448858622
 30
0.0
 40
0.04
 50
291.49999999999818
 51
357.99999999999949
  0
ARC
  5
4F5C
  8
0
 10
732.78219818013122
 20
145.69985201624621
 30
0.0
 40
0.0987222872992908
 50
173.14520448317421
 51
177.44689815109541
  0
ARC
  5
4F5D
  8
0
 10
732.72575243614074
 20
145.70689412441641
 30
0.0
 40
0.0422613687049376
 50
183.5876140723249
 51
267.04512726284207
  0
ARC
  5
4F5E
  8
0
 10
733.08482014544268
 20
146.6946016855
 30
0.0
 40
0.0202133905659893
 50
96.404070400416515
 51
177.77361587403499
  0
ARC
  5
4F5F
  8
0
 10
732.72469154993325
 20
145.82964931056219
 30
0.0
 40
0.02
 50
111.5000000001028
 51
169.99999999999969
  0
ARC
  5
4F60
  8
0
 10
733.07495275333315
 20
146.73468894446211
 30
0.0
 40
0.02
 50
180.96236188569921
 51
270.0
  0
ARC
  5
4F61
  8
0
 10
725.31042468544888
 20
151.75944676167299
 30
0.0
 40
0.1801238811301437
 50
134.00179949603131
 51
180.09160485598031
  0
ARC
  5
4F62
  8
0
 10
724.99872978553356
 20
151.41551443180609
 30
0.0
 40
0.0637725210347747
 50
90.838239410450086
 51
233.6625265467427
  0
ARC
  5
4F63
  8
0
 10
724.80952376745086
 20
151.17822675361231
 30
0.0
 40
0.2397756342906999
 50
21.613400617976669
 51
50.839146279016802
  0
ARC
  5
4F64
  8
0
 10
724.86653543131433
 20
151.2209206412808
 30
0.0
 40
0.1720648228515068
 50
300.91423779315193
 51
15.37675081018571
  0
ARC
  5
4F65
  8
0
 10
743.68723275745435
 20
121.0025685741609
 30
0.0
 40
35.42806621099443
 50
121.9204803102233
 51
122.5260966506688
  0
ARC
  5
4F66
  8
0
 10
724.80963076598755
 20
150.60614013810991
 30
0.0
 40
0.3177366770562806
 50
122.66515576206081
 51
178.1651518844792
  0
ARC
  5
4F67
  8
0
 10
724.90978150885246
 20
150.6486843098086
 30
0.0
 40
0.4189768775364424
 50
184.43115805928841
 51
220.27392065211711
  0
ARC
  5
4F68
  8
0
 10
725.73028827162966
 20
149.59427786667459
 30
0.0
 40
1.3879049624106721
 50
91.857703491699183
 51
104.47841445093231
  0
ARC
  5
4F69
  8
0
 10
725.55125668858966
 20
150.35943602697299
 30
0.0
 40
0.6025537285361203
 50
106.1860078215832
 51
127.39809175991491
  0
ARC
  5
4F6A
  8
0
 10
725.35038096601693
 20
150.61144951367751
 30
0.0
 40
0.2804195513358749
 50
126.06529619550589
 51
177.18866539928891
  0
ARC
  5
4F6B
  8
0
 10
725.34574388741294
 20
150.6364923366414
 30
0.0
 40
0.2756762147498085
 50
182.34692748434929
 51
234.40757181436459
  0
ARC
  5
4F6C
  8
0
 10
725.56309775444481
 20
150.90793799635159
 30
0.0
 40
0.6231955708900624
 50
232.68238244599129
 51
257.9976981495534
  0
ARC
  5
4F6D
  8
0
 10
725.74825079157006
 20
151.90035722624381
 30
0.0
 40
1.632618091196482
 50
258.88453811670291
 51
267.79009232376461
  0
ARC
  5
4F6E
  8
0
 10
725.64084945692798
 20
150.8592411441409
 30
0.0
 40
0.5025304834364538
 50
245.3511796712981
 51
265.43548806756621
  0
ARC
  5
4F6F
  8
0
 10
725.70128514797943
 20
151.28535306968459
 30
0.0
 40
0.9324724064775345
 50
263.81721828116378
 51
269.01750176361418
  0
ARC
  5
4F70
  8
0
 10
725.51657013681745
 20
150.6176733368834
 30
0.0
 40
0.2314648776483643
 50
214.384270573451
 51
248.3744884093334
  0
ARC
  5
4F71
  8
0
 10
725.41750774144577
 20
150.5421411248148
 30
0.0
 40
0.1072462245478962
 50
128.3207141783052
 51
210.96851842030509
  0
ARC
  5
4F72
  8
0
 10
725.59810461555946
 20
150.33699691469531
 30
0.0
 40
0.3804498255453245
 50
101.8607346652237
 51
130.50274554490861
  0
ARC
  5
4F73
  8
0
 10
725.68289794913369
 20
150.02690013781711
 30
0.0
 40
0.7016179969040604
 50
89.804164713025656
 51
103.4327451425593
  0
ARC
  5
4F74
  8
0
 10
725.70454136390902
 20
151.08691653791081
 30
0.0
 40
0.7291174923979708
 50
255.97658183546051
 51
268.48748230581867
  0
ARC
  5
4F75
  8
0
 10
725.60796453564774
 20
150.67709321990071
 30
0.0
 40
0.308156941733367
 50
232.28761006420331
 51
254.9335975204348
  0
ARC
  5
4F76
  8
0
 10
725.49506384500125
 20
150.5305556457123
 30
0.0
 40
0.1231716256070115
 50
199.0582124678115
 51
232.13782135535141
  0
ARC
  5
4F77
  8
0
 10
725.43781737681695
 20
150.5685012743665
 30
0.0
 40
0.0980370148511653
 50
181.0255052085439
 51
232.87282551797051
  0
ARC
  5
4F78
  8
0
 10
725.40888558269853
 20
150.5662487644465
 30
0.0
 40
0.069091311878005
 50
153.5453765556307
 51
179.58710500130451
  0
ARC
  5
4F79
  8
0
 10
725.49742817355684
 20
150.5106049549845
 30
0.0
 40
0.1734614813110239
 50
115.7577436600496
 51
150.11722039062741
  0
ARC
  5
4F7A
  8
0
 10
725.62967691263259
 20
150.27325496655541
 30
0.0
 40
0.4449856434580817
 50
102.3344310691527
 51
117.8136852642638
  0
ARC
  5
4F7B
  8
0
 10
725.68326696020472
 20
150.04789933676281
 30
0.0
 40
0.6766003640156476
 50
89.828172289402545
 51
102.6912103512161
  0
ARC
  5
4F7C
  8
0
 10
725.45593063543049
 20
150.51321506934781
 30
0.0
 40
0.0806021892529039
 50
152.15596358662779
 51
196.48978965536429
  0
ARC
  5
4F7D
  8
0
 10
725.54606610303017
 20
150.45132658323081
 30
0.0
 40
0.1896286725750328
 50
110.94977348567819
 51
148.33885473489471
  0
ARC
  5
4F7E
  8
0
 10
725.6622571404522
 20
150.20103575277631
 30
0.0
 40
0.4653067167936801
 50
96.580900503686863
 51
113.29231535242521
  0
ARC
  5
4F7F
  8
0
 10
725.68497106672817
 20
150.0603996198231
 30
0.0
 40
0.6076535501736564
 50
89.969356870334636
 51
97.188755572309816
  0
ARC
  5
4F80
  8
0
 10
725.71318845591281
 20
151.08984809301421
 30
0.0
 40
0.7155888150898861
 50
255.85279486659539
 51
267.76614472210082
  0
ARC
  5
4F81
  8
0
 10
725.59814310355875
 20
150.62143926849319
 30
0.0
 40
0.2332860742898701
 50
224.42969636241011
 51
255.13327393972699
  0
ARC
  5
4F82
  8
0
 10
725.48950191395727
 20
150.5140781889107
 30
0.0
 40
0.0805503103485382
 50
175.18104786401739
 51
223.99214281115121
  0
ARC
  5
4F83
  8
0
 10
725.50415867294225
 20
150.50541473733469
 30
0.0
 40
0.0961683056094015
 50
129.74210389575271
 51
170.76693879980451
  0
ARC
  5
4F84
  8
0
 10
725.61426181146328
 20
150.3729885664759
 30
0.0
 40
0.2683873284776576
 50
104.205212074841
 51
129.74150064573149
  0
ARC
  5
4F85
  8
0
 10
725.67836200910483
 20
150.16753887181949
 30
0.0
 40
0.4834270783676969
 50
94.350817819312823
 51
105.594848670058
  0
ARC
  5
4F86
  8
0
 10
725.68523957011996
 20
150.10232154466681
 30
0.0
 40
0.5489815413301955
 50
89.994104911968421
 51
94.550175662884868
  0
ARC
  5
4F87
  8
0
 10
725.74466607914655
 20
151.38301465999251
 30
0.0
 40
0.9943970320950532
 50
258.8712799818519
 51
266.57714580514153
  0
ARC
  5
4F88
  8
0
 10
725.63220091789526
 20
150.7136575300074
 30
0.0
 40
0.3164806919847027
 50
239.10490318536191
 51
255.4575896740358
  0
ARC
  5
4F89
  8
0
 10
725.51695668367802
 20
150.54094855100311
 30
0.0
 40
0.1095802210126939
 50
190.57133267013941
 51
244.4519575459436
  0
ARC
  5
4F8A
  8
0
 10
725.70873791876306
 20
147.66894108996911
 30
0.0
 40
0.524600719373251
 50
183.8090590711663
 51
267.43887638193968
  0
LINE
  5
4F8B
  8
0
 10
724.68529605433332
 20
149.79968894449121
 30
0.0
 11
725.18529605433332
 21
149.79968894449121
 31
0.0
  0
LINE
  5
4F8C
  8
0
 10
726.67529605389586
 20
146.56468894449119
 30
0.0
 11
726.68529605389585
 21
146.57468894449119
 31
0.0
  0
LINE
  5
4F8D
  8
0
 10
726.68529605389585
 20
149.79968894449121
 30
0.0
 11
726.68529605389585
 21
146.57468894449119
 31
0.0
  0
LINE
  5
4F8E
  8
0
 10
726.18529605389585
 20
152.1186889444912
 30
0.0
 11
726.18529605389585
 21
150.83812570719121
 31
0.0
  0
LINE
  5
4F8F
  8
0
 10
726.18529605389585
 20
147.6340909919912
 30
0.0
 11
726.18529605389585
 21
150.41231859099119
 31
0.0
  0
LINE
  5
4F90
  8
0
 10
726.66929605389601
 20
149.8156889444912
 30
0.0
 11
726.68529605389585
 21
149.79968894449121
 31
0.0
  0
LINE
  5
4F91
  8
0
 10
725.99194852079597
 20
150.4903365832912
 30
0.0
 11
726.02356311039591
 21
150.5970281777912
 31
0.0
  0
LINE
  5
4F92
  8
0
 10
726.18529605389585
 20
149.8156889444912
 30
0.0
 11
726.66929605389601
 21
149.8156889444912
 31
0.0
  0
LINE
  5
4F93
  8
0
 10
726.18529605389585
 20
150.36518448859121
 30
0.0
 11
726.75599651209586
 21
150.36518448859121
 31
0.0
  0
LINE
  5
4F94
  8
0
 10
726.18529605389585
 20
151.4792801280912
 30
0.0
 11
726.37279528379588
 21
151.4792801280912
 31
0.0
  0
LINE
  5
4F95
  8
0
 10
726.23350085699599
 20
151.7586125988912
 30
0.0
 11
726.18529605389585
 21
151.7586125988912
 31
0.0
  0
LINE
  5
4F96
  8
0
 10
726.20939845544603
 20
151.7586125988912
 30
0.0
 11
726.24029107373985
 21
151.7591587785727
 31
0.0
  0
ARC
  5
4F97
  8
0
 10
726.73029605389593
 20
146.4646889444912
 30
0.0
 40
0.1
 50
270.0
 51
90.0
  0
ARC
  5
4F98
  8
0
 10
725.68529602530396
 20
150.23968894148641
 30
0.0
 40
0.9400000287372039
 50
0.9752980482277349
 51
7.6722320282904892
  0
ARC
  5
4F99
  8
0
 10
725.68175404067324
 20
152.11514693127
 30
0.0
 40
0.5035544706762679
 50
0.4030230966489579
 51
89.596976878296829
  0
ARC
  5
4F9A
  8
0
 10
726.23350505037115
 20
151.59879056177439
 30
0.0
 40
0.1598220371717542
 50
311.6022572944488
 51
90.001503314008616
  0
ARC
  5
4F9B
  8
0
 10
726.75599651209586
 20
150.39518448859121
 30
0.0
 40
0.03
 50
270.0
 51
324.67907913420009
  0
ARC
  5
4F9C
  8
0
 10
723.12566692739586
 20
150.19611447639119
 30
0.0
 40
3.5
 50
353.76002124047687
 51
0.9752953455001986
  0
ARC
  5
4F9D
  8
0
 10
726.06016742278052
 20
151.75944676167299
 30
0.0
 40
0.1801238811301437
 50
359.90839514401972
 51
45.998200503968711
  0
ARC
  5
4F9E
  8
0
 10
726.37186232269573
 20
151.41551443180609
 30
0.0
 40
0.0637725210347747
 50
306.3374734532573
 51
89.161760589549914
  0
ARC
  5
4F9F
  8
0
 10
726.56106834077843
 20
151.17822675361231
 30
0.0
 40
0.2397756342906999
 50
129.1608537209832
 51
158.38659938202329
  0
ARC
  5
4FA0
  8
0
 10
726.50405667691496
 20
151.2209206412808
 30
0.0
 40
0.1720648228515068
 50
164.62324918981429
 51
239.0857622068481
  0
ARC
  5
4FA1
  8
0
 10
707.68335935077482
 20
121.0025685741609
 30
0.0
 40
35.42806621099443
 50
57.473903349331209
 51
58.079519689776717
  0
ARC
  5
4FA2
  8
0
 10
726.56096134224163
 20
150.60614013810991
 30
0.0
 40
0.3177366770562658
 50
1.8348481155207861
 51
57.334844237944679
  0
ARC
  5
4FA3
  8
0
 10
726.46081059937683
 20
150.6486843098086
 30
0.0
 40
0.418976877536433
 50
319.72607934788289
 51
355.56884194071318
  0
ARC
  5
4FA4
  8
0
 10
725.81933541963951
 20
150.35943602697299
 30
0.0
 40
0.6025537285361203
 50
52.601908240085038
 51
73.813992178416783
  0
ARC
  5
4FA5
  8
0
 10
726.02021114221225
 20
150.61144951367751
 30
0.0
 40
0.2804195513358749
 50
2.8113346007111071
 51
53.934703804494113
  0
ARC
  5
4FA6
  8
0
 10
726.02484822081635
 20
150.6364923366414
 30
0.0
 40
0.2756762147498085
 50
305.59242818564059
 51
357.65307251565071
  0
ARC
  5
4FA7
  8
0
 10
725.80749435378436
 20
150.90793799635159
 30
0.0
 40
0.6231955708900624
 50
282.00230185044649
 51
307.31761755400868
  0
ARC
  5
4FA8
  8
0
 10
725.622341316659
 20
151.90035722624381
 30
0.0
 40
1.632618091196482
 50
272.20990767623539
 51
281.1154618832972
  0
ARC
  5
4FA9
  8
0
 10
725.72974265130119
 20
150.8592411441409
 30
0.0
 40
0.5025304834364538
 50
274.56451193243379
 51
294.64882032870202
  0
ARC
  5
4FAA
  8
0
 10
725.66930696024986
 20
151.28535306968459
 30
0.0
 40
0.9324724064775345
 50
270.98249823638582
 51
276.18278171883622
  0
ARC
  5
4FAB
  8
0
 10
725.85402197141173
 20
150.6176733368834
 30
0.0
 40
0.2314648776483643
 50
291.62551159066658
 51
325.61572942654902
  0
ARC
  5
4FAC
  8
0
 10
725.9530843667834
 20
150.5421411248148
 30
0.0
 40
0.1072462245478962
 50
329.03148157969491
 51
51.679285821694762
  0
ARC
  5
4FAD
  8
0
 10
725.77248749266982
 20
150.33699691469531
 30
0.0
 40
0.3804498255453245
 50
49.497254455091401
 51
78.13926533477624
  0
ARC
  5
4FAE
  8
0
 10
725.6876941590956
 20
150.02690013781711
 30
0.0
 40
0.7016179969040604
 50
76.56725485744073
 51
90.195835286974344
  0
ARC
  5
4FAF
  8
0
 10
725.66605074432027
 20
151.08691653791081
 30
0.0
 40
0.7291174923979708
 50
271.51251769418133
 51
284.02341816453952
  0
ARC
  5
4FB0
  8
0
 10
725.76262757258155
 20
150.67709321990071
 30
0.0
 40
0.308156941733367
 50
285.06640247956523
 51
307.71238993579669
  0
ARC
  5
4FB1
  8
0
 10
725.87552826322803
 20
150.5305556457123
 30
0.0
 40
0.1231716256070115
 50
307.86217864464868
 51
340.94178753218853
  0
ARC
  5
4FB2
  8
0
 10
725.93277473141234
 20
150.5685012743665
 30
0.0
 40
0.0980370148511653
 50
307.12717448202937
 51
358.9744947914561
  0
ARC
  5
4FB3
  8
0
 10
725.96170652553064
 20
150.5662487644465
 30
0.0
 40
0.069091311878005
 50
0.4128949986954886
 51
26.454623444369311
  0
ARC
  5
4FB4
  8
0
 10
725.87316393467245
 20
150.5106049549845
 30
0.0
 40
0.1734614813110239
 50
29.882779609372619
 51
64.242256339950387
  0
ARC
  5
4FB5
  8
0
 10
725.74091519559659
 20
150.27325496655541
 30
0.0
 40
0.4449856434580817
 50
62.18631473573614
 51
77.665568930847243
  0
ARC
  5
4FB6
  8
0
 10
725.68732514802457
 20
150.04789933676281
 30
0.0
 40
0.6766003640156476
 50
77.3087896487839
 51
90.171827710597469
  0
ARC
  5
4FB7
  8
0
 10
725.91466147279868
 20
150.51321506934781
 30
0.0
 40
0.0806021892529039
 50
343.5102103446356
 51
27.844036413372208
  0
ARC
  5
4FB8
  8
0
 10
725.824526005199
 20
150.45132658323081
 30
0.0
 40
0.1896286725750328
 50
31.661145265105262
 51
69.050226514321821
  0
ARC
  5
4FB9
  8
0
 10
725.70833496777698
 20
150.20103575277631
 30
0.0
 40
0.4653067167936801
 50
66.70768464757478
 51
83.419099496313123
  0
ARC
  5
4FBA
  8
0
 10
725.68562104150124
 20
150.0603996198231
 30
0.0
 40
0.6076535501736564
 50
82.811244427690184
 51
90.030643129665364
  0
ARC
  5
4FBB
  8
0
 10
725.65740365231636
 20
151.08984809301421
 30
0.0
 40
0.7155888150898861
 50
272.23385527789918
 51
284.1472051334045
  0
ARC
  5
4FBC
  8
0
 10
725.77244900467042
 20
150.62143926849319
 30
0.0
 40
0.2332860742898701
 50
284.86672606027298
 51
315.57030363758992
  0
ARC
  5
4FBD
  8
0
 10
725.88109019427191
 20
150.5140781889107
 30
0.0
 40
0.0805503103485382
 50
316.00785718884867
 51
4.8189521359825749
  0
ARC
  5
4FBE
  8
0
 10
725.86643343528704
 20
150.50541473733469
 30
0.0
 40
0.0961683056094015
 50
9.2330612001955021
 51
50.257896104247251
  0
ARC
  5
4FBF
  8
0
 10
725.7563302967659
 20
150.3729885664759
 30
0.0
 40
0.2683873284776576
 50
50.258499354268473
 51
75.794787925158985
  0
ARC
  5
4FC0
  8
0
 10
725.69223009912446
 20
150.16753887181949
 30
0.0
 40
0.4834270783676969
 50
74.405151329942001
 51
85.649182180687177
  0
ARC
  5
4FC1
  8
0
 10
725.68535253810933
 20
150.10232154466681
 30
0.0
 40
0.5489815413301955
 50
85.449824337115103
 51
90.005895088031565
  0
ARC
  5
4FC2
  8
0
 10
725.62592602908273
 20
151.38301465999251
 30
0.0
 40
0.9943970320950532
 50
273.42285419485847
 51
281.12872001814799
  0
ARC
  5
4FC3
  8
0
 10
725.73839119033391
 20
150.7136575300074
 30
0.0
 40
0.3164806919847027
 50
284.54241032596423
 51
300.89509681463801
  0
ARC
  5
4FC4
  8
0
 10
725.85363542455104
 20
150.54094855100311
 30
0.0
 40
0.1095802210126939
 50
295.54804245405637
 51
349.42866732986062
  0
ARC
  5
4FC5
  8
0
 10
725.66185418946611
 20
147.66894108996911
 30
0.0
 40
0.524600719373251
 50
272.56112361806032
 51
356.1909409288337
  0
LINE
  5
4FC6
  8
0
 10
726.68529605389585
 20
149.79968894449121
 30
0.0
 11
726.18529605389585
 21
149.79968894449121
 31
0.0
  0
ARC
  5
4FC7
  8
0
 10
-888.55194590747726
 20
178.48713201033331
 30
0.0
 40
1621.9177481939621
 50
358.87823136564958
 51
358.93324008877732
  0
ARC
  5
4FC8
  8
0
 10
774.89392003742705
 20
146.09515903723829
 30
0.0
 40
41.866862989524193
 50
174.86179643030661
 51
176.9932249274961
  0
LINE
  5
4FC9
  8
0
 10
733.19529605433331
 20
149.84468894446221
 30
0.0
 11
734.17530431613318
 21
149.84468894446221
 31
0.0
  0
ARC
  5
4FCA
  8
0
 10
847.48256168033731
 20
179.07593321916349
 30
0.0
 40
117.96628639593381
 50
194.08843660782111
 51
194.3469638061093
  0
ARC
  5
4FCB
  8
0
 10
734.05490237148854
 20
150.61850719065629
 30
0.0
 40
1.02335322980764
 50
180.53590610341101
 51
194.59335001288611
  0
ARC
  5
4FCC
  8
0
 10
733.68655380791461
 20
150.9012506934364
 30
0.0
 40
0.6552603222359262
 50
151.62269484562009
 51
178.26495242468209
  0
ARC
  5
4FCD
  8
0
 10
733.67327820706726
 20
150.901119428247
 30
0.0
 40
0.6436744137353454
 50
113.5710796183067
 51
151.05076733139069
  0
ARC
  5
4FCE
  8
0
 10
733.6910792299235
 20
150.8493298539988
 30
0.0
 40
0.6982751226568577
 50
90.474195100318397
 51
113.21052193686999
  0
ARC
  5
4FCF
  8
0
 10
733.78463928650297
 20
150.95511539987069
 30
0.0
 40
0.7538136664633046
 50
182.587043620602
 51
204.79785194117801
  0
ARC
  5
4FD0
  8
0
 10
733.67033416482263
 20
150.92926353388839
 30
0.0
 40
0.6396738554731475
 50
206.99048430164831
 51
241.9929445800409
  0
ARC
  5
4FD1
  8
0
 10
733.71768935838327
 20
151.08514747289041
 30
0.0
 40
0.8001552307226054
 50
244.24127211667081
 51
267.68011255681222
  0
CIRCLE
  5
4FD2
  8
0
 10
733.61553118123072
 20
151.2980544293269
 30
0.0
 40
0.0388618458900229
  0
CIRCLE
  5
4FD3
  8
0
 10
733.6156017170797
 20
150.535156423042
 30
0.0
 40
0.0388618458900229
  0
CIRCLE
  5
4FD4
  8
0
 10
733.48472599374861
 20
150.58052501580039
 30
0.0
 40
0.0388618458900229
  0
CIRCLE
  5
4FD5
  8
0
 10
733.37756072942068
 20
150.66838831682759
 30
0.0
 40
0.0388618458900229
  0
CIRCLE
  5
4FD6
  8
0
 10
733.30948277086213
 20
150.7842566539029
 30
0.0
 40
0.0388618458900229
  0
CIRCLE
  5
4FD7
  8
0
 10
733.28532774075268
 20
150.91706444580711
 30
0.0
 40
0.0388618458900229
  0
CIRCLE
  5
4FD8
  8
0
 10
733.30780781682631
 20
151.04924541763259
 30
0.0
 40
0.0388618458900229
  0
CIRCLE
  5
4FD9
  8
0
 10
733.38006243545522
 20
151.16389639465251
 30
0.0
 40
0.0388618458900229
  0
CIRCLE
  5
4FDA
  8
0
 10
733.48524700103326
 20
151.2527840455927
 30
0.0
 40
0.0388618458900229
  0
ARC
  5
4FDB
  8
0
 10
733.69633909633546
 20
150.8364857609161
 30
0.0
 40
0.5838941594023761
 50
91.083279702896206
 51
114.49983378967229
  0
ARC
  5
4FDC
  8
0
 10
733.67375665496047
 20
150.90645831698919
 30
0.0
 40
0.5109272076640873
 50
115.44946159834311
 51
155.70342829781521
  0
ARC
  5
4FDD
  8
0
 10
733.654479411544
 20
150.91664798363729
 30
0.0
 40
0.489166629391307
 50
155.86217807970081
 51
193.1232583916053
  0
ARC
  5
4FDE
  8
0
 10
733.66363038047871
 20
150.91972863463701
 30
0.0
 40
0.4987789151443842
 50
193.2292278939176
 51
225.12183921580331
  0
ARC
  5
4FDF
  8
0
 10
733.68038174378626
 20
150.9359365023943
 30
0.0
 40
0.522083921286407
 50
225.0742246395838
 51
250.78605588535811
  0
ARC
  5
4FE0
  8
0
 10
733.69755812614585
 20
151.02111924612521
 30
0.0
 40
0.6082890881045016
 50
251.89888258649199
 51
268.84532563942201
  0
ARC
  5
4FE1
  8
0
 10
733.7017366871172
 20
150.79250417157809
 30
0.0
 40
0.6183063660014481
 50
91.523279043947596
 51
108.6091877428655
  0
ARC
  5
4FE2
  8
0
 10
733.67526200440932
 20
150.90593878634991
 30
0.0
 40
0.5024768436961438
 50
109.8758713305015
 51
157.86048221001809
  0
ARC
  5
4FE3
  8
0
 10
733.65559595455443
 20
150.91646587331249
 30
0.0
 40
0.48029921885429
 50
158.13956690845069
 51
179.98225571372271
  0
ARC
  5
4FE4
  8
0
 10
733.72702626906778
 20
150.93616591486631
 30
0.0
 40
0.5520758151726178
 50
182.029505595865
 51
208.6858354822906
  0
ARC
  5
4FE5
  8
0
 10
733.67372184487499
 20
150.92709878788699
 30
0.0
 40
0.5012716379707395
 50
210.7016275743832
 51
236.9712377011387
  0
ARC
  5
4FE6
  8
0
 10
733.68286736539915
 20
150.94042525994979
 30
0.0
 40
0.517429527706851
 50
236.92651865267501
 51
253.60609947152719
  0
ARC
  5
4FE7
  8
0
 10
733.75125609335214
 20
151.4061850618437
 30
0.0
 40
0.985757123854041
 50
257.43624220396742
 51
266.16353724672081
  0
ARC
  5
4FE8
  8
0
 10
733.69226107674206
 20
150.89355474878329
 30
0.0
 40
0.2759252737265529
 50
91.445579839034181
 51
126.8667277679087
  0
ARC
  5
4FE9
  8
0
 10
733.67488985564592
 20
150.92610503516241
 30
0.0
 40
0.2395282024745537
 50
128.21384447118311
 51
178.89503377720419
  0
ARC
  5
4FEA
  8
0
 10
733.67448384758063
 20
150.91804996287311
 30
0.0
 40
0.239413362973116
 50
176.96543495323451
 51
217.2303191766791
  0
ARC
  5
4FEB
  8
0
 10
733.68168728521312
 20
150.923978941699
 30
0.0
 40
0.2487362291552094
 50
217.3138164625571
 51
247.7440093101124
  0
ARC
  5
4FEC
  8
0
 10
733.69767206338645
 20
150.99465270056979
 30
0.0
 40
0.3204228056218904
 50
249.88551405234361
 51
267.78719669983212
  0
ARC
  5
4FED
  8
0
 10
733.69324016373105
 20
150.89583813688711
 30
0.0
 40
0.2557805822636972
 50
91.778869759650803
 51
126.54238818583499
  0
ARC
  5
4FEE
  8
0
 10
733.67497019877635
 20
150.9311734531677
 30
0.0
 40
0.2166067661304563
 50
128.22517598306951
 51
192.10603771048829
  0
ARC
  5
4FEF
  8
0
 10
733.67737258543275
 20
150.933608604386
 30
0.0
 40
0.2194744580906787
 50
192.5960941814065
 51
234.992950231983
  0
ARC
  5
4FF0
  8
0
 10
733.68860832765995
 20
150.9551194367462
 30
0.0
 40
0.2435594780542933
 50
235.73099680554989
 51
269.22175716420043
  0
ARC
  5
4FF1
  8
0
 10
733.98619872735969
 20
150.69237998562971
 30
0.0
 40
0.9582449249969069
 50
184.99567032860099
 51
204.08263124216651
  0
ARC
  5
4FF2
  8
0
 10
733.67071424782773
 20
150.61779256099081
 30
0.0
 40
0.642652501238307
 50
209.49700403793781
 51
241.4356233664605
  0
ARC
  5
4FF3
  8
0
 10
733.68482513866638
 20
150.64138117065269
 30
0.0
 40
0.6701179066708991
 50
241.34033047405489
 51
270.0406169928624
  0
LINE
  5
4FF4
  8
0
 10
734.35553028343315
 20
145.96552818316209
 30
0.0
 11
734.65323884543329
 21
145.84825766186219
 31
0.0
  0
LINE
  5
4FF5
  8
0
 10
734.19530361203317
 20
150.91661462016219
 30
0.0
 11
734.19251245481712
 21
150.80558433415999
 31
0.0
  0
LINE
  5
4FF6
  8
0
 10
734.3390064655332
 20
150.92109044586209
 30
0.0
 11
734.3390064655332
 21
150.60893557386211
 31
0.0
  0
LINE
  5
4FF7
  8
0
 10
734.30597835743333
 20
146.69538693436209
 30
0.0
 11
734.33021469943333
 21
146.00134890596209
 31
0.0
  0
ARC
  5
4FF8
  8
0
 10
734.3701903325333
 20
146.0027448858622
 30
0.0
 40
0.04
 50
182.0000000000004
 51
248.50000000000171
  0
ARC
  5
4FF9
  8
0
 10
734.28578022532383
 20
146.6946016855
 30
0.0
 40
0.0202133905659893
 50
2.2263841259649362
 51
83.595929599583485
  0
ARC
  5
4FFA
  8
0
 10
734.64590882083326
 20
145.82964931056219
 30
0.0
 40
0.02
 50
10.00000000000021
 51
68.499999999897142
  0
ARC
  5
4FFB
  8
0
 10
734.29564761743325
 20
146.73468894446211
 30
0.0
 40
0.02
 50
270.0
 51
359.03763811430071
  0
ARC
  5
4FFC
  8
0
 10
2355.9225462782442
 20
178.48713201033331
 30
0.0
 40
1621.9177481939621
 50
181.06675991122259
 51
181.1217686343503
  0
ARC
  5
4FFD
  8
0
 10
692.47668033333957
 20
146.09515903723829
 30
0.0
 40
41.866862989524193
 50
3.006775072503856
 51
5.1382035696933528
  0
ARC
  5
4FFE
  8
0
 10
619.88803869042931
 20
179.07593321916349
 30
0.0
 40
117.96628639593381
 50
345.65303619389061
 51
345.91156339217889
  0
ARC
  5
4FFF
  8
0
 10
733.31569799927797
 20
150.61850719065629
 30
0.0
 40
1.02335322980764
 50
345.40664998711389
 51
359.46409389658891
  0
ARC
  5
5000
  8
0
 10
733.6840465628519
 20
150.9012506934364
 30
0.0
 40
0.6552603222359262
 50
1.735047575317872
 51
28.37730515437843
  0
ARC
  5
5001
  8
0
 10
733.69732216369925
 20
150.901119428247
 30
0.0
 40
0.6436744137353454
 50
28.949232668609302
 51
66.428920381693274
  0
ARC
  5
5002
  8
0
 10
733.67952114084312
 20
150.8493298539988
 30
0.0
 40
0.6982751226568577
 50
66.789478063129977
 51
89.525804899681603
  0
ARC
  5
5003
  8
0
 10
733.58596108426366
 20
150.95511539987069
 30
0.0
 40
0.7538136664633046
 50
335.20214805882199
 51
357.412956379398
  0
ARC
  5
5004
  8
0
 10
733.70026620594399
 20
150.92926353388839
 30
0.0
 40
0.6396738554731475
 50
298.0070554199591
 51
333.00951569835178
  0
ARC
  5
5005
  8
0
 10
733.65291101238324
 20
151.08514747289041
 30
0.0
 40
0.8001552307226054
 50
272.31988744318778
 51
295.75872788332919
  0
CIRCLE
  5
5006
  8
0
 10
733.7550691895359
 20
151.2980544293269
 30
0.0
 40
0.0388618458900229
  0
CIRCLE
  5
5007
  8
0
 10
733.75499865368693
 20
150.535156423042
 30
0.0
 40
0.0388618458900229
  0
CIRCLE
  5
5008
  8
0
 10
733.88587437701801
 20
150.58052501580039
 30
0.0
 40
0.0388618458900229
  0
CIRCLE
  5
5009
  8
0
 10
733.99303964134583
 20
150.66838831682759
 30
0.0
 40
0.0388618458900229
  0
CIRCLE
  5
500A
  8
0
 10
734.06111759990438
 20
150.7842566539029
 30
0.0
 40
0.0388618458900229
  0
CIRCLE
  5
500B
  8
0
 10
734.08527263001395
 20
150.91706444580711
 30
0.0
 40
0.0388618458900229
  0
CIRCLE
  5
500C
  8
0
 10
734.0627925539402
 20
151.04924541763259
 30
0.0
 40
0.0388618458900229
  0
CIRCLE
  5
500D
  8
0
 10
733.99053793531141
 20
151.16389639465251
 30
0.0
 40
0.0388618458900229
  0
CIRCLE
  5
500E
  8
0
 10
733.88535336973325
 20
151.2527840455927
 30
0.0
 40
0.0388618458900229
  0
ARC
  5
500F
  8
0
 10
733.67426127443105
 20
150.8364857609161
 30
0.0
 40
0.5838941594023761
 50
65.500166210327635
 51
88.916720297097285
  0
ARC
  5
5010
  8
0
 10
733.69684371580604
 20
150.90645831698919
 30
0.0
 40
0.5109272076640873
 50
24.296571702184789
 51
64.550538401656908
  0
ARC
  5
5011
  8
0
 10
733.71612095922251
 20
150.91664798363729
 30
0.0
 40
0.489166629391307
 50
346.8767416083947
 51
24.137821920299132
  0
ARC
  5
5012
  8
0
 10
733.7069699902878
 20
150.91972863463701
 30
0.0
 40
0.4987789151443842
 50
314.87816078419672
 51
346.7707721060824
  0
ARC
  5
5013
  8
0
 10
733.69021862698025
 20
150.9359365023943
 30
0.0
 40
0.522083921286407
 50
289.21394411463592
 51
314.9257753604162
  0
ARC
  5
5014
  8
0
 10
733.67304224462066
 20
151.02111924612521
 30
0.0
 40
0.6082890881045016
 50
271.1546743605781
 51
288.10111741350801
  0
ARC
  5
5015
  8
0
 10
733.66886368364931
 20
150.79250417157809
 30
0.0
 40
0.6183063660014481
 50
71.390812257134456
 51
88.476720956045881
  0
ARC
  5
5016
  8
0
 10
733.6953383663573
 20
150.90593878634991
 30
0.0
 40
0.5024768436961438
 50
22.139517789981831
 51
70.124128669498504
  0
ARC
  5
5017
  8
0
 10
733.7150044162122
 20
150.91646587331249
 30
0.0
 40
0.48029921885429
 50
0.0177442862772251
 51
21.860433091549321
  0
ARC
  5
5018
  8
0
 10
733.64357410169885
 20
150.93616591486631
 30
0.0
 40
0.5520758151726178
 50
331.31416451770929
 51
357.97049440413491
  0
ARC
  5
5019
  8
0
 10
733.69687852589163
 20
150.92709878788699
 30
0.0
 40
0.5012716379707395
 50
303.0287622988613
 51
329.29837242561541
  0
ARC
  5
501A
  8
0
 10
733.68773300536736
 20
150.94042525994979
 30
0.0
 40
0.517429527706851
 50
286.39390052847278
 51
303.07348134732501
  0
ARC
  5
501B
  8
0
 10
733.61934427741448
 20
151.4061850618437
 30
0.0
 40
0.985757123854041
 50
273.83646275327919
 51
282.56375779603258
  0
ARC
  5
501C
  8
0
 10
733.67833929402445
 20
150.89355474878329
 30
0.0
 40
0.2759252737265529
 50
53.133272232091251
 51
88.554420160965805
  0
ARC
  5
501D
  8
0
 10
733.6957105151206
 20
150.92610503516241
 30
0.0
 40
0.2395282024745537
 50
1.104966222795811
 51
51.786155528816842
  0
ARC
  5
501E
  8
0
 10
733.69611652318588
 20
150.91804996287311
 30
0.0
 40
0.239413362973116
 50
322.769680823317
 51
3.0345650467654348
  0
ARC
  5
501F
  8
0
 10
733.68891308555351
 20
150.923978941699
 30
0.0
 40
0.2487362291552094
 50
292.25599068988748
 51
322.68618353744301
  0
ARC
  5
5020
  8
0
 10
733.67292830737995
 20
150.99465270056979
 30
0.0
 40
0.3204228056218904
 50
272.21280330016788
 51
290.11448594765642
  0
ARC
  5
5021
  8
0
 10
733.67736020703558
 20
150.89583813688711
 30
0.0
 40
0.2557805822636972
 50
53.457611814165013
 51
88.221130240349211
  0
ARC
  5
5022
  8
0
 10
733.69563017199005
 20
150.9311734531677
 30
0.0
 40
0.2166067661304563
 50
347.89396228951011
 51
51.774824016930509
  0
ARC
  5
5023
  8
0
 10
733.69322778533376
 20
150.933608604386
 30
0.0
 40
0.2194744580906787
 50
305.00704976801688
 51
347.4039058185935
  0
ARC
  5
5024
  8
0
 10
733.68199204310656
 20
150.9551194367462
 30
0.0
 40
0.2435594780542933
 50
270.77824283579957
 51
304.26900319445019
  0
ARC
  5
5025
  8
0
 10
733.38440164340682
 20
150.69237998562971
 30
0.0
 40
0.9582449249969069
 50
335.9173687578334
 51
355.00432967139898
  0
ARC
  5
5026
  8
0
 10
733.69988612293889
 20
150.61779256099081
 30
0.0
 40
0.642652501238307
 50
298.5643766335395
 51
330.502995962059
  0
ARC
  5
5027
  8
0
 10
733.68577523210024
 20
150.64138117065269
 30
0.0
 40
0.6701179066708991
 50
269.9593830071376
 51
298.65966952594511
  0
LINE
  5
5028
  8
0
 10
734.66560497593321
 20
145.83312227406219
 30
0.0
 11
734.68641879295376
 21
145.71163487156869
 31
0.0
  0
ARC
  5
5029
  8
0
 10
734.58840219063529
 20
145.69985201624621
 30
0.0
 40
0.0987222872992908
 50
2.5531018489045301
 51
6.8547955168258294
  0
ARC
  5
502A
  8
0
 10
734.64484793462589
 20
145.70689412441641
 30
0.0
 40
0.0422613687049376
 50
272.95487273715139
 51
356.41238592767507
  0
ARC
  5
502B
  8
0
 10
725.64030383659951
 20
149.59427786667459
 30
0.0
 40
1.3879049624106721
 50
75.521585549067652
 51
88.142296508300802
  0
LINE
  5
502C
  8
0
 10
726.93529605411447
 20
145.71668894449121
 30
0.0
 11
726.93529605411447
 21
145.66468894449119
 31
0.0
  0
ARC
  5
502D
  8
0
 10
727.06520221452433
 20
146.3046889443518
 30
0.0
 40
0.379999999206745
 50
181.27334434304501
 51
216.17207353375281
  0
ARC
  5
502E
  8
0
 10
726.45169367211463
 20
145.8561276138912
 30
0.0
 40
0.38
 50
355.35210303439942
 51
36.172073477199817
  0
ARC
  5
502F
  8
0
 10
726.61531334026336
 20
146.29468894461061
 30
0.0
 40
0.0699999998806247
 50
1.2733442658865
 51
90.000000039838255
  0
ARC
  5
5030
  8
0
 10
726.87529605411464
 20
145.71668894449121
 30
0.0
 40
0.06
 50
0.0
 51
90.0
  0
ARC
  5
5031
  8
0
 10
726.87529605411464
 20
145.8216889444912
 30
0.0
 40
0.045
 50
175.35210303439939
 51
270.0
  0
ENDSEC
  0
EOF
