  0
SECTION
  2
HEADER
  9
$ACADVER
  1
AC1009
  9
$INSBASE
 10
83.376325109598241
 20
30.936393743499998
 30
0.0
  9
$EXTMIN
 10
62.876325109600003
 20
10.20522747070004
 30
0.0
  9
$EXTMAX
 10
103.8763251096
 20
33.937791623400003
 30
0.0
  9
$LIMMIN
 10
0.0
 20
0.0
  9
$LIMMAX
 10
22.0
 20
17.0
  9
$ORTHOMODE
 70
     0
  9
$REGENMODE
 70
     1
  9
$FILLMODE
 70
     1
  9
$QTEXTMODE
 70
     0
  9
$MIRRTEXT
 70
     0
  9
$DRAGMODE
 70
     2
  9
$LTSCALE
 40
1.2099999999999991
  9
$OSMODE
 70
    47
  9
$ATTMODE
 70
     1
  9
$TEXTSIZE
 40
0.2
  9
$TRACEWID
 40
0.05
  9
$TEXTSTYLE
  7
STANDARD
  9
$CLAYER
  8
0
  9
$CELTYPE
  6
BYLAYER
  9
$CECOLOR
 62
   256
  9
$DIMSCALE
 40
1.0
  9
$DIMASZ
 40
0.1875
  9
$DIMEXO
 40
0.0625
  9
$DIMDLI
 40
0.8359999999999999
  9
$DIMRND
 40
0.0
  9
$DIMDLE
 40
0.0
  9
$DIMEXE
 40
0.125
  9
$DIMTP
 40
0.0
  9
$DIMTM
 40
0.0
  9
$DIMTXT
 40
0.15625
  9
$DIMCEN
 40
0.198
  9
$DIMTSZ
 40
0.0
  9
$DIMTOL
 70
     0
  9
$DIMLIM
 70
     0
  9
$DIMTIH
 70
     1
  9
$DIMTOH
 70
     1
  9
$DIMSE1
 70
     0
  9
$DIMSE2
 70
     0
  9
$DIMTAD
 70
     0
  9
$DIMZIN
 70
     0
  9
$DIMBLK
  1

  9
$DIMASO
 70
     1
  9
$DIMSHO
 70
     1
  9
$DIMPOST
  1

  9
$DIMAPOST
  1

  9
$DIMALT
 70
     0
  9
$DIMALTD
 70
     2
  9
$DIMALTF
 40
25.399999999999999
  9
$DIMLFAC
 40
1.0
  9
$DIMTOFL
 70
     0
  9
$DIMTVP
 40
0.0
  9
$DIMTIX
 70
     0
  9
$DIMSOXD
 70
     0
  9
$DIMSAH
 70
     0
  9
$DIMBLK1
  1

  9
$DIMBLK2
  1

  9
$DIMSTYLE
  2
STANDARD
  9
$DIMCLRD
 70
     0
  9
$DIMCLRE
 70
     0
  9
$DIMCLRT
 70
     0
  9
$DIMTFAC
 40
1.0
  9
$DIMGAP
 40
0.09
  9
$LUNITS
 70
     2
  9
$LUPREC
 70
     4
  9
$SKETCHINC
 40
0.1
  9
$FILLETRAD
 40
0.0
  9
$AUNITS
 70
     0
  9
$AUPREC
 70
     0
  9
$MENU
  1
.
  9
$ELEVATION
 40
0.0
  9
$PELEVATION
 40
0.0
  9
$THICKNESS
 40
0.0
  9
$LIMCHECK
 70
     0
  9
$BLIPMODE
 70
     0
  9
$CHAMFERA
 40
0.0
  9
$CHAMFERB
 40
0.0
  9
$SKPOLY
 70
     0
  9
$TDCREATE
 40
2457294.470354375
  9
$TDUPDATE
 40
2457294.7029991089
  9
$TDINDWG
 40
0.1398059606
  9
$TDUSRTIMER
 40
0.1398059606
  9
$USRTIMER
 70
     1
  9
$ANGBASE
 50
0.0
  9
$ANGDIR
 70
     0
  9
$PDMODE
 70
     0
  9
$PDSIZE
 40
0.3125
  9
$PLINEWID
 40
0.0
  9
$COORDS
 70
     1
  9
$SPLFRAME
 70
     0
  9
$SPLINETYPE
 70
     6
  9
$SPLINESEGS
 70
     8
  9
$ATTDIA
 70
     0
  9
$ATTREQ
 70
     1
  9
$HANDLING
 70
     1
  9
$HANDSEED
  5
963
  9
$SURFTAB1
 70
     6
  9
$SURFTAB2
 70
     6
  9
$SURFTYPE
 70
     6
  9
$SURFU
 70
     6
  9
$SURFV
 70
     6
  9
$UCSNAME
  2

  9
$UCSORG
 10
0.0
 20
0.0
 30
0.0
  9
$UCSXDIR
 10
1.0
 20
0.0
 30
0.0
  9
$UCSYDIR
 10
0.0
 20
1.0
 30
0.0
  9
$PUCSNAME
  2

  9
$PUCSORG
 10
0.0
 20
0.0
 30
0.0
  9
$PUCSXDIR
 10
1.0
 20
0.0
 30
0.0
  9
$PUCSYDIR
 10
0.0
 20
1.0
 30
0.0
  9
$USERI1
 70
     0
  9
$USERI2
 70
     0
  9
$USERI3
 70
     0
  9
$USERI4
 70
     0
  9
$USERI5
 70
     0
  9
$USERR1
 40
0.0
  9
$USERR2
 40
0.0
  9
$USERR3
 40
0.0
  9
$USERR4
 40
0.0
  9
$USERR5
 40
0.0
  9
$WORLDVIEW
 70
     1
  9
$SHADEDGE
 70
     3
  9
$SHADEDIF
 70
    70
  9
$TILEMODE
 70
     1
  9
$MAXACTVP
 70
    48
  9
$PLIMCHECK
 70
     0
  9
$PEXTMIN
 10
1.0000000000000000E+020
 20
1.0000000000000000E+020
 30
1.0000000000000000E+020
  9
$PEXTMAX
 10
-1.0000000000000000E+020
 20
-1.0000000000000000E+020
 30
-1.0000000000000000E+020
  9
$PLIMMIN
 10
0.0
 20
0.0
  9
$PLIMMAX
 10
12.0
 20
9.0
  9
$UNITMODE
 70
     0
  9
$VISRETAIN
 70
     1
  9
$PLINEGEN
 70
     0
  9
$PSLTSCALE
 70
     1
  0
ENDSEC
  0
SECTION
  2
TABLES
  0
TABLE
  2
VPORT
 70
     1
  0
VPORT
  2
*ACTIVE
 70
     0
 10
0.0
 20
0.0
 11
1.0
 21
1.0
 12
76.952539099021607
 22
17.30144880953868
 13
0.0
 23
0.0
 14
1.0
 24
1.0
 15
0.0
 25
0.0
 16
0.0
 26
0.0
 36
1.0
 17
0.0
 27
0.0
 37
0.0
 40
54.961304708729962
 41
2.2293364377182772
 42
50.0
 43
0.0
 44
0.0
 50
0.0
 51
0.0
 71
     0
 72
   100
 73
     1
 74
     1
 75
     0
 76
     0
 77
     0
 78
     0
  0
ENDTAB
  0
TABLE
  2
LTYPE
 70
     1
  0
LTYPE
  2
CONTINUOUS
 70
     0
  3
Solid line
 72
    65
 73
     0
 40
0.0
  0
ENDTAB
  0
TABLE
  2
LAYER
 70
     2
  0
LAYER
  2
0
 70
     0
 62
     7
  6
CONTINUOUS
  0
LAYER
  2
DEFPOINTS
 70
     0
 62
     7
  6
CONTINUOUS
  0
ENDTAB
  0
TABLE
  2
STYLE
 70
     1
  0
STYLE
  2
STANDARD
 70
     0
 40
0.0
 41
0.8
 50
0.0
 71
     0
 42
0.2
  3
txt
  4

  0
ENDTAB
  0
TABLE
  2
VIEW
 70
     0
  0
ENDTAB
  0
TABLE
  2
UCS
 70
     0
  0
ENDTAB
  0
TABLE
  2
APPID
 70
     6
  0
APPID
  2
ACAD
 70
     0
  0
APPID
  2
ACAD_MLEADERVER
 70
     0
  0
APPID
  2
ACAD_NAV_VCDISPLAY
 70
     0
  0
APPID
  2
ACAD_EXEMPT_FROM_CAD_STANDARDS
 70
     0
  0
APPID
  2
ACAD_DSTYLE_DIMRADIAL_EXTENSION
 70
     0
  0
APPID
  2
ACDBATTR
 70
     0
  0
ENDTAB
  0
TABLE
  2
DIMSTYLE
 70
     1
  0
DIMSTYLE
  2
STANDARD
 70
     0
  3

  4

  5

  6

  7

 40
1.0
 41
0.1875
 42
0.0625
 43
0.38
 44
0.125
 45
0.0
 46
0.0
 47
1.5
 48
1.5
140
0.15625
141
0.09
142
0.0
143
25.399999999999999
144
1.0
145
0.0
146
1.0
147
0.09
 71
     0
 72
     0
 73
     1
 74
     1
 75
     0
 76
     0
 77
     0
 78
     4
170
     0
171
     2
172
     0
173
     0
174
     0
175
     0
176
     0
177
     0
178
     0
  0
ENDTAB
  0
ENDSEC
  0
SECTION
  2
BLOCKS
  0
BLOCK
  8
0
  2
$MODEL_SPACE
 70
     0
 10
0.0
 20
0.0
 30
0.0
  3
$MODEL_SPACE
  1

  0
ENDBLK
  5
21
  8
0
  0
BLOCK
 67
     1
  8
0
  2
$PAPER_SPACE
 70
     0
 10
0.0
 20
0.0
 30
0.0
  3
$PAPER_SPACE
  1

  0
ENDBLK
  5
1D
 67
     1
  8
0
  0
ENDSEC
  0
SECTION
  2
ENTITIES
  0
LINE
  5
46B
  8
0
 10
62.902820369200001
 20
31.695118707900001
 30
0.0
 11
62.876325109600003
 21
30.936393743499998
 31
0.0
  0
LINE
  5
46E
  8
0
 10
64.566222198800006
 20
21.125882284100001
 30
0.0
 11
64.223860098999992
 21
30.929850087799998
 31
0.0
  0
LINE
  5
47A
  8
0
 10
67.756788576432214
 20
33.937791623399988
 30
0.0
 11
67.686898222400004
 21
31.9363937434
 31
0.0
  0
LINE
  5
481
  8
0
 10
70.492399603099997
 20
21.755297834099999
 30
0.0
 11
70.846121844899997
 21
11.6260181239
 31
0.0
  0
LINE
  5
482
  8
0
 10
65.559160066700002
 20
20.014306743399999
 30
0.0
 11
65.305240468217789
 21
20.2744622418926
 31
0.0
  0
LINE
  5
4B3
  8
0
 10
101.3176202584
 20
21.006510587600001
 30
0.0
 11
96.230231786900006
 21
20.895671034900001
 31
0.0
  0
LINE
  5
4BB
  8
0
 10
65.559345505799996
 20
20.014306743399999
 30
0.0
 11
70.553196351652218
 21
20.014306743399999
 31
0.0
  0
LINE
  5
4C9
  8
0
 10
102.2325562435727
 20
22.446821765454249
 30
0.0
 11
64.548765730779522
 21
21.625770123726952
 31
0.0
  0
LINE
  5
4DB
  8
0
 10
103.87632510959649
 20
30.936393743499998
 30
0.0
 11
62.876325109600003
 21
30.936393743499998
 31
0.0
  0
LINE
  5
4DF
  8
0
 10
95.906537403700014
 20
11.626276693299999
 30
0.0
 11
96.279870096599993
 21
22.317126244699999
 31
0.0
  0
LINE
  5
4E0
  8
0
 10
63.152664444599999
 20
31.9363937434
 30
0.0
 11
103.5999856878
 21
31.9363937434
 31
0.0
  0
LINE
  5
4E6
  8
0
 10
98.997200138692534
 20
33.937791623400003
 30
0.0
 11
67.756788576432214
 21
33.937791623400003
 31
0.0
  0
LINE
  5
4EA
  8
0
 10
99.065751996800003
 20
31.9363937434
 30
0.0
 11
98.997200138692563
 21
33.937791623400003
 31
0.0
  0
LINE
  5
4F5
  8
0
 10
102.2136450118
 20
21.9052749425
 30
0.0
 11
102.5287901202
 21
30.929850087799998
 31
0.0
  0
LINE
  5
4FE
  8
0
 10
103.8763251096
 20
30.9363937434
 30
0.0
 11
103.849829851
 21
31.695118680099998
 31
0.0
  0
ARC
  5
528
  8
0
 10
103.5999821464
 20
31.6863937434
 30
0.0
 40
0.25
 50
2.0
 51
89.999188276799998
  0
ARC
  5
52A
  8
0
 10
63.152572357299988
 20
31.686393819999999
 30
0.0
 40
0.2499181609
 50
89.978895390999995
 51
177.99925169599999
  0
ARC
  5
7AF
  8
0
 10
65.538220339278297
 20
21.221671212249511
 30
0.0
 40
0.9754406459872226
 50
184.187571809405
 51
256.18157327431862
  0
ARC
  5
7B0
  8
0
 10
101.3012019348273
 20
21.918828016600219
 30
0.0
 40
0.9125420713096053
 50
269.75673347626639
 51
359.14931854629361
  0
ARC
  5
7B1
  8
0
 10
72.032951976378158
 20
11.665949073544249
 30
0.0
 40
1.187501680724687
 50
181.9269920174867
 51
267.9970837207938
  0
ARC
  5
7B2
  8
0
 10
94.719943961700594
 20
11.66570416645061
 30
0.0
 40
1.1872482984763919
 50
271.99523946905151
 51
358.09690757692442
  0
ARC
  5
7B3
  8
0
 10
74.166275017896226
 20
629.67165769461894
 30
0.0
 40
619.534893300411
 50
270.85179865377052
 51
271.9050166564391
  0
ARC
  5
7B4
  8
0
 10
90.083415107738858
 20
492.66023082295061
 30
0.0
 40
482.50162083796209
 50
267.85127473521402
 51
269.20353319899368
  0
ATTDEF
  5
81C
  8
DEFPOINTS
 10
83.372151894632793
 20
30.925049766448559
 30
0.0
 40
0.001
  1
ACRYLIC
  3

  2
MATERIAL
 70
     0
1001
ACDBATTR
1070
     0
1070
     1
  0
ATTDEF
  5
81D
  8
DEFPOINTS
 10
83.372151894632793
 20
30.926716433115221
 30
0.0
 40
0.001
  1
BATHS
  3

  2
PRODUCT
 70
     0
1001
ACDBATTR
1070
     0
1070
     1
  0
ATTDEF
  5
81E
  8
DEFPOINTS
 10
83.372151894632793
 20
30.92838309978189
 30
0.0
 40
0.001
  1
SOK
  3

  2
TRADENAME
 70
     0
1001
ACDBATTR
1070
     0
1070
     1
  0
ATTDEF
  5
81F
  8
DEFPOINTS
 10
83.372151894632793
 20
30.930049766448551
 30
0.0
 40
0.001
  1
K-1188-RE
  3

  2
MODELNUMBER
 70
     0
1001
ACDBATTR
1070
     0
1070
     1
  0
ENDSEC
  0
EOF
