  0
SECTION
  2
HEADER
  9
$ACADVER
  1
AC1009
  9
$INSBASE
 10
1971.3639728280491
 20
1338.219207727687
 30
0.0
  9
$EXTMIN
 10
1943.6207060114491
 20
1317.488041454887
 30
0.0
  9
$EXTMAX
 10
1996.1464641601431
 20
1354.948901628215
 30
0.0
  9
$LIMMIN
 10
0.0
 20
0.0
  9
$LIMMAX
 10
420.0
 20
297.0
  9
$ORTHOMODE
 70
     1
  9
$REGENMODE
 70
     1
  9
$FILLMODE
 70
     1
  9
$QTEXTMODE
 70
     0
  9
$MIRRTEXT
 70
     0
  9
$DRAGMODE
 70
     2
  9
$LTSCALE
 40
1.0
  9
$OSMODE
 70
    47
  9
$ATTMODE
 70
     1
  9
$TEXTSIZE
 40
2.5
  9
$TRACEWID
 40
1.0
  9
$TEXTSTYLE
  7
STANDARD
  9
$CLAYER
  8
0
  9
$CELTYPE
  6
BYLAYER
  9
$CECOLOR
 62
   256
  9
$DIMSCALE
 40
1.0
  9
$DIMASZ
 40
2.5
  9
$DIMEXO
 40
0.625
  9
$DIMDLI
 40
3.75
  9
$DIMRND
 40
0.0
  9
$DIMDLE
 40
0.0
  9
$DIMEXE
 40
1.25
  9
$DIMTP
 40
0.0
  9
$DIMTM
 40
0.0
  9
$DIMTXT
 40
2.5
  9
$DIMCEN
 40
2.5
  9
$DIMTSZ
 40
0.0
  9
$DIMTOL
 70
     0
  9
$DIMLIM
 70
     0
  9
$DIMTIH
 70
     0
  9
$DIMTOH
 70
     0
  9
$DIMSE1
 70
     0
  9
$DIMSE2
 70
     0
  9
$DIMTAD
 70
     1
  9
$DIMZIN
 70
     8
  9
$DIMBLK
  1

  9
$DIMASO
 70
     1
  9
$DIMSHO
 70
     1
  9
$DIMPOST
  1

  9
$DIMAPOST
  1

  9
$DIMALT
 70
     0
  9
$DIMALTD
 70
     3
  9
$DIMALTF
 40
0.03937007874016
  9
$DIMLFAC
 40
1.0
  9
$DIMTOFL
 70
     1
  9
$DIMTVP
 40
0.0
  9
$DIMTIX
 70
     0
  9
$DIMSOXD
 70
     0
  9
$DIMSAH
 70
     0
  9
$DIMBLK1
  1

  9
$DIMBLK2
  1

  9
$DIMSTYLE
  2
ISO-25
  9
$DIMCLRD
 70
     0
  9
$DIMCLRE
 70
     0
  9
$DIMCLRT
 70
     0
  9
$DIMTFAC
 40
1.0
  9
$DIMGAP
 40
0.625
  9
$LUNITS
 70
     2
  9
$LUPREC
 70
     4
  9
$SKETCHINC
 40
1.0
  9
$FILLETRAD
 40
0.0
  9
$AUNITS
 70
     0
  9
$AUPREC
 70
     0
  9
$MENU
  1
.
  9
$ELEVATION
 40
0.0
  9
$PELEVATION
 40
0.0
  9
$THICKNESS
 40
0.0
  9
$LIMCHECK
 70
     0
  9
$BLIPMODE
 70
     0
  9
$CHAMFERA
 40
0.0
  9
$CHAMFERB
 40
0.0
  9
$SKPOLY
 70
     0
  9
$TDCREATE
 40
2457295.4864902319
  9
$TDUPDATE
 40
2457295.5214292021
  9
$TDINDWG
 40
0.034940162
  9
$TDUSRTIMER
 40
0.0349401273
  9
$USRTIMER
 70
     1
  9
$ANGBASE
 50
0.0
  9
$ANGDIR
 70
     0
  9
$PDMODE
 70
     0
  9
$PDSIZE
 40
0.0
  9
$PLINEWID
 40
0.0
  9
$COORDS
 70
     1
  9
$SPLFRAME
 70
     0
  9
$SPLINETYPE
 70
     6
  9
$SPLINESEGS
 70
     8
  9
$ATTDIA
 70
     0
  9
$ATTREQ
 70
     1
  9
$HANDLING
 70
     1
  9
$HANDSEED
  5
CDF
  9
$SURFTAB1
 70
     6
  9
$SURFTAB2
 70
     6
  9
$SURFTYPE
 70
     6
  9
$SURFU
 70
     6
  9
$SURFV
 70
     6
  9
$UCSNAME
  2

  9
$UCSORG
 10
0.0
 20
0.0
 30
0.0
  9
$UCSXDIR
 10
1.0
 20
0.0
 30
0.0
  9
$UCSYDIR
 10
0.0
 20
1.0
 30
0.0
  9
$PUCSNAME
  2

  9
$PUCSORG
 10
0.0
 20
0.0
 30
0.0
  9
$PUCSXDIR
 10
1.0
 20
0.0
 30
0.0
  9
$PUCSYDIR
 10
0.0
 20
1.0
 30
0.0
  9
$USERI1
 70
     0
  9
$USERI2
 70
     0
  9
$USERI3
 70
     0
  9
$USERI4
 70
     0
  9
$USERI5
 70
     0
  9
$USERR1
 40
0.0
  9
$USERR2
 40
0.0
  9
$USERR3
 40
0.0
  9
$USERR4
 40
0.0
  9
$USERR5
 40
0.0
  9
$WORLDVIEW
 70
     1
  9
$SHADEDGE
 70
     3
  9
$SHADEDIF
 70
    70
  9
$TILEMODE
 70
     1
  9
$MAXACTVP
 70
    64
  9
$PLIMCHECK
 70
     0
  9
$PEXTMIN
 10
0.0
 20
0.0
 30
0.0
  9
$PEXTMAX
 10
0.0
 20
0.0
 30
0.0
  9
$PLIMMIN
 10
0.0
 20
0.0
  9
$PLIMMAX
 10
12.0
 20
9.0
  9
$UNITMODE
 70
     0
  9
$VISRETAIN
 70
     1
  9
$PLINEGEN
 70
     0
  9
$PSLTSCALE
 70
     1
  0
ENDSEC
  0
SECTION
  2
TABLES
  0
TABLE
  2
VPORT
 70
     1
  0
VPORT
  2
*ACTIVE
 70
     0
 10
0.0
 20
0.0
 11
1.0
 21
1.0
 12
1974.4721181918151
 22
1334.8706024176249
 13
0.0
 23
0.0
 14
10.0
 24
10.0
 15
10.0
 25
10.0
 16
0.0
 26
0.0
 36
1.0
 17
0.0
 27
0.0
 37
0.0
 40
99.306905824934432
 41
2.2293364377182772
 42
50.0
 43
0.0
 44
0.0
 50
0.0
 51
0.0
 71
     0
 72
  1000
 73
     1
 74
     3
 75
     0
 76
     0
 77
     0
 78
     0
  0
ENDTAB
  0
TABLE
  2
LTYPE
 70
     3
  0
LTYPE
  2
CONTINUOUS
 70
     0
  3
Solid line
 72
    65
 73
     0
 40
0.0
  0
ENDTAB
  0
TABLE
  2
LAYER
 70
    25
  0
LAYER
  2
0
 70
     0
 62
     7
  6
CONTINUOUS
  0
LAYER
  2
DEFPOINTS
 70
     0
 62
     7
  6
CONTINUOUS
  0
ENDTAB
  0
TABLE
  2
STYLE
 70
     2
  0
STYLE
  2
STANDARD
 70
     0
 40
0.0
 41
1.0
 50
0.0
 71
     0
 42
2.5
  3
txt
  4

  0
ENDTAB
  0
TABLE
  2
VIEW
 70
     0
  0
ENDTAB
  0
TABLE
  2
UCS
 70
     0
  0
ENDTAB
  0
TABLE
  2
APPID
 70
    11
  0
APPID
  2
ACAD
 70
     0
  0
APPID
  2
ACAD_PSEXT
 70
     0
  0
APPID
  2
ACADANNOPO
 70
     0
  0
APPID
  2
ACADANNOTATIVE
 70
     0
  0
APPID
  2
ACAD_DSTYLE_DIMJAG
 70
     0
  0
APPID
  2
ACAD_DSTYLE_DIMTALN
 70
     0
  0
APPID
  2
ACAD_MLEADERVER
 70
     0
  0
APPID
  2
ACAD_NAV_VCDISPLAY
 70
     0
  0
APPID
  2
ACAD_EXEMPT_FROM_CAD_STANDARDS
 70
     0
  0
APPID
  2
ACADANNOMONITORALERTICONDI
 70
     0
  0
APPID
  2
AcDbAttr
 70
     0
  0
ENDTAB
  0
TABLE
  2
DIMSTYLE
 70
     4
  0
DIMSTYLE
  2
STANDARD
 70
     0
  3

  4

  5

  6

  7

 40
1.0
 41
0.18
 42
0.0625
 43
0.38
 44
0.18
 45
0.0
 46
0.0
 47
0.0
 48
0.0
140
0.18
141
0.09
142
0.0
143
25.399999999999999
144
1.0
145
0.0
146
1.0
147
0.09
 71
     0
 72
     0
 73
     1
 74
     1
 75
     0
 76
     0
 77
     0
 78
     0
170
     0
171
     2
172
     0
173
     0
174
     0
175
     0
176
     0
177
     0
178
     0
  0
DIMSTYLE
  2
ISO-25
 70
     0
  3

  4

  5

  6

  7

 40
1.0
 41
2.5
 42
0.625
 43
3.75
 44
1.25
 45
0.0
 46
0.0
 47
0.0
 48
0.0
140
2.5
141
2.5
142
0.0
143
0.03937007874016
144
1.0
145
0.0
146
1.0
147
0.625
 71
     0
 72
     0
 73
     0
 74
     0
 75
     0
 76
     0
 77
     1
 78
     8
170
     0
171
     3
172
     1
173
     0
174
     0
175
     0
176
     0
177
     0
178
     0
  0
ENDTAB
  0
ENDSEC
  0
SECTION
  2
BLOCKS
  0
BLOCK
  8
0
  2
$MODEL_SPACE
 70
     0
 10
0.0
 20
0.0
 30
0.0
  3
$MODEL_SPACE
  1

  0
ENDBLK
  5
21
  8
0
  0
BLOCK
 67
     1
  8
0
  2
$PAPER_SPACE
 70
     0
 10
0.0
 20
0.0
 30
0.0
  3
$PAPER_SPACE
  1

  0
ENDBLK
  5
D5
 67
     1
  8
0
  0
ENDSEC
  0
SECTION
  2
ENTITIES
  0
LINE
  5
241
  8
0
 10
1950.890468087651
 20
1338.9779326920871
 30
0.0
 11
1950.8639728280509
 21
1338.219207727687
 31
0.0
  0
LINE
  5
242
  8
0
 10
1952.5538699172509
 20
1328.408696268287
 30
0.0
 11
1952.2115078174511
 21
1338.2126640719871
 31
0.0
  0
LINE
  5
243
  8
0
 10
1955.7444362948829
 20
1341.220605607587
 30
0.0
 11
1955.674545940851
 21
1339.219207727587
 31
0.0
  0
LINE
  5
244
  8
0
 10
1958.480047321551
 20
1329.038111818287
 30
0.0
 11
1958.8337695633511
 21
1318.9088321080869
 31
0.0
  0
LINE
  5
245
  8
0
 10
1953.546807785151
 20
1327.2971207275871
 30
0.0
 11
1953.292888186669
 21
1327.5572762260799
 31
0.0
  0
LINE
  5
246
  8
0
 10
1989.3052679768509
 20
1328.2893245717869
 30
0.0
 11
1984.217879505351
 21
1328.178485019087
 31
0.0
  0
LINE
  5
247
  8
0
 10
1953.5469932242511
 20
1327.2971207275871
 30
0.0
 11
1958.540844070103
 21
1327.2971207275871
 31
0.0
  0
LINE
  5
248
  8
0
 10
1990.220203962024
 20
1329.7296357496409
 30
0.0
 11
1952.5364134492311
 21
1328.9085841079141
 31
0.0
  0
LINE
  5
249
  8
0
 10
1991.863972828048
 20
1338.219207727687
 30
0.0
 11
1950.8639728280509
 21
1338.219207727687
 31
0.0
  0
LINE
  5
24A
  8
0
 10
1983.8941851221509
 20
1318.909090677487
 30
0.0
 11
1984.267517815051
 21
1329.5999402288869
 31
0.0
  0
LINE
  5
24B
  8
0
 10
1951.140312163051
 20
1339.219207727587
 30
0.0
 11
1991.5876334062509
 21
1339.219207727587
 31
0.0
  0
LINE
  5
24C
  8
0
 10
1986.9848478571439
 20
1341.220605607587
 30
0.0
 11
1955.7444362948829
 21
1341.220605607587
 31
0.0
  0
LINE
  5
24D
  8
0
 10
1987.0533997152511
 20
1339.219207727587
 30
0.0
 11
1986.9848478571439
 21
1341.220605607587
 31
0.0
  0
LINE
  5
24E
  8
0
 10
1990.201292730251
 20
1329.188088926687
 30
0.0
 11
1990.516437838651
 21
1338.2126640719871
 31
0.0
  0
LINE
  5
24F
  8
0
 10
1991.8639728280509
 20
1338.219207727587
 30
0.0
 11
1991.837477569451
 21
1338.977932664287
 31
0.0
  0
ARC
  5
250
  8
0
 10
1991.5876298648509
 20
1338.969207727587
 30
0.0
 40
0.25
 50
2.0000000000034981
 51
89.999188276803224
  0
ARC
  5
251
  8
0
 10
1951.1402200757509
 20
1338.9692078041869
 30
0.0
 40
0.2499181609
 50
89.978895391000137
 51
177.9992516960032
  0
ARC
  5
252
  8
0
 10
1953.525868057729
 20
1328.504485196436
 30
0.0
 40
0.9754406459872226
 50
184.18757180939841
 51
256.181573274323
  0
ARC
  5
253
  8
0
 10
1989.288849653278
 20
1329.2016420007869
 30
0.0
 40
0.9125420713096053
 50
269.75673347626531
 51
359.14931854629589
  0
ARC
  5
254
  8
0
 10
1960.0205996948289
 20
1318.948763057731
 30
0.0
 40
1.187501680724687
 50
181.926992017484
 51
267.99708372079908
  0
ARC
  5
255
  8
0
 10
1982.7075916801521
 20
1318.948518150637
 30
0.0
 40
1.1872482984763919
 50
271.995239469046
 51
358.09690757692738
  0
ARC
  5
256
  8
0
 10
1962.1539227363471
 20
1936.9544716788059
 30
0.0
 40
619.534893300411
 50
270.85179865377
 51
271.90501665643501
  0
ARC
  5
257
  8
0
 10
1978.07106282619
 20
1799.943044807138
 30
0.0
 40
482.50162083796209
 50
267.8512747352118
 51
269.20353319899488
  0
CIRCLE
  5
258
  8
0
 10
1980.360158930456
 20
1327.0927516683059
 30
0.0
 40
0.8425
  0
CIRCLE
  5
259
  8
0
 10
1962.377732558426
 20
1327.08564654372
 30
0.0
 40
0.8425
  0
ATTDEF
  5
26E
  8
DEFPOINTS
 10
1971.3603084510739
 20
1338.207825561472
 30
0.0
 40
0.001
  1
ACRYLIC
  3

  2
MATERIAL
 70
     0
1001
AcDbAttr
1070
     0
1070
     1
  0
ATTDEF
  5
26F
  8
DEFPOINTS
 10
1971.3603084510739
 20
1338.209492228139
 30
0.0
 40
0.001
  1
BATHS
  3

  2
PRODUCT
 70
     0
1001
AcDbAttr
1070
     0
1070
     1
  0
ATTDEF
  5
270
  8
DEFPOINTS
 10
1971.3603084510739
 20
1338.2111588948051
 30
0.0
 40
0.001
  1
SOK
  3

  2
TRADENAME
 70
     0
1001
AcDbAttr
1070
     0
1070
     1
  0
ATTDEF
  5
271
  8
DEFPOINTS
 10
1971.3603084510739
 20
1338.2128255614721
 30
0.0
 40
0.001
  1
K-1188-C1
  3

  2
MODELNUMBER
 70
     0
1001
AcDbAttr
1070
     0
1070
     1
  0
ENDSEC
  0
EOF
