  0
SECTION
  2
HEADER
  9
$ACADVER
  1
AC1009
  9
$INSBASE
 10
1485.4569791841971
 20
1355.4043366767601
 30
0.0
  9
$EXTMIN
 10
1447.9569791841971
 20
1334.90433667656
 30
0.0
  9
$EXTMAX
 10
1522.9569791841971
 20
1375.9043366767601
 30
0.0
  9
$LIMMIN
 10
0.0
 20
0.0
  9
$LIMMAX
 10
420.0
 20
297.0
  9
$ORTHOMODE
 70
     0
  9
$REGENMODE
 70
     1
  9
$FILLMODE
 70
     1
  9
$QTEXTMODE
 70
     0
  9
$MIRRTEXT
 70
     0
  9
$DRAGMODE
 70
     2
  9
$LTSCALE
 40
1.0
  9
$OSMODE
 70
    47
  9
$ATTMODE
 70
     1
  9
$TEXTSIZE
 40
2.5
  9
$TRACEWID
 40
1.0
  9
$TEXTSTYLE
  7
STANDARD
  9
$CLAYER
  8
0
  9
$CELTYPE
  6
BYLAYER
  9
$CECOLOR
 62
   256
  9
$DIMSCALE
 40
1.0
  9
$DIMASZ
 40
2.5
  9
$DIMEXO
 40
0.625
  9
$DIMDLI
 40
3.75
  9
$DIMRND
 40
0.0
  9
$DIMDLE
 40
0.0
  9
$DIMEXE
 40
1.25
  9
$DIMTP
 40
0.0
  9
$DIMTM
 40
0.0
  9
$DIMTXT
 40
2.5
  9
$DIMCEN
 40
2.5
  9
$DIMTSZ
 40
0.0
  9
$DIMTOL
 70
     0
  9
$DIMLIM
 70
     0
  9
$DIMTIH
 70
     0
  9
$DIMTOH
 70
     0
  9
$DIMSE1
 70
     0
  9
$DIMSE2
 70
     0
  9
$DIMTAD
 70
     1
  9
$DIMZIN
 70
     8
  9
$DIMBLK
  1

  9
$DIMASO
 70
     1
  9
$DIMSHO
 70
     1
  9
$DIMPOST
  1

  9
$DIMAPOST
  1

  9
$DIMALT
 70
     0
  9
$DIMALTD
 70
     3
  9
$DIMALTF
 40
0.03937007874016
  9
$DIMLFAC
 40
1.0
  9
$DIMTOFL
 70
     1
  9
$DIMTVP
 40
0.0
  9
$DIMTIX
 70
     0
  9
$DIMSOXD
 70
     0
  9
$DIMSAH
 70
     0
  9
$DIMBLK1
  1

  9
$DIMBLK2
  1

  9
$DIMSTYLE
  2
ISO-25
  9
$DIMCLRD
 70
     0
  9
$DIMCLRE
 70
     0
  9
$DIMCLRT
 70
     0
  9
$DIMTFAC
 40
1.0
  9
$DIMGAP
 40
0.625
  9
$LUNITS
 70
     2
  9
$LUPREC
 70
     4
  9
$SKETCHINC
 40
1.0
  9
$FILLETRAD
 40
0.0
  9
$AUNITS
 70
     0
  9
$AUPREC
 70
     0
  9
$MENU
  1
.
  9
$ELEVATION
 40
0.0
  9
$PELEVATION
 40
0.0
  9
$THICKNESS
 40
0.0
  9
$LIMCHECK
 70
     0
  9
$BLIPMODE
 70
     0
  9
$CHAMFERA
 40
0.0
  9
$CHAMFERB
 40
0.0
  9
$SKPOLY
 70
     0
  9
$TDCREATE
 40
2457295.4729393292
  9
$TDUPDATE
 40
2457323.4510634718
  9
$TDINDWG
 40
0.0761439815
  9
$TDUSRTIMER
 40
0.0761439583
  9
$USRTIMER
 70
     1
  9
$ANGBASE
 50
0.0
  9
$ANGDIR
 70
     0
  9
$PDMODE
 70
     0
  9
$PDSIZE
 40
0.0
  9
$PLINEWID
 40
0.0
  9
$COORDS
 70
     1
  9
$SPLFRAME
 70
     0
  9
$SPLINETYPE
 70
     6
  9
$SPLINESEGS
 70
     8
  9
$ATTDIA
 70
     0
  9
$ATTREQ
 70
     1
  9
$HANDLING
 70
     1
  9
$HANDSEED
  5
5CA
  9
$SURFTAB1
 70
     6
  9
$SURFTAB2
 70
     6
  9
$SURFTYPE
 70
     6
  9
$SURFU
 70
     6
  9
$SURFV
 70
     6
  9
$UCSNAME
  2

  9
$UCSORG
 10
0.0
 20
0.0
 30
0.0
  9
$UCSXDIR
 10
1.0
 20
0.0
 30
0.0
  9
$UCSYDIR
 10
0.0
 20
1.0
 30
0.0
  9
$PUCSNAME
  2

  9
$PUCSORG
 10
0.0
 20
0.0
 30
0.0
  9
$PUCSXDIR
 10
1.0
 20
0.0
 30
0.0
  9
$PUCSYDIR
 10
0.0
 20
1.0
 30
0.0
  9
$USERI1
 70
     0
  9
$USERI2
 70
     0
  9
$USERI3
 70
     0
  9
$USERI4
 70
     0
  9
$USERI5
 70
     0
  9
$USERR1
 40
0.0
  9
$USERR2
 40
0.0
  9
$USERR3
 40
0.0
  9
$USERR4
 40
0.0
  9
$USERR5
 40
0.0
  9
$WORLDVIEW
 70
     1
  9
$SHADEDGE
 70
     3
  9
$SHADEDIF
 70
    70
  9
$TILEMODE
 70
     1
  9
$MAXACTVP
 70
    64
  9
$PLIMCHECK
 70
     0
  9
$PEXTMIN
 10
0.0
 20
0.0
 30
0.0
  9
$PEXTMAX
 10
0.0
 20
0.0
 30
0.0
  9
$PLIMMIN
 10
0.0
 20
0.0
  9
$PLIMMAX
 10
12.0
 20
9.0
  9
$UNITMODE
 70
     0
  9
$VISRETAIN
 70
     1
  9
$PLINEGEN
 70
     0
  9
$PSLTSCALE
 70
     1
  0
ENDSEC
  0
SECTION
  2
TABLES
  0
TABLE
  2
VPORT
 70
     1
  0
VPORT
  2
*ACTIVE
 70
     0
 10
0.0
 20
0.0
 11
1.0
 21
1.0
 12
1490.887100549995
 22
1353.8457224921119
 13
0.0
 23
0.0
 14
10.0
 24
10.0
 15
10.0
 25
10.0
 16
0.0
 26
0.0
 36
1.0
 17
0.0
 27
0.0
 37
0.0
 40
79.926185590789515
 41
2.0329087048832268
 42
50.0
 43
0.0
 44
0.0
 50
0.0
 51
0.0
 71
     0
 72
  1000
 73
     1
 74
     3
 75
     0
 76
     0
 77
     0
 78
     0
  0
ENDTAB
  0
TABLE
  2
LTYPE
 70
     1
  0
LTYPE
  2
CONTINUOUS
 70
     0
  3
Solid line
 72
    65
 73
     0
 40
0.0
  0
ENDTAB
  0
TABLE
  2
LAYER
 70
     2
  0
LAYER
  2
0
 70
     0
 62
     7
  6
CONTINUOUS
  0
LAYER
  2
DEFPOINTS
 70
     0
 62
     7
  6
CONTINUOUS
  0
ENDTAB
  0
TABLE
  2
STYLE
 70
     1
  0
STYLE
  2
STANDARD
 70
     0
 40
0.0
 41
1.0
 50
0.0
 71
     0
 42
2.5
  3
txt
  4

  0
ENDTAB
  0
TABLE
  2
VIEW
 70
     0
  0
ENDTAB
  0
TABLE
  2
UCS
 70
     0
  0
ENDTAB
  0
TABLE
  2
APPID
 70
    10
  0
APPID
  2
ACAD
 70
     0
  0
APPID
  2
ACAD_PSEXT
 70
     0
  0
APPID
  2
ACADANNOPO
 70
     0
  0
APPID
  2
ACADANNOTATIVE
 70
     0
  0
APPID
  2
ACAD_DSTYLE_DIMJAG
 70
     0
  0
APPID
  2
ACAD_DSTYLE_DIMTALN
 70
     0
  0
APPID
  2
ACAD_MLEADERVER
 70
     0
  0
APPID
  2
ACAD_NAV_VCDISPLAY
 70
     0
  0
APPID
  2
ACAD_EXEMPT_FROM_CAD_STANDARDS
 70
     0
  0
APPID
  2
ACDBATTR
 70
     0
  0
ENDTAB
  0
TABLE
  2
DIMSTYLE
 70
     2
  0
DIMSTYLE
  2
STANDARD
 70
     0
  3

  4

  5

  6

  7

 40
1.0
 41
0.18
 42
0.0625
 43
0.38
 44
0.18
 45
0.0
 46
0.0
 47
0.0
 48
0.0
140
0.18
141
0.09
142
0.0
143
25.399999999999999
144
1.0
145
0.0
146
1.0
147
0.09
 71
     0
 72
     0
 73
     1
 74
     1
 75
     0
 76
     0
 77
     0
 78
     0
170
     0
171
     2
172
     0
173
     0
174
     0
175
     0
176
     0
177
     0
178
     0
  0
DIMSTYLE
  2
ISO-25
 70
     0
  3

  4

  5

  6

  7

 40
1.0
 41
2.5
 42
0.625
 43
3.75
 44
1.25
 45
0.0
 46
0.0
 47
0.0
 48
0.0
140
2.5
141
2.5
142
0.0
143
0.03937007874016
144
1.0
145
0.0
146
1.0
147
0.625
 71
     0
 72
     0
 73
     0
 74
     0
 75
     0
 76
     0
 77
     1
 78
     8
170
     0
171
     3
172
     1
173
     0
174
     0
175
     0
176
     0
177
     0
178
     0
  0
ENDTAB
  0
ENDSEC
  0
SECTION
  2
BLOCKS
  0
BLOCK
  8
0
  2
$MODEL_SPACE
 70
     0
 10
0.0
 20
0.0
 30
0.0
  3
$MODEL_SPACE
  1

  0
ENDBLK
  5
21
  8
0
  0
BLOCK
 67
     1
  8
0
  2
$PAPER_SPACE
 70
     0
 10
0.0
 20
0.0
 30
0.0
  3
$PAPER_SPACE
  1

  0
ENDBLK
  5
D5
 67
     1
  8
0
  0
ENDSEC
  0
SECTION
  2
ENTITIES
  0
LINE
  5
290
  8
0
 10
1447.9569791841971
 20
1335.40403209026
 30
0.0
 11
1447.9569791841971
 21
1375.4046412632599
 31
0.0
  0
LINE
  5
291
  8
0
 10
1449.8342633477971
 20
1337.28627454976
 30
0.0
 11
1449.8066716594969
 21
1373.5499517565599
 31
0.0
  0
LINE
  5
292
  8
0
 10
1453.9510262746969
 20
1340.65376675056
 30
0.0
 11
1453.9510262746969
 21
1370.1549458734601
 31
0.0
  0
LINE
  5
293
  8
0
 10
1458.581979457397
 20
1367.4395900019599
 30
0.0
 11
1458.581979457397
 21
1343.3690833472599
 31
0.0
  0
LINE
  5
294
  8
0
 10
1448.4566745980969
 20
1334.9043366767601
 30
0.0
 11
1522.4572837706969
 21
1334.9043366767601
 31
0.0
  0
LINE
  5
295
  8
0
 10
1450.338944392897
 20
1336.7816195819601
 30
0.0
 11
1520.628481631597
 21
1336.7281418616601
 31
0.0
  0
LINE
  5
296
  8
0
 10
1454.9504171255969
 20
1339.6543362075599
 30
0.0
 11
1515.963541311997
 21
1339.6543362075599
 31
0.0
  0
LINE
  5
297
  8
0
 10
1459.7165310348969
 20
1342.40433667246
 30
0.0
 11
1511.3312126644969
 21
1342.40433667246
 31
0.0
  0
LINE
  5
298
  8
0
 10
1511.3357844759969
 20
1368.40592580206
 30
0.0
 11
1459.6709710852469
 21
1368.40733251181
 31
0.0
  0
LINE
  5
299
  8
0
 10
1454.950452809597
 20
1371.1543366984599
 30
0.0
 11
1515.9635412672969
 21
1371.1543366984599
 31
0.0
  0
LINE
  5
29A
  8
0
 10
1520.655821745497
 20
1374.10787160566
 30
0.0
 11
1450.3117366919971
 21
1374.0542712091601
 31
0.0
  0
LINE
  5
29B
  8
0
 10
1448.456674597797
 20
1375.9043366767601
 30
0.0
 11
1522.4572837706969
 21
1375.9043366767601
 31
0.0
  0
LINE
  5
29C
  8
0
 10
1512.331979171697
 20
1343.40165853186
 30
0.0
 11
1512.331979171697
 21
1367.4070009402601
 31
0.0
  0
LINE
  5
29D
  8
0
 10
1516.9629320914969
 20
1370.15491016586
 30
0.0
 11
1516.9629320914969
 21
1340.65372748206
 31
0.0
  0
LINE
  5
29E
  8
0
 10
1521.1328011434971
 20
1337.2332070826601
 30
0.0
 11
1521.1605141128971
 21
1373.60317924486
 31
0.0
  0
LINE
  5
29F
  8
0
 10
1522.9569791841971
 20
1375.4046412631601
 30
0.0
 11
1522.9569791841971
 21
1335.40403208986
 31
0.0
  0
CIRCLE
  5
2A0
  8
0
 10
1506.161979184197
 20
1355.4043366767601
 30
0.0
 40
1.125
  0
ARC
  5
2A1
  8
0
 10
1522.4412076397609
 20
1375.3885651323269
 30
0.0
 40
0.5160220228174948
 50
1.78527944484032
 51
88.214720543689637
  0
ARC
  5
2A2
  8
0
 10
1522.4412076397491
 20
1335.420108221221
 30
0.0
 40
0.5160220228462511
 50
271.78527945757457
 51
358.21472049655938
  0
ARC
  5
2A3
  8
0
 10
1448.457415996244
 20
1335.404773488606
 30
0.0
 40
0.5004373612377671
 50
180.084883773733
 51
269.91511624919548
  0
ARC
  5
2A4
  8
0
 10
1448.457415985064
 20
1375.4038998758931
 30
0.0
 40
0.5004373500419989
 50
90.084882507088821
 51
179.91511748144691
  0
ARC
  5
2A5
  8
0
 10
1453.0318276574139
 20
1340.032244161845
 30
0.0
 40
2.6150394700066109
 50
69.420624166879549
 51
188.6861955988181
  0
ARC
  5
2A6
  8
0
 10
1452.9921042177159
 20
1339.9141606223179
 30
0.0
 40
2.5603339180843419
 50
186.207479030439
 51
279.97165336420341
  0
ARC
  5
2A7
  8
0
 10
1453.120574616154
 20
1339.9469486074761
 30
0.0
 40
2.5737783271109742
 50
277.02724541523793
 51
353.471938237041
  0
ARC
  5
2A8
  8
0
 10
1520.596733897956
 20
1373.5440913903831
 30
0.0
 40
0.5668681547458895
 50
5.9831285774645178
 51
84.016871456593321
  0
ARC
  5
2A9
  8
0
 10
1520.5634396054179
 20
1337.297407918312
 30
0.0
 40
0.5729697273208031
 50
276.51811757758122
 51
353.56653981326781
  0
ARC
  5
2AA
  8
0
 10
1485.461202805725
 20
1337.613347994612
 30
0.0
 40
1.787192809707068
 50
0.0510838382180043
 51
179.95409576588199
  0
LINE
  5
2AB
  8
0
 10
1487.2483906073969
 20
1337.6147802928599
 30
0.0
 11
1487.245990979447
 21
1336.753539700419
 31
0.0
  0
LINE
  5
2AC
  8
0
 10
1483.6739193141971
 20
1337.6140917735599
 30
0.0
 11
1483.6732656666729
 21
1336.7562579277251
 31
0.0
  0
ARC
  5
2AD
  8
0
 10
1485.4609778838139
 20
1373.20344426108
 30
0.0
 40
1.7600375036587761
 50
179.9766272903174
 51
0.0410841566698397
  0
LINE
  5
2AE
  8
0
 10
1487.2210149349969
 20
1373.20470630256
 30
0.0
 11
1487.2210149349969
 21
1374.0823951292259
 31
0.0
  0
LINE
  5
2AF
  8
0
 10
1483.700988284897
 20
1373.20478962426
 30
0.0
 11
1483.700988284897
 21
1374.079713201131
 31
0.0
  0
ARC
  5
2B0
  8
0
 10
1450.3715686010289
 20
1373.4892852617149
 30
0.0
 40
0.5681452086824037
 50
96.045081742823584
 51
173.87027543886589
  0
ARC
  5
2B1
  8
0
 10
1450.4003891543109
 20
1337.347748564215
 30
0.0
 40
0.569453670858791
 50
186.19730636389701
 51
263.80565423436821
  0
ARC
  5
2B2
  8
0
 10
1515.96205862683
 20
1370.1534632630819
 30
0.0
 40
1.0008745110066759
 50
0.0783391331571983
 51
89.915126044609565
  0
ARC
  5
2B3
  8
0
 10
1515.962057785101
 20
1340.6552105132209
 30
0.0
 40
1.0008754051253801
 50
270.08492551681718
 51
359.91510286187292
  0
ARC
  5
2B4
  8
0
 10
1454.9736428704009
 20
1340.676950737449
 30
0.0
 40
1.022877779767092
 50
181.29455181790851
 51
268.69891442041057
  0
ARC
  5
2B5
  8
0
 10
1454.9518997294531
 20
1370.1534631920561
 30
0.0
 40
1.0008745526665539
 50
90.078340113259927
 51
179.91513446919791
  0
LINE
  5
2B6
  8
0
 10
1485.5977192759469
 20
1342.40433667246
 30
0.0
 11
1485.5977192759469
 21
1368.40433668116
 31
0.0
  0
ARC
  5
2B7
  8
0
 10
1459.564490654044
 20
1367.430568502816
 30
0.0
 40
0.9825507678966952
 50
83.778555884716212
 51
179.47391558975909
  0
ARC
  5
2B8
  8
0
 10
1511.3082397006681
 20
1367.3869718513861
 30
0.0
 40
1.0193261834376011
 50
1.0105409492931461
 51
88.451534421285885
  0
ARC
  5
2B9
  8
0
 10
1511.2959386195589
 20
1343.4386186679369
 30
0.0
 40
1.036718629637325
 50
272.21155017906352
 51
357.9521220562134
  0
ARC
  5
2BA
  8
0
 10
1459.568411018719
 20
1343.3796631697071
 30
0.0
 40
0.98650966311807
 50
180.61449287581399
 51
278.63536032389322
  0
LINE
  5
2BB
  8
0
 10
1512.0323877095
 20
1368.104352872564
 30
0.0
 11
1516.6698241390291
 21
1370.8611480562799
 31
0.0
  0
LINE
  5
2BC
  8
0
 10
1512.1048372723469
 20
1342.7901832536099
 30
0.0
 11
1516.6697837464569
 21
1339.9474849024029
 31
0.0
  0
LINE
  5
2BD
  8
0
 10
1458.851202364797
 20
1342.7023057587601
 30
0.0
 11
1454.2441216965969
 21
1339.9475378316599
 31
0.0
  0
LINE
  5
2BE
  8
0
 10
1458.9118130705431
 20
1368.1650193068119
 30
0.0
 11
1454.2442274534969
 21
1370.86124127876
 31
0.0
  0
LINE
  5
2BF
  8
0
 10
1466.3207495681929
 20
1366.953111096936
 30
0.0
 11
1466.3207493508669
 21
1343.8555617209549
 31
0.0
  0
LINE
  5
2C0
  8
0
 10
1458.9046705969499
 20
1368.169145143125
 30
0.0
 11
1466.3207495681929
 21
1366.953111096936
 31
0.0
  0
LINE
  5
2C1
  8
0
 10
1458.851202364797
 20
1342.7023057587601
 30
0.0
 11
1466.3207493428099
 21
1343.8555617204679
 31
0.0
  0
CIRCLE
  5
2C2
  8
0
 10
1453.0309791841969
 20
1339.9773366767599
 30
0.0
 40
0.95
  0
ARC
  5
2C3
  8
0
 10
1464.1790423471141
 20
1364.4454789461811
 30
0.0
 40
1.9202664839349739
 50
358.77232727689778
 51
23.724781162385501
  0
ARC
  5
2C4
  8
0
 10
1464.179042347115
 20
1364.3631944073391
 30
0.0
 40
1.920266483934816
 50
336.27521883760249
 51
1.227672723102144
  0
ARC
  5
2C5
  8
0
 10
1465.5051369158491
 20
1363.5275428610221
 30
0.0
 40
0.317248839979585
 50
238.74652871659299
 51
308.23042111172572
  0
ARC
  5
2C6
  8
0
 10
1465.2245354933079
 20
1363.883112647525
 30
0.0
 40
0.7702024473592021
 50
308.25904109547668
 51
337.67849482772721
  0
ARC
  5
2C7
  8
0
 10
1465.501368037897
 20
1365.3006515177869
 30
0.0
 40
0.2986851589730674
 50
57.421644744823681
 51
122.57835525517631
  0
ARC
  5
2C8
  8
0
 10
1465.2748957835979
 20
1364.9537852408171
 30
0.0
 40
0.7129302141575867
 50
21.760329732632989
 51
57.094778876036933
  0
ARC
  5
2C9
  8
0
 10
1465.7297717339129
 20
1364.9539131178719
 30
0.0
 40
0.713874112850218
 50
123.040945544794
 51
153.02877894828691
  0
ARC
  5
2CA
  8
0
 10
1465.9570002360399
 20
1364.059107484399
 30
0.0
 40
1.01216091066536
 50
187.42844195816281
 51
232.47891650199361
  0
ARC
  5
2CB
  8
0
 10
1467.1861384504291
 20
1364.400852847408
 30
0.0
 40
2.282273071519576
 50
169.83631300101229
 51
191.95109152867971
  0
ARC
  5
2CC
  8
0
 10
1466.5958598970251
 20
1364.5277928542821
 30
0.0
 40
1.679076135262914
 50
153.47358465469989
 51
170.78328911249559
  0
ARC
  5
2CD
  8
0
 10
1464.161253305344
 20
1346.4382126414191
 30
0.0
 40
1.9202664839349739
 50
358.77232727689778
 51
23.724781162397431
  0
ARC
  5
2CE
  8
0
 10
1464.161253305344
 20
1346.355928102578
 30
0.0
 40
1.920266483934816
 50
336.27521883760249
 51
1.227672723102144
  0
ARC
  5
2CF
  8
0
 10
1465.487347874079
 20
1345.520276556261
 30
0.0
 40
0.317248839979585
 50
238.74652871659299
 51
308.23042111172572
  0
ARC
  5
2D0
  8
0
 10
1465.206746451538
 20
1345.8758463427639
 30
0.0
 40
0.7702024473592021
 50
308.25904109547668
 51
337.67849482772721
  0
ARC
  5
2D1
  8
0
 10
1465.4835789961271
 20
1347.293385213025
 30
0.0
 40
0.2986851589730674
 50
57.421644744823681
 51
122.57835525517631
  0
ARC
  5
2D2
  8
0
 10
1465.257106741828
 20
1346.946518936056
 30
0.0
 40
0.7129302141575867
 50
21.760329732632989
 51
57.094778876036933
  0
ARC
  5
2D3
  8
0
 10
1465.711982692143
 20
1346.94664681311
 30
0.0
 40
0.713874112850218
 50
123.040945544794
 51
153.02877894828691
  0
ARC
  5
2D4
  8
0
 10
1465.9392111942691
 20
1346.0518411796379
 30
0.0
 40
1.01216091066536
 50
187.42844195816281
 51
232.47891650199361
  0
ARC
  5
2D5
  8
0
 10
1467.168349408659
 20
1346.393586542647
 30
0.0
 40
2.282273071519576
 50
169.83631300101229
 51
191.95109152867971
  0
ARC
  5
2D6
  8
0
 10
1466.578070855255
 20
1346.520526549521
 30
0.0
 40
1.679076135262914
 50
153.47358465469989
 51
170.78328911249559
  0
ARC
  5
2D7
  8
0
 10
1498.817866055836
 20
1364.4036295551639
 30
0.0
 40
12.688292062465351
 50
357.19383888506599
 51
2.4812886541922561
  0
ARC
  5
2D8
  8
0
 10
1508.784299741304
 20
1363.8387007827871
 30
0.0
 40
2.7072280974184091
 50
347.10135151299141
 51
358.80935169639298
  0
ARC
  5
2D9
  8
0
 10
1508.1590720985971
 20
1364.8987755988569
 30
0.0
 40
3.335629525549884
 50
0.9305089018839801
 51
11.29791392896715
  0
ARC
  5
2DA
  8
0
 10
1511.3324975364681
 20
1365.533208341817
 30
0.0
 40
0.0994083232220166
 50
11.049270281656669
 51
39.58638188860138
  0
LINE
  5
2DB
  8
0
 10
1511.3093608790971
 20
1365.59933667676
 30
0.0
 11
1511.4020069859971
 21
1365.59933667676
 31
0.0
  0
LINE
  5
2DC
  8
0
 10
1511.4020069859971
 20
1365.59932630516
 30
0.0
 11
1511.4095434501089
 21
1365.59638547585
 31
0.0
  0
ARC
  5
2DD
  8
0
 10
1511.3093608790971
 20
1365.5888769793901
 30
0.0
 40
0.0104596973699235
 50
47.194229707410067
 51
132.8057702925899
  0
ARC
  5
2DE
  8
0
 10
1517.032736822878
 20
1364.4039326519689
 30
0.0
 40
5.8674137537283118
 50
175.24538727344961
 51
186.08519980764211
  0
ARC
  5
2DF
  8
0
 10
1514.007145790179
 20
1364.000847906316
 30
0.0
 40
2.817539858102085
 50
184.27526088370291
 51
196.25627002900859
  0
ARC
  5
2E0
  8
0
 10
1514.6356600980059
 20
1364.6818403821189
 30
0.0
 40
3.4566306947605101
 50
164.6553358498652
 51
176.68183319535891
  0
LINE
  5
2E1
  8
0
 10
1511.423214890297
 20
1363.2343740434601
 30
0.0
 11
1511.4094032925659
 21
1363.212565781148
 31
0.0
  0
LINE
  5
2E2
  8
0
 10
1511.4094032925659
 20
1363.212565781148
 30
0.0
 11
1511.4020069859971
 21
1363.2093366767599
 31
0.0
  0
LINE
  5
2E3
  8
0
 10
1511.4020069859971
 20
1363.2093366767599
 30
0.0
 11
1511.3093608790971
 21
1363.2093366767599
 31
0.0
  0
LINE
  5
2E4
  8
0
 10
1511.3093608790971
 20
1363.2093366767599
 30
0.0
 11
1511.3022533557969
 21
1363.2121224975599
 31
0.0
  0
ARC
  5
2E5
  8
0
 10
1498.820919410148
 20
1346.409102904051
 30
0.0
 40
12.688292062465351
 50
357.19383888506599
 51
2.4812886541922561
  0
ARC
  5
2E6
  8
0
 10
1508.787353095616
 20
1345.844174131674
 30
0.0
 40
2.7072280974184091
 50
347.10135151299141
 51
358.80935169639298
  0
ARC
  5
2E7
  8
0
 10
1508.16212545291
 20
1346.904248947744
 30
0.0
 40
3.335629525549884
 50
0.9305089018839801
 51
11.29791392896715
  0
ARC
  5
2E8
  8
0
 10
1511.33555089078
 20
1347.5386816907039
 30
0.0
 40
0.0994083232220166
 50
11.049270281656669
 51
39.58638188860138
  0
LINE
  5
2E9
  8
0
 10
1511.31241423341
 20
1347.6048100256471
 30
0.0
 11
1511.40506034031
 21
1347.6048100256471
 31
0.0
  0
LINE
  5
2EA
  8
0
 10
1511.40506034031
 20
1347.6047996540469
 30
0.0
 11
1511.412596804422
 21
1347.6018588247371
 31
0.0
  0
ARC
  5
2EB
  8
0
 10
1511.31241423341
 20
1347.594350328277
 30
0.0
 40
0.0104596973699235
 50
47.194229707410067
 51
132.8057702925899
  0
ARC
  5
2EC
  8
0
 10
1517.0357901771899
 20
1346.4094060008561
 30
0.0
 40
5.8674137537283118
 50
175.24538727344961
 51
186.08519980764211
  0
ARC
  5
2ED
  8
0
 10
1514.0101991444919
 20
1346.0063212552029
 30
0.0
 40
2.817539858102085
 50
184.27526088370291
 51
196.25627002900859
  0
ARC
  5
2EE
  8
0
 10
1514.6387134523191
 20
1346.687313731006
 30
0.0
 40
3.4566306947605101
 50
164.6553358498652
 51
176.68183319535891
  0
LINE
  5
2EF
  8
0
 10
1511.426268244609
 20
1345.239847392347
 30
0.0
 11
1511.412456646879
 21
1345.218039130036
 31
0.0
  0
LINE
  5
2F0
  8
0
 10
1511.412456646879
 20
1345.218039130036
 30
0.0
 11
1511.40506034031
 21
1345.214810025647
 31
0.0
  0
LINE
  5
2F1
  8
0
 10
1511.40506034031
 20
1345.214810025647
 30
0.0
 11
1511.31241423341
 21
1345.214810025647
 31
0.0
  0
LINE
  5
2F2
  8
0
 10
1511.31241423341
 20
1345.214810025647
 30
0.0
 11
1511.30530671011
 21
1345.217595846447
 31
0.0
  0
ARC
  5
2F3
  8
0
 10
1468.219360742072
 20
1344.1539684915749
 30
0.0
 40
1.9219139798168521
 50
188.93219556261559
 51
246.5848093274293
  0
ARC
  5
2F4
  8
0
 10
1508.5444962281911
 20
1344.5334546283109
 30
0.0
 40
2.1896785533262699
 50
283.50667932242209
 51
347.52050741300837
  0
LINE
  5
2F5
  8
0
 10
1510.682439381497
 20
1344.06028760706
 30
0.0
 11
1510.682440112397
 21
1366.74838440806
 31
0.0
  0
ARC
  5
2F6
  8
0
 10
1508.505373326876
 20
1366.2314669212089
 30
0.0
 40
2.237593368529069
 50
13.35684800290732
 51
76.185637277665649
  0
ARC
  5
2F7
  8
0
 10
1468.1813641511319
 20
1366.6535676946901
 30
0.0
 40
1.884404706266261
 50
111.78619045889781
 51
170.88604557326079
  0
ATTDEF
  5
319
  8
DEFPOINTS
 10
1485.4536702430539
 20
1355.391535654398
 30
0.0
 40
0.001
  1
ACRYLIC
  3

  2
MATERIAL
 70
     0
1001
ACDBATTR
1070
     0
1070
     1
  0
ATTDEF
  5
31A
  8
DEFPOINTS
 10
1485.4536702430539
 20
1355.393202321065
 30
0.0
 40
0.001
  1
BATHS
  3

  2
PRODUCT
 70
     0
1001
ACDBATTR
1070
     0
1070
     1
  0
ATTDEF
  5
31B
  8
DEFPOINTS
 10
1485.4536702430539
 20
1355.394868987732
 30
0.0
 40
0.001
  1
SOK
  3

  2
TRADENAME
 70
     0
1001
ACDBATTR
1070
     0
1070
     1
  0
ATTDEF
  5
31C
  8
DEFPOINTS
 10
1485.4536702430539
 20
1355.3965356543979
 30
0.0
 40
0.001
  1
K-1188-C1
  3

  2
MODELNUMBER
 70
     0
1001
ACDBATTR
1070
     0
1070
     1
  0
ENDSEC
  0
EOF
