  0
SECTION
  2
HEADER
  9
$ACADVER
  1
AC1009
  9
$INSBASE
 10
6.7693026900017488
 20
30.9363937434
 30
0.0
  9
$EXTMIN
 10
-30.73069731
 20
10.497870250799989
 30
0.0
  9
$EXTMAX
 10
44.269302690003499
 20
33.937793817105202
 30
0.0
  9
$LIMMIN
 10
0.0
 20
0.0
  9
$LIMMAX
 10
22.0
 20
17.0
  9
$ORTHOMODE
 70
     0
  9
$REGENMODE
 70
     1
  9
$FILLMODE
 70
     1
  9
$QTEXTMODE
 70
     0
  9
$MIRRTEXT
 70
     0
  9
$DRAGMODE
 70
     2
  9
$LTSCALE
 40
1.2099999999999991
  9
$OSMODE
 70
    47
  9
$ATTMODE
 70
     1
  9
$TEXTSIZE
 40
0.001
  9
$TRACEWID
 40
0.05
  9
$TEXTSTYLE
  7
STANDARD
  9
$CLAYER
  8
0
  9
$CELTYPE
  6
BYLAYER
  9
$CECOLOR
 62
   256
  9
$DIMSCALE
 40
1.0
  9
$DIMASZ
 40
0.1875
  9
$DIMEXO
 40
0.0625
  9
$DIMDLI
 40
0.8359999999999999
  9
$DIMRND
 40
0.0
  9
$DIMDLE
 40
0.0
  9
$DIMEXE
 40
0.125
  9
$DIMTP
 40
0.0
  9
$DIMTM
 40
0.0
  9
$DIMTXT
 40
0.15625
  9
$DIMCEN
 40
0.198
  9
$DIMTSZ
 40
0.0
  9
$DIMTOL
 70
     0
  9
$DIMLIM
 70
     0
  9
$DIMTIH
 70
     1
  9
$DIMTOH
 70
     1
  9
$DIMSE1
 70
     0
  9
$DIMSE2
 70
     0
  9
$DIMTAD
 70
     0
  9
$DIMZIN
 70
     0
  9
$DIMBLK
  1

  9
$DIMASO
 70
     1
  9
$DIMSHO
 70
     1
  9
$DIMPOST
  1

  9
$DIMAPOST
  1

  9
$DIMALT
 70
     0
  9
$DIMALTD
 70
     2
  9
$DIMALTF
 40
25.399999999999999
  9
$DIMLFAC
 40
1.0
  9
$DIMTOFL
 70
     0
  9
$DIMTVP
 40
0.0
  9
$DIMTIX
 70
     0
  9
$DIMSOXD
 70
     0
  9
$DIMSAH
 70
     0
  9
$DIMBLK1
  1

  9
$DIMBLK2
  1

  9
$DIMSTYLE
  2
STANDARD
  9
$DIMCLRD
 70
     0
  9
$DIMCLRE
 70
     0
  9
$DIMCLRT
 70
     0
  9
$DIMTFAC
 40
1.0
  9
$DIMGAP
 40
0.09
  9
$LUNITS
 70
     2
  9
$LUPREC
 70
     4
  9
$SKETCHINC
 40
0.1
  9
$FILLETRAD
 40
0.0
  9
$AUNITS
 70
     0
  9
$AUPREC
 70
     0
  9
$MENU
  1
.
  9
$ELEVATION
 40
0.0
  9
$PELEVATION
 40
0.0
  9
$THICKNESS
 40
0.0
  9
$LIMCHECK
 70
     0
  9
$BLIPMODE
 70
     0
  9
$CHAMFERA
 40
0.0
  9
$CHAMFERB
 40
0.0
  9
$SKPOLY
 70
     0
  9
$TDCREATE
 40
2457294.470354375
  9
$TDUPDATE
 40
2457295.5211448031
  9
$TDINDWG
 40
0.9263775231
  9
$TDUSRTIMER
 40
0.9263775231
  9
$USRTIMER
 70
     1
  9
$ANGBASE
 50
0.0
  9
$ANGDIR
 70
     0
  9
$PDMODE
 70
     0
  9
$PDSIZE
 40
0.3125
  9
$PLINEWID
 40
0.0
  9
$COORDS
 70
     1
  9
$SPLFRAME
 70
     0
  9
$SPLINETYPE
 70
     6
  9
$SPLINESEGS
 70
     8
  9
$ATTDIA
 70
     0
  9
$ATTREQ
 70
     1
  9
$HANDLING
 70
     1
  9
$HANDSEED
  5
1CD4
  9
$SURFTAB1
 70
     6
  9
$SURFTAB2
 70
     6
  9
$SURFTYPE
 70
     6
  9
$SURFU
 70
     6
  9
$SURFV
 70
     6
  9
$UCSNAME
  2

  9
$UCSORG
 10
0.0
 20
0.0
 30
0.0
  9
$UCSXDIR
 10
1.0
 20
0.0
 30
0.0
  9
$UCSYDIR
 10
0.0
 20
1.0
 30
0.0
  9
$PUCSNAME
  2

  9
$PUCSORG
 10
0.0
 20
0.0
 30
0.0
  9
$PUCSXDIR
 10
1.0
 20
0.0
 30
0.0
  9
$PUCSYDIR
 10
0.0
 20
1.0
 30
0.0
  9
$USERI1
 70
     0
  9
$USERI2
 70
     0
  9
$USERI3
 70
     0
  9
$USERI4
 70
     0
  9
$USERI5
 70
     0
  9
$USERR1
 40
0.0
  9
$USERR2
 40
0.0
  9
$USERR3
 40
0.0
  9
$USERR4
 40
0.0
  9
$USERR5
 40
0.0
  9
$WORLDVIEW
 70
     1
  9
$SHADEDGE
 70
     3
  9
$SHADEDIF
 70
    70
  9
$TILEMODE
 70
     1
  9
$MAXACTVP
 70
    48
  9
$PLIMCHECK
 70
     0
  9
$PEXTMIN
 10
1.0000000000000000E+020
 20
1.0000000000000000E+020
 30
1.0000000000000000E+020
  9
$PEXTMAX
 10
-1.0000000000000000E+020
 20
-1.0000000000000000E+020
 30
-1.0000000000000000E+020
  9
$PLIMMIN
 10
0.0
 20
0.0
  9
$PLIMMAX
 10
12.0
 20
9.0
  9
$UNITMODE
 70
     0
  9
$VISRETAIN
 70
     1
  9
$PLINEGEN
 70
     0
  9
$PSLTSCALE
 70
     1
  0
ENDSEC
  0
SECTION
  2
TABLES
  0
TABLE
  2
VPORT
 70
     1
  0
VPORT
  2
*ACTIVE
 70
     0
 10
0.0
 20
0.0
 11
1.0
 21
1.0
 12
33.42685635703058
 22
18.265162108787742
 13
0.0
 23
0.0
 14
1.0
 24
1.0
 15
0.0
 25
0.0
 16
0.0
 26
0.0
 36
1.0
 17
0.0
 27
0.0
 37
0.0
 40
87.372421129202152
 41
2.2293364377182772
 42
50.0
 43
0.0
 44
0.0
 50
0.0
 51
0.0
 71
     0
 72
   100
 73
     1
 74
     1
 75
     0
 76
     0
 77
     0
 78
     0
  0
ENDTAB
  0
TABLE
  2
LTYPE
 70
     1
  0
LTYPE
  2
CONTINUOUS
 70
     0
  3
Solid line
 72
    65
 73
     0
 40
0.0
  0
ENDTAB
  0
TABLE
  2
LAYER
 70
    34
  0
LAYER
  2
0
 70
     0
 62
     7
  6
CONTINUOUS
  0
LAYER
  2
DEFPOINTS
 70
     0
 62
     7
  6
CONTINUOUS
  0
ENDTAB
  0
TABLE
  2
STYLE
 70
     1
  0
STYLE
  2
STANDARD
 70
     0
 40
0.0
 41
0.8
 50
0.0
 71
     0
 42
0.001
  3
txt
  4

  0
ENDTAB
  0
TABLE
  2
VIEW
 70
     0
  0
ENDTAB
  0
TABLE
  2
UCS
 70
     0
  0
ENDTAB
  0
TABLE
  2
APPID
 70
     6
  0
APPID
  2
ACAD
 70
     0
  0
APPID
  2
ACAD_MLEADERVER
 70
     0
  0
APPID
  2
ACAD_NAV_VCDISPLAY
 70
     0
  0
APPID
  2
ACAD_EXEMPT_FROM_CAD_STANDARDS
 70
     0
  0
APPID
  2
ACAD_DSTYLE_DIMRADIAL_EXTENSION
 70
     0
  0
APPID
  2
ACDBATTR
 70
     0
  0
ENDTAB
  0
TABLE
  2
DIMSTYLE
 70
     1
  0
DIMSTYLE
  2
STANDARD
 70
     0
  3

  4

  5

  6

  7

 40
1.0
 41
0.1875
 42
0.0625
 43
0.38
 44
0.125
 45
0.0
 46
0.0
 47
1.5
 48
1.5
140
0.15625
141
0.09
142
0.0
143
25.399999999999999
144
1.0
145
0.0
146
1.0
147
0.09
 71
     0
 72
     0
 73
     1
 74
     1
 75
     0
 76
     0
 77
     0
 78
     4
170
     0
171
     2
172
     0
173
     0
174
     0
175
     0
176
     0
177
     0
178
     0
  0
ENDTAB
  0
ENDSEC
  0
SECTION
  2
BLOCKS
  0
BLOCK
  8
0
  2
$MODEL_SPACE
 70
     2
 10
0.0
 20
0.0
 30
0.0
  3
$MODEL_SPACE
  1

  0
ENDBLK
  5
21
  8
0
  0
BLOCK
 67
     1
  8
0
  2
$PAPER_SPACE
 70
     0
 10
0.0
 20
0.0
 30
0.0
  3
$PAPER_SPACE
  1

  0
ENDBLK
  5
1D
 67
     1
  8
0
  0
ENDSEC
  0
SECTION
  2
ENTITIES
  0
LINE
  5
24E
  8
0
 10
-30.704202050300001
 20
31.695118709900001
 30
0.0
 11
-30.73069731
 21
30.9363937434
 31
0.0
  0
LINE
  5
24F
  8
0
 10
-29.38339083008885
 20
30.9363937434
 30
0.0
 11
-29.040798925899999
 21
21.125845202899999
 31
0.0
  0
LINE
  5
252
  8
0
 10
-24.619074671700002
 20
33.568729224499997
 30
0.0
 11
-24.676077082799999
 21
31.9363937434
 31
0.0
  0
LINE
  5
25B
  8
0
 10
-14.588466346700001
 20
20.520682398000002
 30
0.0
 11
-12.23352094597365
 21
16.526639968937332
 31
0.0
  0
LINE
  5
26F
  8
0
 10
-9.8801528320000003
 20
15.362576288
 30
0.0
 11
5.9430507019999999
 21
14.810239665999999
 31
0.0
  0
LINE
  5
275
  8
0
 10
6.7260433572
 20
14.0413858165
 30
0.0
 11
6.9009518895000026
 21
11.491963213499989
 31
0.0
  0
LINE
  5
276
  8
0
 10
5.4179064170000002
 20
21.369448240899999
 30
0.0
 11
5.7519915155888102
 21
30.9363937434
 31
0.0
  0
LINE
  5
27B
  8
0
 10
7.7866138644111667
 20
30.9363937434
 30
0.0
 11
8.1179793424999982
 21
21.447327983299999
 31
0.0
  0
LINE
  5
281
  8
0
 10
-28.104042336100001
 20
20.226220225700001
 30
0.0
 11
8.5647444111999995
 21
21.025118519599999
 31
0.0
  0
LINE
  5
282
  8
0
 10
8.5647444111999995
 20
21.025118519599999
 30
0.0
 11
41.736604769700001
 21
21.7478297133
 31
0.0
  0
LINE
  5
297
  8
0
 10
-30.73069731
 20
30.9363937434
 30
0.0
 11
44.269302690003499
 21
30.9363937434
 31
0.0
  0
LINE
  5
299
  8
0
 10
-30.4543559279
 20
31.9363937434
 30
0.0
 11
43.992963328199991
 21
31.9363937434
 31
0.0
  0
LINE
  5
2AF
  8
0
 10
32.180630547201218
 20
11.57063636390548
 30
0.0
 11
33.054470535599997
 21
21.558673135199999
 31
0.0
  0
LINE
  5
2B3
  8
0
 10
38.214682462799999
 20
31.9363937434
 30
0.0
 11
38.157430378400001
 21
33.5758789347
 31
0.0
  0
LINE
  5
2B5
  8
0
 10
44.269302690000004
 20
30.936393743499998
 30
0.0
 11
44.24280743149999
 21
31.695118678000011
 31
0.0
  0
LINE
  5
2B7
  8
0
 10
42.632510429699998
 20
22.6466056157
 30
0.0
 11
42.921996210088871
 21
30.9363937434
 31
0.0
  0
ARC
  5
500
  8
0
 10
4.980671040599999
 20
21.384645553399999
 30
0.0
 40
0.4374988626
 50
271.24811578819998
 51
358.0
  0
ARC
  5
501
  8
0
 10
8.5552148279999987
 20
21.462518959699999
 30
0.0
 40
0.4374988062
 50
182.00009772550001
 51
271.248099309
  0
ARC
  5
503
  8
0
 10
37.78257789031148
 20
33.562753703133112
 30
0.0
 40
0.3750822036274494
 50
2.0053575584035399
 51
94.412473264695478
  0
ARC
  5
504
  8
0
 10
-24.244303111200001
 20
33.555641925700002
 30
0.0
 40
0.375
 50
83.264816805999999
 51
178.0
  0
ARC
  5
505
  8
0
 10
43.992959726800002
 20
31.6863937434
 30
0.0
 40
0.25
 50
2.0
 51
89.999174547400003
  0
ARC
  5
509
  8
0
 10
-30.454450079600001
 20
31.686393815500001
 30
0.0
 40
0.2499181414
 50
89.978422177900015
 51
177.99925050799999
  0
LINE
  5
75F
  8
0
 10
-24.083075499149999
 20
33.912298609600001
 30
0.0
 11
37.509370673699998
 21
33.911903194600001
 31
0.0
  0
LINE
  5
760
  8
0
 10
37.753720534300001
 20
33.936724173199998
 30
0.0
 11
37.509370673699998
 21
33.911903194600001
 31
0.0
  0
LINE
  5
761
  8
0
 10
-24.183286678524869
 20
33.926124919770707
 30
0.0
 11
-24.083075499149999
 21
33.912298609600001
 31
0.0
  0
ARC
  5
762
  8
0
 10
41.72017536045022
 20
22.660106153845462
 30
0.0
 40
0.9124349528120902
 50
271.01757561640181
 51
359.152211254696
  0
ARC
  5
76C
  8
0
 10
8.5552151591359529
 20
21.46251981947135
 30
0.0
 40
0.4374996585547963
 50
181.98995152696091
 51
271.24805350053788
  0
ARC
  5
76D
  8
0
 10
-28.12768325336307
 20
21.139128373570038
 30
0.0
 40
0.9132132505071954
 50
180.8304509841075
 51
271.46888146169192
  0
LINE
  5
78B
  8
0
 10
31.010864413899998
 20
10.4978702508
 30
0.0
 11
7.7537604139000003
 21
10.876600954200001
 31
0.0
  0
ARC
  5
78C
  8
0
 10
30.99901588666679
 20
11.68494165467148
 30
0.0
 40
1.187130534308255
 50
270.57186792515751
 51
354.47459833852412
  0
ARC
  5
78D
  8
0
 10
7.781119836365014
 20
11.813136929101111
 30
0.0
 40
0.9369355208772899
 50
200.0470507951369
 51
268.32667001518979
  0
ARC
  5
78E
  8
0
 10
5.881383818893938
 20
13.96424974857911
 30
0.0
 40
0.8481743385800495
 50
5.2178967432113321
 51
85.940925956606534
  0
ARC
  5
78F
  8
0
 10
-9.6793079131048732
 20
18.72953546621099
 30
0.0
 40
3.3729442315557572
 50
220.77631310942621
 51
266.58625322852521
  0
ATTDEF
  5
88C
  8
DEFPOINTS
 10
6.76549419973301
 20
30.930032889916578
 30
0.0
 40
0.001
  1
K-1188-C1
  3

  2
MODELNUMBER
 70
     0
1001
ACDBATTR
1070
     0
1070
     1
  0
ATTDEF
  5
88D
  8
DEFPOINTS
 10
6.76549419973301
 20
30.92836622324992
 30
0.0
 40
0.001
  1
SOK
  3

  2
TRADENAME
 70
     0
1001
ACDBATTR
1070
     0
1070
     1
  0
ATTDEF
  5
88E
  8
DEFPOINTS
 10
6.76549419973301
 20
30.926699556583259
 30
0.0
 40
0.001
  1
BATHS
  3

  2
PRODUCT
 70
     0
1001
ACDBATTR
1070
     0
1070
     1
  0
ATTDEF
  5
88F
  8
DEFPOINTS
 10
6.76549419973301
 20
30.92503288991659
 30
0.0
 40
0.001
  1
ACRYLIC
  3

  2
MATERIAL
 70
     0
1001
ACDBATTR
1070
     0
1070
     1
  0
ENDSEC
  0
EOF
