  0
SECTION
  2
HEADER
  9
$ACADVER
  1
AC1009
  9
$DWGCODEPAGE
  3
ansi_1252
  9
$INSBASE
 10
0.0
 20
0.0
 30
0.0
  9
$EXTMIN
 10
1.000000000000000E+20
 20
1.000000000000000E+20
 30
1.000000000000000E+20
  9
$EXTMAX
 10
0.0
 20
0.0
 30
0.0
  9
$LIMMIN
 10
0.0
 20
0.0
  9
$LIMMAX
 10
144.0
 20
108.0
  9
$ORTHOMODE
 70
     1
  9
$REGENMODE
 70
     1
  9
$FILLMODE
 70
     1
  9
$QTEXTMODE
 70
     0
  9
$MIRRTEXT
 70
     1
  9
$DRAGMODE
 70
     2
  9
$LTSCALE
 40
4.0
  9
$OSMODE
 70
    37
  9
$ATTMODE
 70
     1
  9
$TEXTSIZE
 40
0.003
  9
$TRACEWID
 40
0.05
  9
$TEXTSTYLE
  7
STANDARD
  9
$CLAYER
  8
0
  9
$CELTYPE
  6
CONTINUOUS
  9
$CECOLOR
 62
   256
  9
$DIMSCALE
 40
1.0
  9
$DIMASZ
 40
0.18
  9
$DIMEXO
 40
0.0625
  9
$DIMDLI
 40
0.38
  9
$DIMRND
 40
0.0
  9
$DIMDLE
 40
0.0
  9
$DIMEXE
 40
0.18
  9
$DIMTP
 40
0.0
  9
$DIMTM
 40
0.0
  9
$DIMTXT
 40
0.18
  9
$DIMCEN
 40
0.09
  9
$DIMTSZ
 40
0.0
  9
$DIMTOL
 70
     0
  9
$DIMLIM
 70
     0
  9
$DIMTIH
 70
     1
  9
$DIMTOH
 70
     1
  9
$DIMSE1
 70
     0
  9
$DIMSE2
 70
     0
  9
$DIMTAD
 70
     0
  9
$DIMZIN
 70
     0
  9
$DIMBLK
  1

  9
$DIMASO
 70
     1
  9
$DIMSHO
 70
     1
  9
$DIMPOST
  1

  9
$DIMAPOST
  1

  9
$DIMALT
 70
     0
  9
$DIMALTD
 70
     2
  9
$DIMALTF
 40
25.4
  9
$DIMLFAC
 40
1.0
  9
$DIMTOFL
 70
     0
  9
$DIMTVP
 40
0.0
  9
$DIMTIX
 70
     0
  9
$DIMSOXD
 70
     0
  9
$DIMSAH
 70
     0
  9
$DIMBLK1
  1

  9
$DIMBLK2
  1

  9
$DIMSTYLE
  2
STANDARD
  9
$DIMCLRD
 70
     0
  9
$DIMCLRE
 70
     0
  9
$DIMCLRT
 70
     0
  9
$DIMTFAC
 40
1.0
  9
$DIMGAP
 40
0.09
  9
$LUNITS
 70
     2
  9
$LUPREC
 70
     4
  9
$SKETCHINC
 40
0.1
  9
$FILLETRAD
 40
0.0
  9
$AUNITS
 70
     0
  9
$AUPREC
 70
     0
  9
$MENU
  1
acad
  9
$ELEVATION
 40
0.0
  9
$PELEVATION
 40
0.0
  9
$THICKNESS
 40
0.0
  9
$LIMCHECK
 70
     0
  9
$CHAMFERA
 40
0.0
  9
$CHAMFERB
 40
0.0
  9
$SKPOLY
 70
     0
  9
$TDCREATE
 40
2453712.425490185
  9
$TDUPDATE
 40
2453712.428595926
  9
$TDINDWG
 40
0.0031059144
  9
$TDUSRTIMER
 40
0.0031059144
  9
$USRTIMER
 70
     1
  9
$ANGBASE
 50
0.0
  9
$ANGDIR
 70
     0
  9
$PDMODE
 70
     3
  9
$PDSIZE
 40
-2.0
  9
$PLINEWID
 40
0.0
  9
$COORDS
 70
     1
  9
$SPLFRAME
 70
     0
  9
$SPLINETYPE
 70
     6
  9
$SPLINESEGS
 70
     8
  9
$ATTDIA
 70
     0
  9
$ATTREQ
 70
     1
  9
$HANDLING
 70
     1
  9
$HANDSEED
  5
10F
  9
$SURFTAB1
 70
     6
  9
$SURFTAB2
 70
     6
  9
$SURFTYPE
 70
     6
  9
$SURFU
 70
     6
  9
$SURFV
 70
     6
  9
$UCSNAME
  2

  9
$UCSORG
 10
0.0
 20
0.0
 30
0.0
  9
$UCSXDIR
 10
1.0
 20
0.0
 30
0.0
  9
$UCSYDIR
 10
0.0
 20
1.0
 30
0.0
  9
$PUCSNAME
  2

  9
$PUCSORG
 10
0.0
 20
0.0
 30
0.0
  9
$PUCSXDIR
 10
1.0
 20
0.0
 30
0.0
  9
$PUCSYDIR
 10
0.0
 20
1.0
 30
0.0
  9
$USERI1
 70
     0
  9
$USERI2
 70
     0
  9
$USERI3
 70
     0
  9
$USERI4
 70
     0
  9
$USERI5
 70
     0
  9
$USERR1
 40
0.0
  9
$USERR2
 40
0.0
  9
$USERR3
 40
0.0
  9
$USERR4
 40
0.0
  9
$USERR5
 40
0.0
  9
$WORLDVIEW
 70
     1
  9
$SHADEDGE
 70
     3
  9
$SHADEDIF
 70
    70
  9
$TILEMODE
 70
     1
  9
$MAXACTVP
 70
    16
  9
$PLIMCHECK
 70
     0
  9
$PEXTMIN
 10
1.000000000000000E+20
 20
1.000000000000000E+20
 30
1.000000000000000E+20
  9
$PEXTMAX
 10
-1.000000000000000E+20
 20
-1.000000000000000E+20
 30
-1.000000000000000E+20
  9
$PLIMMIN
 10
0.0
 20
0.0
  9
$PLIMMAX
 10
12.0
 20
9.0
  9
$UNITMODE
 70
     0
  9
$VISRETAIN
 70
     0
  9
$PLINEGEN
 70
     1
  9
$PSLTSCALE
 70
     0
  0
ENDSEC
  0
SECTION
  2
TABLES
  0
TABLE
  2
VPORT
 70
     1
  0
VPORT
  2
*ACTIVE
 70
     0
 10
0.0
 20
0.0
 11
1.0
 21
1.0
 12
-2.084302380434892
 22
9.369604959323832
 13
0.0
 23
0.0
 14
1.0
 24
1.0
 15
0.0
 25
0.0
 16
0.0
 26
0.0
 36
1.0
 17
0.0
 27
0.0
 37
0.0
 40
44.14074496135132
 41
1.501231527093596
 42
50.0
 43
0.0
 44
0.0
 50
0.0
 51
0.0
 71
     0
 72
   100
 73
     1
 74
     1
 75
     0
 76
     0
 77
     0
 78
     0
  0
ENDTAB
  0
TABLE
  2
LTYPE
 70
     2
  0
LTYPE
  2
CONTINUOUS
 70
     0
  3
Solid line
 72
    65
 73
     0
 40
0.0
  0
LTYPE
  2
HIDDEN
 70
     0
  3
Illustrator Dash Style No.1
 72
    65
 73
     2
 40
1.411111111111111
 49
0.7055555555555555
 49
-0.7055555555555555
  0
ENDTAB
  0
TABLE
  2
LAYER
 70
     1
  0
LAYER
  2
0
 70
     0
 62
     7
  6
CONTINUOUS
  0
ENDTAB
  0
TABLE
  2
STYLE
 70
     1
  0
STYLE
  2
STANDARD
 70
     0
 40
0.0
 41
1.0
 50
0.0
 71
     0
 42
0.003
  3
txt
  4

  0
ENDTAB
  0
TABLE
  2
VIEW
 70
     0
  0
ENDTAB
  0
TABLE
  2
UCS
 70
     0
  0
ENDTAB
  0
TABLE
  2
APPID
 70
     1
  0
APPID
  2
ACAD
 70
     0
  0
ENDTAB
  0
TABLE
  2
DIMSTYLE
 70
     1
  0
DIMSTYLE
  2
STANDARD
 70
     0
  3

  4

  5

  6

  7

 40
1.0
 41
0.18
 42
0.0625
 43
0.38
 44
0.18
 45
0.0
 46
0.0
 47
0.0
 48
0.0
140
0.18
141
0.09
142
0.0
143
25.4
144
1.0
145
0.0
146
1.0
147
0.09
 71
     0
 72
     0
 73
     1
 74
     1
 75
     0
 76
     0
 77
     0
 78
     0
170
     0
171
     2
172
     0
173
     0
174
     0
175
     0
176
     0
177
     0
178
     0
  0
ENDTAB
  0
ENDSEC
  0
SECTION
  2
BLOCKS
  0
BLOCK
  8
0
  2
$MODEL_SPACE
 70
     2
 10
0.0
 20
0.0
 30
0.0
  3
$MODEL_SPACE
  1

  0
ENDBLK
  5
9
  8
0
  0
BLOCK
 67
     1
  8
0
  2
$PAPER_SPACE
 70
     0
 10
0.0
 20
0.0
 30
0.0
  3
$PAPER_SPACE
  1

  0
ENDBLK
  5
E
 67
     1
  8
0
  0
ENDSEC
  0
SECTION
  2
ENTITIES
  0
POLYLINE
  5
24
  8
0
  6
HIDDEN
 66
     1
 10
0.0
 20
0.0
 30
0.0
  0
VERTEX
  5
6A
  8
0
  6
HIDDEN
 10
20.33571701730891
 20
1.949848902357388
 30
0.0
  0
VERTEX
  5
6B
  8
0
  6
HIDDEN
 10
20.38961162276834
 20
2.006639675446293
 30
0.0
  0
VERTEX
  5
6C
  8
0
  6
HIDDEN
 10
20.44146758509089
 20
2.07643893331111
 30
0.0
  0
VERTEX
  5
6D
  8
0
  6
HIDDEN
 10
20.49662420772836
 20
2.14817975606991
 30
0.0
  0
VERTEX
  5
6E
  8
0
  6
HIDDEN
 10
20.56042079413257
 20
2.210795223840759
 30
0.0
  0
SEQEND
  5
6F
  8
0
  6
HIDDEN
  0
POLYLINE
  5
26
  8
0
  6
HIDDEN
 66
     1
 10
0.0
 20
0.0
 30
0.0
  0
VERTEX
  5
70
  8
0
  6
HIDDEN
 10
20.39888259513357
 20
2.011978978906228
 30
0.0
  0
VERTEX
  5
71
  8
0
  6
HIDDEN
 10
20.772779454201
 20
2.034274615748457
 30
0.0
  0
VERTEX
  5
72
  8
0
  6
HIDDEN
 10
21.161917597671
 20
2.071520302255183
 30
0.0
  0
VERTEX
  5
73
  8
0
  6
HIDDEN
 10
21.35519431527647
 20
2.102241521738914
 30
0.0
  0
VERTEX
  5
74
  8
0
  6
HIDDEN
 10
21.54387195104597
 20
2.144490782766188
 30
0.0
  0
VERTEX
  5
75
  8
0
  6
HIDDEN
 10
21.72514737066732
 20
2.200864928379476
 30
0.0
  0
VERTEX
  5
76
  8
0
  6
HIDDEN
 10
21.8962174398283
 20
2.273960801621252
 30
0.0
  0
SEQEND
  5
77
  8
0
  6
HIDDEN
  0
POLYLINE
  5
27
  8
0
  6
HIDDEN
 66
     1
 10
0.0
 20
0.0
 30
0.0
  0
VERTEX
  5
78
  8
0
  6
HIDDEN
 10
23.36870025416754
 20
6.198510637021428
 30
0.0
  0
VERTEX
  5
79
  8
0
  6
HIDDEN
 10
23.25379197197996
 20
5.143173040006442
 30
0.0
  0
VERTEX
  5
7A
  8
0
  6
HIDDEN
 10
23.17659454289771
 20
4.567778149496815
 30
0.0
  0
VERTEX
  5
7B
  8
0
  6
HIDDEN
 10
23.06141525062594
 20
3.995222797633594
 30
0.0
  0
VERTEX
  5
7C
  8
0
  6
HIDDEN
 10
22.98376529535714
 20
3.718132667439971
 30
0.0
  0
VERTEX
  5
7D
  8
0
  6
HIDDEN
 10
22.88963934176675
 20
3.451499684402651
 30
0.0
  0
VERTEX
  5
7E
  8
0
  6
HIDDEN
 10
22.77671054568001
 20
3.19857293601987
 30
0.0
  0
VERTEX
  5
7F
  8
0
  6
HIDDEN
 10
22.6426520629222
 20
2.96260150978986
 30
0.0
  0
VERTEX
  5
80
  8
0
  6
HIDDEN
 10
22.48513704931858
 20
2.746834493210856
 30
0.0
  0
VERTEX
  5
81
  8
0
  6
HIDDEN
 10
22.3018386606944
 20
2.554520973781092
 30
0.0
  0
VERTEX
  5
82
  8
0
  6
HIDDEN
 10
22.09043005287493
 20
2.388910038998802
 30
0.0
  0
VERTEX
  5
83
  8
0
  6
HIDDEN
 10
21.84858438168543
 20
2.253250776362219
 30
0.0
  0
SEQEND
  5
84
  8
0
  6
HIDDEN
  0
LINE
  5
28
  8
0
  6
HIDDEN
 10
9.540616216950042
 20
1.185648960806816
 30
0.0
 11
12.01339326334614
 21
1.2022169812167
 31
0.0
  0
LINE
  5
29
  8
0
  6
HIDDEN
 10
9.540616216950042
 20
1.185648960806816
 30
0.0
 11
7.068874671829769
 21
1.063459810272897
 31
0.0
  0
LINE
  5
2A
  8
0
  6
HIDDEN
 10
5.107635255191141
 20
1.5656779290305
 30
0.0
 11
10.5771529934926
 21
1.723074122938627
 31
0.0
  0
LINE
  5
2B
  8
0
  6
HIDDEN
 10
10.57715299403965
 20
1.723074122954159
 30
0.0
 11
15.40983744777931
 21
1.807985227560955
 31
0.0
  0
POLYLINE
  5
2C
  8
0
  6
HIDDEN
 66
     1
 10
0.0
 20
0.0
 30
0.0
  0
VERTEX
  5
85
  8
0
  6
HIDDEN
 10
20.56042079416052
 20
2.210795223862505
 30
0.0
  0
VERTEX
  5
86
  8
0
  6
HIDDEN
 10
21.16007311110131
 20
2.748495441036233
 30
0.0
  0
VERTEX
  5
87
  8
0
  6
HIDDEN
 10
21.12502786479799
 20
2.640916566303631
 30
0.0
  0
VERTEX
  5
88
  8
0
  6
HIDDEN
 10
21.02435772513997
 20
2.582847596320882
 30
0.0
  0
VERTEX
  5
89
  8
0
  6
HIDDEN
 10
21.42713536201667
 20
3.269077527744173
 30
0.0
  0
VERTEX
  5
8A
  8
0
  6
HIDDEN
 10
21.86204589785847
 20
4.697033787091414
 30
0.0
  0
VERTEX
  5
8B
  8
0
  6
HIDDEN
 10
23.29000215720568
 20
9.397174078010238
 30
0.0
  0
VERTEX
  5
8C
  8
0
  6
HIDDEN
 10
24.77995905555772
 20
14.2015764039969
 30
0.0
  0
VERTEX
  5
8D
  8
0
  6
HIDDEN
 10
26.37165395262094
 20
18.976078625621
 30
0.0
  0
SEQEND
  5
8E
  8
0
  6
HIDDEN
  0
POLYLINE
  5
2D
  8
0
  6
HIDDEN
 66
     1
 10
0.0
 20
0.0
 30
0.0
  0
VERTEX
  5
8F
  8
0
  6
HIDDEN
 10
23.36455824906427
 20
6.173658606401915
 30
0.0
  0
VERTEX
  5
90
  8
0
  6
HIDDEN
 10
23.69185755075862
 20
7.408170283661173
 30
0.0
  0
VERTEX
  5
91
  8
0
  6
HIDDEN
 10
24.07478268661308
 20
8.635304014330256
 30
0.0
  0
VERTEX
  5
92
  8
0
  6
HIDDEN
 10
24.87121260537337
 20
11.07365064355278
 30
0.0
  0
VERTEX
  5
93
  8
0
  6
HIDDEN
 10
25.41952671057389
 20
13.03081277347405
 30
0.0
  0
VERTEX
  5
94
  8
0
  6
HIDDEN
 10
25.89027529834474
 20
15.00350742252989
 30
0.0
  0
VERTEX
  5
95
  8
0
  6
HIDDEN
 10
26.74857641824826
 20
18.97607862912964
 30
0.0
  0
SEQEND
  5
96
  8
0
  6
HIDDEN
  0
LINE
  5
2E
  8
0
  6
HIDDEN
 10
-1.798122753211104
 20
0.6150877578334075
 30
0.0
 11
-1.248789326446858
 21
0.6337267807968282
 31
0.0
  0
POLYLINE
  5
2F
  8
0
  6
HIDDEN
 66
     1
 10
0.0
 20
0.0
 30
0.0
  0
VERTEX
  5
97
  8
0
  6
HIDDEN
 10
-4.118163361671918
 20
0.5923067297654825
 30
0.0
  0
VERTEX
  5
98
  8
0
  6
HIDDEN
 10
-4.109555757317929
 20
0.4793723718834974
 30
0.0
  0
VERTEX
  5
99
  8
0
  6
HIDDEN
 10
-4.104054656787711
 20
0.3714860827176204
 30
0.0
  0
VERTEX
  5
9A
  8
0
  6
HIDDEN
 10
-4.111994848205773
 20
0.3272022234694915
 30
0.0
  0
VERTEX
  5
9B
  8
0
  6
HIDDEN
 10
-4.132142628878889
 20
0.2934998928799125
 30
0.0
  0
VERTEX
  5
9C
  8
0
  6
HIDDEN
 10
-4.16830831990676
 20
0.2734855947753911
 30
0.0
  0
VERTEX
  5
9D
  8
0
  6
HIDDEN
 10
-4.224302242389088
 20
0.2702658329824351
 30
0.0
  0
SEQEND
  5
9E
  8
0
  6
HIDDEN
  0
POLYLINE
  5
30
  8
0
  6
HIDDEN
 66
     1
 10
0.0
 20
0.0
 30
0.0
  0
VERTEX
  5
9F
  8
0
  6
HIDDEN
 10
-6.894342282128733
 20
0.2702658329874055
 30
0.0
  0
VERTEX
  5
A0
  8
0
  6
HIDDEN
 10
-6.949592949318218
 20
0.2724359362459921
 30
0.0
  0
VERTEX
  5
A1
  8
0
  6
HIDDEN
 10
-6.985409765418847
 20
0.2909273193762574
 30
0.0
  0
VERTEX
  5
A2
  8
0
  6
HIDDEN
 10
-7.005512040676032
 20
0.3227426915768424
 30
0.0
  0
VERTEX
  5
A3
  8
0
  6
HIDDEN
 10
-7.013619085335181
 20
0.3648847620463882
 30
0.0
  0
VERTEX
  5
A4
  8
0
  6
HIDDEN
 10
-7.008724723841015
 20
0.468159834586926
 30
0.0
  0
VERTEX
  5
A5
  8
0
  6
HIDDEN
 10
-7.000481162899632
 20
0.5767742105869985
 30
0.0
  0
SEQEND
  5
A6
  8
0
  6
HIDDEN
  0
POLYLINE
  5
31
  8
0
  6
HIDDEN
 66
     1
 10
0.0
 20
0.0
 30
0.0
  0
VERTEX
  5
A7
  8
0
  6
HIDDEN
 10
-4.073119056174022
 20
0.6275137731431926
 30
0.0
  0
VERTEX
  5
A8
  8
0
  6
HIDDEN
 10
-3.367085162921395
 20
0.6124666452296426
 30
0.0
  0
VERTEX
  5
A9
  8
0
  6
HIDDEN
 10
-2.660954191424177
 20
0.6127578799616668
 30
0.0
  0
VERTEX
  5
AA
  8
0
  6
HIDDEN
 10
-1.248789326674254
 20
0.6337267807937217
 30
0.0
  0
SEQEND
  5
AB
  8
0
  6
HIDDEN
  0
LINE
  5
32
  8
0
  6
HIDDEN
 10
-17.49218008944509
 20
1.065530812812398
 30
0.0
 11
-18.45623177713113
 21
1.222927006720892
 31
0.0
  0
LINE
  5
33
  8
0
  6
HIDDEN
 10
-10.96955755309395
 20
0.7320994020003582
 30
0.0
 11
-17.49218008879303
 21
1.065530812779158
 31
0.0
  0
POLYLINE
  5
34
  8
0
  6
HIDDEN
 66
     1
 10
0.0
 20
0.0
 30
0.0
  0
VERTEX
  5
AC
  8
0
  6
HIDDEN
 10
-11.00321134455788
 20
0.7310639007245356
 30
0.0
  0
VERTEX
  5
AD
  8
0
  6
HIDDEN
 10
-7.515837204551954
 20
0.6629796918463145
 30
0.0
  0
VERTEX
  5
AE
  8
0
  6
HIDDEN
 10
-5.408082447600685
 20
0.6372863164386787
 30
0.0
  0
VERTEX
  5
AF
  8
0
  6
HIDDEN
 10
-4.026521499072902
 20
0.6337267807934113
 30
0.0
  0
SEQEND
  5
B0
  8
0
  6
HIDDEN
  0
POLYLINE
  5
35
  8
0
  6
HIDDEN
 66
     1
 10
0.0
 20
0.0
 30
0.0
 70
     1
  0
VERTEX
  5
B1
  8
0
  6
HIDDEN
 10
-9.440639919354865
 20
15.51957537125939
 30
0.0
  0
VERTEX
  5
B2
  8
0
  6
HIDDEN
 10
-9.285268662573012
 20
15.58709816104964
 30
0.0
  0
VERTEX
  5
B3
  8
0
  6
HIDDEN
 10
-9.148383365183243
 20
15.69688357377336
 30
0.0
  0
VERTEX
  5
B4
  8
0
  6
HIDDEN
 10
-9.035244452398091
 20
15.84471261758795
 30
0.0
  0
VERTEX
  5
B5
  8
0
  6
HIDDEN
 10
-8.950199789186854
 20
16.02490430524308
 30
0.0
  0
VERTEX
  5
B6
  8
0
  6
HIDDEN
 10
-8.896517594263147
 20
16.23053397123485
 30
0.0
  0
VERTEX
  5
B7
  8
0
  6
HIDDEN
 10
-8.876260844272562
 20
16.45369938281762
 30
0.0
  0
VERTEX
  5
B8
  8
0
  6
HIDDEN
 10
-8.890207994757123
 20
16.68582441837688
 30
0.0
  0
VERTEX
  5
B9
  8
0
  6
HIDDEN
 10
-8.937823064545361
 20
16.9179886429733
 30
0.0
  0
VERTEX
  5
BA
  8
0
  6
HIDDEN
 10
-9.01727623320815
 20
17.14127011565484
 30
0.0
  0
VERTEX
  5
BB
  8
0
  6
HIDDEN
 10
-9.125514160031633
 20
17.34708825464405
 30
0.0
  0
VERTEX
  5
BC
  8
0
  6
HIDDEN
 10
-9.25837732218851
 20
17.52753358428371
 30
0.0
  0
VERTEX
  5
BD
  8
0
  6
HIDDEN
 10
-9.410759862867614
 20
17.67567169175067
 30
0.0
  0
VERTEX
  5
BE
  8
0
  6
HIDDEN
 10
-9.576805806487757
 20
17.78580971265178
 30
0.0
  0
VERTEX
  5
BF
  8
0
  6
HIDDEN
 10
-9.750134100555258
 20
17.85371510460994
 30
0.0
  0
VERTEX
  5
C0
  8
0
  6
HIDDEN
 10
-9.924083835932727
 20
17.87677830149397
 30
0.0
  0
VERTEX
  5
C1
  8
0
  6
HIDDEN
 10
-10.09197022184175
 20
17.8541129975816
 30
0.0
  0
VERTEX
  5
C2
  8
0
  6
HIDDEN
 10
-10.2473414786236
 20
17.78659020779135
 30
0.0
  0
VERTEX
  5
C3
  8
0
  6
HIDDEN
 10
-10.38422677601337
 20
17.67680479506763
 30
0.0
  0
VERTEX
  5
C4
  8
0
  6
HIDDEN
 10
-10.49736568879852
 20
17.52897575125304
 30
0.0
  0
VERTEX
  5
C5
  8
0
  6
HIDDEN
 10
-10.58241035200976
 20
17.3487840635979
 30
0.0
  0
VERTEX
  5
C6
  8
0
  6
HIDDEN
 10
-10.63609254693347
 20
17.14315439760614
 30
0.0
  0
VERTEX
  5
C7
  8
0
  6
HIDDEN
 10
-10.65634929692405
 20
16.91998898602337
 30
0.0
  0
VERTEX
  5
C8
  8
0
  6
HIDDEN
 10
-10.64240214643949
 20
16.68786395046411
 30
0.0
  0
VERTEX
  5
C9
  8
0
  6
HIDDEN
 10
-10.59478707665125
 20
16.45569972586769
 30
0.0
  0
VERTEX
  5
CA
  8
0
  6
HIDDEN
 10
-10.51533390798846
 20
16.23241825318614
 30
0.0
  0
VERTEX
  5
CB
  8
0
  6
HIDDEN
 10
-10.40709598116498
 20
16.02660011419694
 30
0.0
  0
VERTEX
  5
CC
  8
0
  6
HIDDEN
 10
-10.2742328190081
 20
15.84615478455728
 30
0.0
  0
VERTEX
  5
CD
  8
0
  6
HIDDEN
 10
-10.121850278329
 20
15.69801667709032
 30
0.0
  0
VERTEX
  5
CE
  8
0
  6
HIDDEN
 10
-9.955804334708857
 20
15.5878786561892
 30
0.0
  0
VERTEX
  5
CF
  8
0
  6
HIDDEN
 10
-9.782476040641356
 20
15.51997326423105
 30
0.0
  0
VERTEX
  5
D0
  8
0
  6
HIDDEN
 10
-9.608526305263887
 20
15.49691006734702
 30
0.0
  0
SEQEND
  5
D1
  8
0
  6
HIDDEN
  0
POLYLINE
  5
36
  8
0
 66
     1
 10
0.0
 20
0.0
 30
0.0
  0
VERTEX
  5
D2
  8
0
 10
-29.73335842147796
 20
19.91268953389943
 30
0.0
  0
VERTEX
  5
D3
  8
0
 10
-29.75113991994615
 20
19.82437260087647
 30
0.0
  0
VERTEX
  5
D4
  8
0
 10
-29.78125035547715
 20
19.73814285011202
 30
0.0
  0
VERTEX
  5
D5
  8
0
 10
-29.82262186738059
 20
19.65531083790788
 30
0.0
  0
VERTEX
  5
D6
  8
0
 10
-29.87418659496609
 20
19.57718712056587
 30
0.0
  0
SEQEND
  5
D7
  8
0
  0
POLYLINE
  5
37
  8
0
 66
     1
 10
0.0
 20
0.0
 30
0.0
  0
VERTEX
  5
D8
  8
0
 10
-29.73335842147796
 20
19.91268953389943
 30
0.0
  0
VERTEX
  5
D9
  8
0
 10
-29.75113991994615
 20
19.82437260087647
 30
0.0
  0
VERTEX
  5
DA
  8
0
 10
-29.78125035547715
 20
19.73814285011202
 30
0.0
  0
VERTEX
  5
DB
  8
0
 10
-29.82262186738059
 20
19.65531083790788
 30
0.0
  0
VERTEX
  5
DC
  8
0
 10
-29.87418659496609
 20
19.57718712056587
 30
0.0
  0
SEQEND
  5
DD
  8
0
  0
POLYLINE
  5
38
  8
0
 66
     1
 10
0.0
 20
0.0
 30
0.0
  0
VERTEX
  5
DE
  8
0
 10
-29.87418659498862
 20
19.57718712053574
 30
0.0
  0
VERTEX
  5
DF
  8
0
 10
-29.9204362886904
 20
19.50270383736062
 30
0.0
  0
VERTEX
  5
E0
  8
0
 10
-29.95644422758608
 20
19.42283271160977
 30
0.0
  0
VERTEX
  5
E1
  8
0
 10
-29.98070569888425
 20
19.33859306485157
 30
0.0
  0
VERTEX
  5
E2
  8
0
 10
-29.99171598979348
 20
19.2510042186544
 30
0.0
  0
VERTEX
  5
E3
  8
0
 10
-29.99275149106929
 20
19.22615218803737
 30
0.0
  0
SEQEND
  5
E4
  8
0
  0
POLYLINE
  5
39
  8
0
 66
     1
 10
0.0
 20
0.0
 30
0.0
  0
VERTEX
  5
E5
  8
0
 10
-29.99275149106929
 20
19.22615218803489
 30
0.0
  0
VERTEX
  5
E6
  8
0
 10
-29.99734652798027
 20
19.10085653367399
 30
0.0
  0
VERTEX
  5
E7
  8
0
 10
-30.0
 20
18.97400762739983
 30
0.0
  0
SEQEND
  5
E8
  8
0
  0
LINE
  5
3A
  8
0
 10
-29.03957256668269
 20
20.44441943902982
 30
0.0
 11
-29.16227946785963
 21
20.44234843647851
 31
0.0
  0
POLYLINE
  5
3B
  8
0
 66
     1
 10
0.0
 20
0.0
 30
0.0
  0
VERTEX
  5
E9
  8
0
 10
-29.16227946786663
 20
20.4423484364782
 30
0.0
  0
VERTEX
  5
EA
  8
0
 10
-29.26887340289885
 20
20.42194683663772
 30
0.0
  0
VERTEX
  5
EB
  8
0
 10
-29.36771321314471
 20
20.38631001978708
 30
0.0
  0
VERTEX
  5
EC
  8
0
 10
-29.45764609444984
 20
20.33651191400692
 30
0.0
  0
VERTEX
  5
ED
  8
0
 10
-29.53751924265987
 20
20.27362644737791
 30
0.0
  0
VERTEX
  5
EE
  8
0
 10
-29.60617985362044
 20
20.19872754798069
 30
0.0
  0
VERTEX
  5
EF
  8
0
 10
-29.66247512317717
 20
20.11288914389591
 30
0.0
  0
VERTEX
  5
F0
  8
0
 10
-29.7052522471757
 20
20.01718516320421
 30
0.0
  0
VERTEX
  5
F1
  8
0
 10
-29.73335842146165
 20
19.91268953398626
 30
0.0
  0
SEQEND
  5
F2
  8
0
  0
POLYLINE
  5
3C
  8
0
  6
HIDDEN
 66
     1
 10
0.0
 20
0.0
 30
0.0
  0
VERTEX
  5
F3
  8
0
  6
HIDDEN
 10
-23.94024653393763
 20
11.88548364379082
 30
0.0
  0
VERTEX
  5
F4
  8
0
  6
HIDDEN
 10
-22.84546281019174
 20
7.553722932177415
 30
0.0
  0
VERTEX
  5
F5
  8
0
  6
HIDDEN
 10
-21.77708436897321
 20
3.207982953338491
 30
0.0
  0
SEQEND
  5
F6
  8
0
  6
HIDDEN
  0
POLYLINE
  5
3D
  8
0
  6
HIDDEN
 66
     1
 10
0.0
 20
0.0
 30
0.0
  0
VERTEX
  5
F7
  8
0
  6
HIDDEN
 10
-26.33691423680867
 20
18.97607862992584
 30
0.0
  0
VERTEX
  5
F8
  8
0
  6
HIDDEN
 10
-25.41557697665333
 20
15.5958788715209
 30
0.0
  0
VERTEX
  5
F9
  8
0
  6
HIDDEN
 10
-24.50355922798033
 20
12.2137375482238
 30
0.0
  0
VERTEX
  5
FA
  8
0
  6
HIDDEN
 10
-24.41845396687439
 20
12.04056613955137
 30
0.0
  0
VERTEX
  5
FB
  8
0
  6
HIDDEN
 10
-24.2879160872921
 20
11.94127127502529
 30
0.0
  0
VERTEX
  5
FC
  8
0
  6
HIDDEN
 10
-23.94024653393763
 20
11.88548364379082
 30
0.0
  0
VERTEX
  5
FD
  8
0
  6
HIDDEN
 10
-24.0852167125514
 20
11.8834126412392
 30
0.0
  0
SEQEND
  5
FE
  8
0
  6
HIDDEN
  0
POLYLINE
  5
3E
  8
0
  6
HIDDEN
 66
     1
 10
0.0
 20
0.0
 30
0.0
  0
VERTEX
  5
FF
  8
0
  6
HIDDEN
 10
-21.77708436876259
 20
3.207982952471156
 30
0.0
  0
VERTEX
  5
100
  8
0
  6
HIDDEN
 10
-21.40016594929322
 20
2.583142875981563
 30
0.0
  0
VERTEX
  5
101
  8
0
  6
HIDDEN
 10
-21.2791700521705
 20
2.306740888949595
 30
0.0
  0
VERTEX
  5
102
  8
0
  6
HIDDEN
 10
-21.31937258021859
 20
2.270170705220561
 30
0.0
  0
VERTEX
  5
103
  8
0
  6
HIDDEN
 10
-21.42604943626171
 20
2.364826038639773
 30
0.0
  0
VERTEX
  5
104
  8
0
  6
HIDDEN
 10
-21.50447652312403
 20
2.482100603052543
 30
0.0
  0
VERTEX
  5
105
  8
0
  6
HIDDEN
 10
-21.45992974362975
 20
2.513388112304182
 30
0.0
  0
VERTEX
  5
106
  8
0
  6
HIDDEN
 10
-21.19768500060305
 20
2.350082280240002
 30
0.0
  0
VERTEX
  5
107
  8
0
  6
HIDDEN
 10
-20.62301819686812
 20
1.883576820705315
 30
0.0
  0
VERTEX
  5
108
  8
0
  6
HIDDEN
 10
-20.15324848135849
 20
1.752925683170988
 30
0.0
  0
VERTEX
  5
109
  8
0
  6
HIDDEN
 10
-20.22027291940628
 20
1.755562975482828
 30
0.0
  0
VERTEX
  5
10A
  8
0
  6
HIDDEN
 10
-20.28234636697909
 20
1.779751638097543
 30
0.0
  0
VERTEX
  5
10B
  8
0
  6
HIDDEN
 10
-19.79772368004451
 20
1.713754611471842
 30
0.0
  0
VERTEX
  5
10C
  8
0
  6
HIDDEN
 10
-19.13066670188094
 20
1.62159499791876
 30
0.0
  0
VERTEX
  5
10D
  8
0
  6
HIDDEN
 10
-18.45623177783273
 20
1.560500422713856
 30
0.0
  0
SEQEND
  5
10E
  8
0
  6
HIDDEN
  0
LINE
  5
3F
  8
0
 10
29.92135232751726
 20
20.44441943902982
 30
0.0
 11
-29.03957256668269
 21
20.44441943902982
 31
0.0
  0
LINE
  5
40
  8
0
 10
-29.61479352539728
 20
19.81172815950757
 30
0.0
 11
29.97105638875634
 21
19.81172815950757
 31
0.0
  0
LINE
  5
41
  8
0
 10
-30.0
 20
18.97400762737419
 30
0.0
 11
30.00005042447914
 21
18.97400762737419
 31
0.0
  0
LINE
  5
42
  8
0
  6
HIDDEN
 10
6.539733519641629
 20
0.0
 30
0.0
 11
1.596250428906558
 21
0.0
 31
0.0
  0
LINE
  5
43
  8
0
  6
HIDDEN
 10
7.068874671582492
 20
0.9247026393017279
 30
0.0
 11
-1.248789326391872
 21
0.6337267807980709
 31
0.0
  0
LINE
  5
44
  8
0
  6
HIDDEN
 10
-13.05868137704829
 20
0.0
 30
0.0
 11
-18.00061121586965
 21
0.0
 31
0.0
  0
LINE
  5
45
  8
0
  6
HIDDEN
 10
-18.45623177722774
 20
1.560500422651415
 30
0.0
 11
-18.45623177722774
 21
1.222927006736114
 31
0.0
  0
LINE
  5
46
  8
0
  6
HIDDEN
 10
-18.00061121586965
 20
0.0
 30
0.0
 11
-18.00061121586965
 21
1.146299912325901
 31
0.0
  0
LINE
  5
47
  8
0
  6
HIDDEN
 10
-13.05868137704829
 20
0.0
 30
0.0
 11
-13.05868137704829
 21
0.8480755448915147
 31
0.0
  0
LINE
  5
48
  8
0
  6
HIDDEN
 10
-6.894342282128733
 20
0.2702658329874055
 30
0.0
 11
-4.224302242442832
 21
0.2702658329874055
 31
0.0
  0
ATTDEF
  5
49
  8
0
  6
CONTINUOUS
 10
-0.0018
 20
-0.0165
 30
0.0
 40
0.003
  1
ACRYLIC
  3

  2
MATERIAL
 70
     2
  0
ATTDEF
  5
4A
  8
0
  6
CONTINUOUS
 10
-0.0018
 20
-0.0132
 30
0.0
 40
0.003
  1
BATH
  3

  2
PRODUCT
 70
     2
  0
ATTDEF
  5
4B
  8
0
  6
CONTINUOUS
 10
-0.0018
 20
-0.0098
 30
0.0
 40
0.003
  1
TERCET
  3

  2
TRADENAME
 70
     2
  0
ATTDEF
  5
4C
  8
0
  6
CONTINUOUS
 10
-0.0018
 20
-0.0065
 30
0.0
 40
0.003
  1
K-1161
  3

  2
MODELNUMBER
 70
     2
  0
LINE
  5
4D
  8
0
  6
HIDDEN
 10
1.596250428906558
 20
0.0
 30
0.0
 11
1.596250428906558
 21
0.7331349032761523
 31
0.0
  0
LINE
  5
4E
  8
0
  6
HIDDEN
 10
19.07551196464353
 20
1.336832147075597
 30
0.0
 11
12.01339326359341
 21
1.096595851086846
 31
0.0
  0
LINE
  5
4F
  8
0
  6
HIDDEN
 10
15.41087294953847
 20
1.777955690572298
 30
0.0
 11
20.33571701730891
 21
1.949848902357388
 31
0.0
  0
LINE
  5
50
  8
0
  6
HIDDEN
 10
19.07551196464353
 20
0.0
 30
0.0
 11
14.13099337263263
 21
0.0
 31
0.0
  0
LINE
  5
51
  8
0
  6
HIDDEN
 10
12.36649919864588
 20
0.0
 30
0.0
 11
7.068874671582492
 21
0.0
 31
0.0
  0
LINE
  5
52
  8
0
  6
HIDDEN
 10
5.107635255191156
 20
1.5656779290305
 30
0.0
 11
5.107635255191156
 21
0.8553240538222156
 31
0.0
  0
LINE
  5
53
  8
0
  6
HIDDEN
 10
6.539733519641629
 20
0.0
 30
0.0
 11
6.539733519641629
 21
0.9039926137854764
 31
0.0
  0
LINE
  5
54
  8
0
  6
HIDDEN
 10
7.068874671582492
 20
0.0
 30
0.0
 11
7.068874671582492
 21
1.063459810260781
 31
0.0
  0
LINE
  5
55
  8
0
  6
HIDDEN
 10
12.01339326359341
 20
0.0
 30
0.0
 11
12.01339326359341
 21
1.202216981219834
 31
0.0
  0
LINE
  5
56
  8
0
  6
HIDDEN
 10
12.36649919864588
 20
0.0
 30
0.0
 11
12.36649919864588
 21
1.107986365120752
 31
0.0
  0
LINE
  5
57
  8
0
  6
HIDDEN
 10
14.13099337263263
 20
0.0
 30
0.0
 11
14.13099337263263
 21
1.172187444221237
 31
0.0
  0
LINE
  5
58
  8
0
  6
HIDDEN
 10
18.76693258445103
 20
1.894967334739249
 30
0.0
 11
18.77625209593332
 21
1.474553816758856
 31
0.0
  0
LINE
  5
59
  8
0
  6
HIDDEN
 10
19.07551196464353
 20
0.0
 30
0.0
 11
19.07551196464353
 21
1.905322347497389
 31
0.0
  0
LINE
  5
5A
  8
0
  6
HIDDEN
 10
18.77625209593332
 20
1.474553816758856
 30
0.0
 11
18.77625209593332
 21
1.326477134317514
 31
0.0
  0
POLYLINE
  5
5B
  8
0
  6
HIDDEN
 66
     1
 10
0.0
 20
0.0
 30
0.0
  0
VERTEX
  5
5C
  8
0
  6
HIDDEN
 10
15.63661222766588
 20
11.56240724573692
 30
0.0
  0
VERTEX
  5
5D
  8
0
  6
HIDDEN
 10
15.63661222766588
 20
5.34215108192339
 30
0.0
  0
VERTEX
  5
5E
  8
0
  6
HIDDEN
 10
12.95984142968722
 20
5.34215108192339
 30
0.0
  0
VERTEX
  5
5F
  8
0
  6
HIDDEN
 10
12.95984142968722
 20
11.59761428911457
 30
0.0
  0
VERTEX
  5
60
  8
0
  6
HIDDEN
 10
20.74577552253119
 20
11.59761428911457
 30
0.0
  0
VERTEX
  5
61
  8
0
  6
HIDDEN
 10
20.74577552253119
 20
5.411529667402931
 30
0.0
  0
VERTEX
  5
62
  8
0
  6
HIDDEN
 10
15.63661222766588
 20
5.34215108192339
 30
0.0
  0
SEQEND
  5
63
  8
0
  6
HIDDEN
  0
LINE
  5
64
  8
0
 10
30.00005042447914
 20
18.97607862992584
 30
0.0
 11
30.00005042447914
 21
20.42422716415146
 31
0.0
  0
ENDSEC
  0
EOF
