  0
SECTION
  2
HEADER
  9
$ACADVER
  1
AC1009
  9
$INSBASE
 10
3615.6927517353537951
 20
332.7536690068822054
 30
0.0
  9
$EXTMIN
 10
3609.408430481715186
 20
329.7554300800131841
 30
-0.0015258207003583
  9
$EXTMAX
 10
3621.8426567396600149
 20
333.5984957602943837
 30
0.0000000349246037
  9
$LIMMIN
 10
0.0
 20
0.0
  9
$LIMMAX
 10
11.6929133858000007
 20
8.2677165353999982
  9
$ORTHOMODE
 70
     0
  9
$REGENMODE
 70
     1
  9
$FILLMODE
 70
     1
  9
$QTEXTMODE
 70
     0
  9
$MIRRTEXT
 70
     0
  9
$DRAGMODE
 70
     2
  9
$LTSCALE
 40
0.6431102362
  9
$OSMODE
 70
  3839
  9
$ATTMODE
 70
     1
  9
$TEXTSIZE
 40
0.2
  9
$TRACEWID
 40
0.05
  9
$TEXTSTYLE
  7
STANDARD
  9
$CLAYER
  8
0
  9
$CELTYPE
  6
BYLAYER
  9
$CECOLOR
 62
   256
  9
$DIMSCALE
 40
1.0
  9
$DIMASZ
 40
0.1875
  9
$DIMEXO
 40
0.0625
  9
$DIMDLI
 40
0.4443307087
  9
$DIMRND
 40
0.0
  9
$DIMDLE
 40
0.0
  9
$DIMEXE
 40
0.125
  9
$DIMTP
 40
0.01
  9
$DIMTM
 40
0.01
  9
$DIMTXT
 40
2.0
  9
$DIMCEN
 40
0.1052362205
  9
$DIMTSZ
 40
0.0
  9
$DIMTOL
 70
     1
  9
$DIMLIM
 70
     0
  9
$DIMTIH
 70
     1
  9
$DIMTOH
 70
     1
  9
$DIMSE1
 70
     0
  9
$DIMSE2
 70
     0
  9
$DIMTAD
 70
     0
  9
$DIMZIN
 70
     0
  9
$DIMBLK
  1

  9
$DIMASO
 70
     1
  9
$DIMSHO
 70
     1
  9
$DIMPOST
  1
\X
  9
$DIMAPOST
  1

  9
$DIMALT
 70
     1
  9
$DIMALTD
 70
     2
  9
$DIMALTF
 40
25.3999999999999986
  9
$DIMLFAC
 40
1.0
  9
$DIMTOFL
 70
     0
  9
$DIMTVP
 40
0.0
  9
$DIMTIX
 70
     0
  9
$DIMSOXD
 70
     0
  9
$DIMSAH
 70
     0
  9
$DIMBLK1
  1

  9
$DIMBLK2
  1

  9
$DIMSTYLE
  2
STANDARD
  9
$DIMCLRD
 70
     0
  9
$DIMCLRE
 70
     0
  9
$DIMCLRT
 70
     0
  9
$DIMTFAC
 40
1.0
  9
$DIMGAP
 40
0.09
  9
$LUNITS
 70
     2
  9
$LUPREC
 70
     4
  9
$SKETCHINC
 40
0.1
  9
$FILLETRAD
 40
0.0
  9
$AUNITS
 70
     0
  9
$AUPREC
 70
     0
  9
$MENU
  1
.
  9
$ELEVATION
 40
0.0
  9
$PELEVATION
 40
0.0
  9
$THICKNESS
 40
0.0
  9
$LIMCHECK
 70
     0
  9
$BLIPMODE
 70
     0
  9
$CHAMFERA
 40
0.0
  9
$CHAMFERB
 40
0.0
  9
$SKPOLY
 70
     0
  9
$TDCREATE
 40
2458060.468368056230247
  9
$TDUPDATE
 40
2459198.6644444451667368
  9
$TDINDWG
 40
0.5950070602
  9
$TDUSRTIMER
 40
0.5950070602
  9
$USRTIMER
 70
     1
  9
$ANGBASE
 50
0.0
  9
$ANGDIR
 70
     0
  9
$PDMODE
 70
     0
  9
$PDSIZE
 40
0.3125
  9
$PLINEWID
 40
0.0
  9
$COORDS
 70
     1
  9
$SPLFRAME
 70
     0
  9
$SPLINETYPE
 70
     6
  9
$SPLINESEGS
 70
     8
  9
$ATTDIA
 70
     1
  9
$ATTREQ
 70
     1
  9
$HANDLING
 70
     1
  9
$HANDSEED
  5
AAD7
  9
$SURFTAB1
 70
     6
  9
$SURFTAB2
 70
     6
  9
$SURFTYPE
 70
     6
  9
$SURFU
 70
     6
  9
$SURFV
 70
     6
  9
$UCSNAME
  2

  9
$UCSORG
 10
0.0
 20
0.0
 30
0.0
  9
$UCSXDIR
 10
1.0
 20
0.0
 30
0.0
  9
$UCSYDIR
 10
0.0
 20
1.0
 30
0.0
  9
$PUCSNAME
  2

  9
$PUCSORG
 10
0.0
 20
0.0
 30
0.0
  9
$PUCSXDIR
 10
1.0
 20
0.0
 30
0.0
  9
$PUCSYDIR
 10
0.0
 20
1.0
 30
0.0
  9
$USERI1
 70
     0
  9
$USERI2
 70
     0
  9
$USERI3
 70
     0
  9
$USERI4
 70
     0
  9
$USERI5
 70
     0
  9
$USERR1
 40
0.0
  9
$USERR2
 40
0.0
  9
$USERR3
 40
0.0
  9
$USERR4
 40
0.0
  9
$USERR5
 40
0.0
  9
$WORLDVIEW
 70
     1
  9
$SHADEDGE
 70
     3
  9
$SHADEDIF
 70
    70
  9
$TILEMODE
 70
     1
  9
$MAXACTVP
 70
    64
  9
$PLIMCHECK
 70
     0
  9
$PEXTMIN
 10
1.0000000000000000E+20
 20
1.0000000000000000E+20
 30
1.0000000000000000E+20
  9
$PEXTMAX
 10
-1.0000000000000000E+20
 20
-1.0000000000000000E+20
 30
-1.0000000000000000E+20
  9
$PLIMMIN
 10
0.0
 20
0.0
  9
$PLIMMAX
 10
12.0
 20
9.0
  9
$UNITMODE
 70
     0
  9
$VISRETAIN
 70
     1
  9
$PLINEGEN
 70
     0
  9
$PSLTSCALE
 70
     1
  0
ENDSEC
  0
SECTION
  2
TABLES
  0
TABLE
  2
VPORT
 70
     1
  0
VPORT
  2
*ACTIVE
 70
     0
 10
0.0
 20
0.0
 11
1.0
 21
1.0
 12
-0.0682054439844251
 22
-1.0730736334733131
 13
0.0
 23
0.0
 14
1.0
 24
1.0
 15
0.0
 25
0.0
 16
0.0
 26
0.0
 36
0.0452518933338691
 17
3615.693749054672935
 27
332.7500365536271261
 37
0.0
 40
4.0016581371349211
 41
3.1182994454713491
 42
50.0
 43
0.0
 44
0.0
 50
0.0
 51
0.0
 71
     0
 72
   100
 73
     1
 74
     1
 75
     0
 76
     0
 77
     0
 78
     0
  0
ENDTAB
  0
TABLE
  2
LTYPE
 70
     2
  0
LTYPE
  2
CONTINUOUS
 70
     0
  3
Solid line
 72
    65
 73
     0
 40
0.0
  0
LTYPE
  2
PHANTOM2
 70
     0
  3
___ _ _ ___ _ _ ___ _ _ ___ _ _
 72
    65
 73
     6
 40
1.25
 49
0.625
 49
-0.125
 49
0.125
 49
-0.125
 49
0.125
 49
-0.125
  0
ENDTAB
  0
TABLE
  2
LAYER
 70
     2
  0
LAYER
  2
0
 70
     0
 62
   255
  6
CONTINUOUS
  0
LAYER
  2
DEFPOINTS
 70
     0
 62
     7
  6
CONTINUOUS
  0
ENDTAB
  0
TABLE
  2
STYLE
 70
     1
  0
STYLE
  2
STANDARD
 70
     0
 40
0.0
 41
0.8
 50
0.0
 71
     0
 42
0.2
  3
txt
  4

  0
ENDTAB
  0
TABLE
  2
VIEW
 70
     0
  0
ENDTAB
  0
TABLE
  2
UCS
 70
     0
  0
ENDTAB
  0
TABLE
  2
APPID
 70
     9
  0
APPID
  2
ACAD
 70
     0
  0
APPID
  2
ACAD_MLEADERVER
 70
     0
  0
APPID
  2
ACAD_EXEMPT_FROM_CAD_STANDARDS
 70
     0
  0
APPID
  2
ACAD_NAV_VCDISPLAY
 70
     0
  0
APPID
  2
ACAECLAYERSTANDARD
 70
     0
  0
APPID
  2
ACCMTRANSPARENCY
 70
     0
  0
APPID
  2
ACAD_DSTYLE_DIMJAG
 70
     0
  0
APPID
  2
ACAD_DSTYLE_DIMTALN
 70
     0
  0
APPID
  2
ACDBATTR
 70
     0
  0
ENDTAB
  0
TABLE
  2
DIMSTYLE
 70
     1
  0
DIMSTYLE
  2
STANDARD
 70
     0
  3

  4

  5

  6

  7

 40
1.0
 41
0.1875
 42
0.0625
 43
0.38
 44
0.125
 45
0.0
 46
0.0
 47
0.01
 48
0.01
140
0.15625
141
0.09
142
0.0
143
25.3999999999999986
144
1.0
145
0.0
146
1.0
147
0.09
 71
     1
 72
     0
 73
     1
 74
     1
 75
     0
 76
     0
 77
     0
 78
     4
170
     0
171
     2
172
     0
173
     0
174
     0
175
     0
176
     0
177
     0
178
     0
  0
ENDTAB
  0
ENDSEC
  0
SECTION
  2
BLOCKS
  0
BLOCK
  8
0
  2
$MODEL_SPACE
 70
     0
 10
0.0
 20
0.0
 30
0.0
  3
$MODEL_SPACE
  1

  0
ENDBLK
  5
21
  8
0
  0
BLOCK
 67
     1
  8
0
  2
$PAPER_SPACE
 70
     0
 10
0.0
 20
0.0
 30
0.0
  3
$PAPER_SPACE
  1

  0
ENDBLK
  5
1D
 67
     1
  8
0
  0
BLOCK
  8
0
  2
_FILLED
 70
     0
 10
0.0
 20
0.0
 30
0.0
  3
_FILLED
  1

  0
SOLID
  5
6F59
  8
0
  6
BYBLOCK
 62
     0
 10
0.0
 20
0.0
 30
0.0
 11
-1.0
 21
0.1666666667
 31
0.0
 12
-1.0
 22
-0.1666666667
 32
0.0
 13
-1.0
 23
-0.1666666667
 33
0.0
  0
ENDBLK
  5
6F5A
  8
0
  6
BYBLOCK
 62
     0
  0
ENDSEC
  0
SECTION
  2
ENTITIES
  0
ATTDEF
  5
3930
  8
DEFPOINTS
 10
3615.6884157211798083
 20
332.751203220293803
 30
0.0
 40
0.001
  1
K-11587
  3

  2
MODELNUMBER
 70
     0
1001
ACDBATTR
1070
     0
1070
     1
  0
ATTDEF
  5
3931
  8
DEFPOINTS
 10
3615.6884157211798083
 20
332.749536553627081
 30
0.0
 40
0.001
  1
LOURE
  3

  2
TRADENAME
 70
     0
1001
ACDBATTR
1070
     0
1070
     1
  0
ATTDEF
  5
3932
  8
DEFPOINTS
 10
3615.6884157211798083
 20
332.7478698869604727
 30
0.0
 40
0.001
  1
TOWEL RING
  3

  2
PRODUCT
 70
     0
1001
ACDBATTR
1070
     0
1070
     1
  0
LINE
  5
A8E1
  8
0
 10
3616.9683422865541615
 20
333.5883146761321996
 30
0.0
 11
3614.4171611841538834
 21
333.5883146761321996
 31
0.0
  0
ARC
  5
A8E2
  8
0
 10
3614.4174383288991521
 20
333.5801650846775033
 30
0.0
 40
0.0081543025507449
 50
91.9477181349479338
 51
178.4093722420327026
  0
LINE
  5
A8E3
  8
0
 10
3614.4092871684538295
 20
333.5803914328323003
 30
0.0
 11
3614.4092871684538295
 21
332.2989445974321825
 31
0.0
  0
LINE
  5
A8E4
  8
0
 10
3621.3581060660540061
 20
332.2989445974321825
 30
0.0
 11
3610.0273974046549483
 21
332.2989445974321825
 31
0.0
  0
ARC
  5
A8E5
  8
0
 10
3610.0273974046549483
 20
331.9249288494322059
 30
0.0
 40
0.3740157479999993
 50
90.0
 51
180.0
  0
LINE
  5
A8E6
  8
0
 10
3609.6533816566538917
 20
331.9249288494322059
 30
0.0
 11
3609.6533816566538917
 21
330.5009555674322996
 31
0.0
  0
ARC
  5
A8E7
  8
0
 10
3610.1798182606949013
 20
330.5114010056947222
 30
0.0
 40
0.5265402218771821
 50
181.1367009851888952
 51
262.8450593188937887
  0
LINE
  5
A8E8
  8
0
 10
3621.2331060646351943
 20
331.9248038921671196
 30
0.0
 11
3610.1523974060742148
 21
331.9248038921671196
 31
0.0
  0
ARC
  5
A8E9
  8
0
 10
3610.152398825804994
 20
331.7998024070741963
 30
0.0
 40
0.1250014851008898
 50
90.0006507493581154
 51
179.9420437709661087
  0
LINE
  5
A8EA
  8
0
 10
3610.0273974046549483
 20
331.7999288494322059
 30
0.0
 11
3610.0273974046549483
 21
330.6291281745321839
 31
0.0
  0
ARC
  5
A8EB
  8
0
 10
3610.2773974046540388
 20
330.6291281745321839
 30
0.0
 40
0.2500000000000003
 50
180.0
 51
264.8243895492022943
  0
ARC
  5
A8EC
  8
0
 10
3616.1805913077751029
 20
397.7700644412694828
 30
0.0
 40
67.6499473628325063
 50
264.9747792133965731
 51
269.5868231694641963
  0
ARC
  5
A8ED
  8
0
 10
3614.4289722077542137
 20
331.9387083769321976
 30
0.0
 40
0.0196850393999988
 50
224.7398116583433989
 51
270.0
  0
LINE
  5
A8EE
  8
0
 10
3614.4289722077542137
 20
331.9190233375322236
 30
0.0
 11
3616.9565312629538312
 21
331.9190233375322236
 31
0.0
  0
LINE
  5
A8EF
  8
0
 10
3610.0273974046549483
 20
331.5312280620321985
 30
0.0
 11
3609.6533816566538917
 21
331.5312280620321985
 31
0.0
  0
ARC
  5
A8F0
  8
0
 10
3616.968155989322895
 20
333.5802553677503965
 30
0.0
 40
0.0080614612974659
 50
0.9671106563696861
 51
88.6757989666439812
  0
LINE
  5
A8F1
  8
0
 10
3616.9762163022542154
 20
333.5803914328323003
 30
0.0
 11
3616.9762163022542154
 21
332.2989445974321825
 31
0.0
  0
ARC
  5
A8F2
  8
0
 10
3621.3581060660540061
 20
331.9249288494322059
 30
0.0
 40
0.3740157479999993
 50
0.0
 51
90.0
  0
LINE
  5
A8F3
  8
0
 10
3621.7321218140541532
 20
331.9249288494322059
 30
0.0
 11
3621.7321218140541532
 21
330.5009555674322996
 31
0.0
  0
ARC
  5
A8F4
  8
0
 10
3621.1742607638170739
 20
330.5396866484095995
 30
0.0
 40
0.5592039413351548
 50
279.9897881459294808
 51
356.0284515499923828
  0
ARC
  5
A8F5
  8
0
 10
3612.8692751394160041
 20
467.9093321527146827
 30
0.0
 40
138.1760553043914967
 50
271.1708580924961893
 51
273.4861021520551958
  0
ARC
  5
A8F6
  8
0
 10
3621.2331046449030509
 20
331.7998024070741963
 30
0.0
 40
0.1250014851008898
 50
0.0579562290339006
 51
89.9993492506418846
  0
LINE
  5
A8F7
  8
0
 10
3621.3581060660540061
 20
331.7999288494322059
 30
0.0
 11
3621.3581060660540061
 21
330.6291281745321839
 31
0.0
  0
ARC
  5
A8F8
  8
0
 10
3621.1081060660540061
 20
330.6291281745321839
 30
0.0
 40
0.2500000000000003
 50
275.175610450797592
 51
0.0
  0
ARC
  5
A8F9
  8
0
 10
3615.207892533831
 20
397.7073127042464762
 30
0.0
 40
67.5871758125542357
 50
270.411033955155915
 51
275.0273636619760964
  0
ARC
  5
A8FA
  8
0
 10
3616.9565312629538312
 20
331.9387083769321976
 30
0.0
 40
0.0196850393999988
 50
270.0
 51
315.2601883416566011
  0
LINE
  5
A8FB
  8
0
 10
3621.3581060660540061
 20
331.5312280620321985
 30
0.0
 11
3621.7321218140541532
 21
331.5312280620321985
 31
0.0
  0
ARC
  5
A8FC
  8
0
 10
3618.5162283312920408
 20
467.9093321527075204
 30
0.0
 40
138.1760553043841071
 50
266.5138978479446905
 51
268.8291419075038107
  0
ARC
  5
A8FE
  8
0
 10
3616.9565312629538312
 20
332.2851650698312937
 30
0.0
 40
0.0196850394010609
 50
44.4270040830499866
 51
89.9997723873799771
  0
LINE
  5
A8FF
  8
0
 10
3616.9565313411540046
 20
332.3048501092321771
 30
0.0
 11
3614.4289739065729918
 21
332.3048601501806729
 31
0.0
  0
ARC
  5
A900
  8
0
 10
3614.4289738284678606
 20
332.2851991679157209
 30
0.0
 40
0.0196609822651769
 50
89.9997723873799771
 51
135.6433782680526861
  0
ENDSEC
  0
EOF
