  0
SECTION
  2
HEADER
  9
$ACADVER
  1
AC1009
  9
$INSBASE
 10
0.0
 20
0.0
 30
0.0
  9
$EXTMIN
 10
-12.389520732968039
 20
-16.640483081315381
 30
-0.0015258207003583
  9
$EXTMAX
 10
12.387558953060759
 20
16.637538111082112
 30
0.0000000349246037
  9
$LIMMIN
 10
0.0
 20
0.0
  9
$LIMMAX
 10
12.0
 20
9.0
  9
$ORTHOMODE
 70
     0
  9
$REGENMODE
 70
     1
  9
$FILLMODE
 70
     1
  9
$QTEXTMODE
 70
     0
  9
$MIRRTEXT
 70
     1
  9
$DRAGMODE
 70
     2
  9
$LTSCALE
 40
1.0
  9
$OSMODE
 70
    37
  9
$ATTMODE
 70
     1
  9
$TEXTSIZE
 40
0.001
  9
$TRACEWID
 40
0.05
  9
$TEXTSTYLE
  7
STANDARD
  9
$CLAYER
  8
0
  9
$CELTYPE
  6
BYLAYER
  9
$CECOLOR
 62
   256
  9
$DIMSCALE
 40
1.0
  9
$DIMASZ
 40
0.18
  9
$DIMEXO
 40
0.0625
  9
$DIMDLI
 40
0.38
  9
$DIMRND
 40
0.0
  9
$DIMDLE
 40
0.0
  9
$DIMEXE
 40
0.18
  9
$DIMTP
 40
0.0
  9
$DIMTM
 40
0.0
  9
$DIMTXT
 40
0.18
  9
$DIMCEN
 40
0.09
  9
$DIMTSZ
 40
0.0
  9
$DIMTOL
 70
     0
  9
$DIMLIM
 70
     0
  9
$DIMTIH
 70
     1
  9
$DIMTOH
 70
     1
  9
$DIMSE1
 70
     0
  9
$DIMSE2
 70
     0
  9
$DIMTAD
 70
     0
  9
$DIMZIN
 70
     0
  9
$DIMBLK
  1

  9
$DIMASO
 70
     1
  9
$DIMSHO
 70
     1
  9
$DIMPOST
  1

  9
$DIMAPOST
  1

  9
$DIMALT
 70
     0
  9
$DIMALTD
 70
     2
  9
$DIMALTF
 40
25.399999999999999
  9
$DIMLFAC
 40
1.0
  9
$DIMTOFL
 70
     0
  9
$DIMTVP
 40
0.0
  9
$DIMTIX
 70
     0
  9
$DIMSOXD
 70
     0
  9
$DIMSAH
 70
     0
  9
$DIMBLK1
  1

  9
$DIMBLK2
  1

  9
$DIMSTYLE
  2
STANDARD
  9
$DIMCLRD
 70
     0
  9
$DIMCLRE
 70
     0
  9
$DIMCLRT
 70
     0
  9
$DIMTFAC
 40
1.0
  9
$DIMGAP
 40
0.09
  9
$LUNITS
 70
     2
  9
$LUPREC
 70
     4
  9
$SKETCHINC
 40
0.1
  9
$FILLETRAD
 40
0.0
  9
$AUNITS
 70
     0
  9
$AUPREC
 70
     0
  9
$MENU
  1
.
  9
$ELEVATION
 40
0.0
  9
$PELEVATION
 40
0.0
  9
$THICKNESS
 40
0.0
  9
$LIMCHECK
 70
     0
  9
$BLIPMODE
 70
     0
  9
$CHAMFERA
 40
0.5
  9
$CHAMFERB
 40
0.5
  9
$SKPOLY
 70
     0
  9
$TDCREATE
 40
2451380.5970990621
  9
$TDUPDATE
 40
2456545.4070028821
  9
$TDINDWG
 40
1.6357487731
  9
$TDUSRTIMER
 40
1.6357397337999999
  9
$USRTIMER
 70
     1
  9
$ANGBASE
 50
0.0
  9
$ANGDIR
 70
     0
  9
$PDMODE
 70
     0
  9
$PDSIZE
 40
0.0
  9
$PLINEWID
 40
0.0
  9
$COORDS
 70
     1
  9
$SPLFRAME
 70
     0
  9
$SPLINETYPE
 70
     6
  9
$SPLINESEGS
 70
     8
  9
$ATTDIA
 70
     0
  9
$ATTREQ
 70
     1
  9
$HANDLING
 70
     1
  9
$HANDSEED
  5
32C
  9
$SURFTAB1
 70
     6
  9
$SURFTAB2
 70
     6
  9
$SURFTYPE
 70
     6
  9
$SURFU
 70
     6
  9
$SURFV
 70
     6
  9
$UCSNAME
  2

  9
$UCSORG
 10
0.0
 20
0.0
 30
0.0
  9
$UCSXDIR
 10
1.0
 20
0.0
 30
0.0
  9
$UCSYDIR
 10
0.0
 20
1.0
 30
0.0
  9
$PUCSNAME
  2

  9
$PUCSORG
 10
0.0
 20
0.0
 30
0.0
  9
$PUCSXDIR
 10
1.0
 20
0.0
 30
0.0
  9
$PUCSYDIR
 10
0.0
 20
1.0
 30
0.0
  9
$USERI1
 70
     0
  9
$USERI2
 70
     0
  9
$USERI3
 70
     0
  9
$USERI4
 70
     0
  9
$USERI5
 70
     0
  9
$USERR1
 40
0.0
  9
$USERR2
 40
0.0
  9
$USERR3
 40
0.0
  9
$USERR4
 40
0.0
  9
$USERR5
 40
0.0
  9
$WORLDVIEW
 70
     1
  9
$SHADEDGE
 70
     3
  9
$SHADEDIF
 70
    70
  9
$TILEMODE
 70
     1
  9
$MAXACTVP
 70
    64
  9
$PLIMCHECK
 70
     0
  9
$PEXTMIN
 10
1.0000000000000000E+020
 20
1.0000000000000000E+020
 30
1.0000000000000000E+020
  9
$PEXTMAX
 10
-1.0000000000000000E+020
 20
-1.0000000000000000E+020
 30
-1.0000000000000000E+020
  9
$PLIMMIN
 10
0.0
 20
0.0
  9
$PLIMMAX
 10
12.0
 20
9.0
  9
$UNITMODE
 70
     0
  9
$VISRETAIN
 70
     1
  9
$PLINEGEN
 70
     0
  9
$PSLTSCALE
 70
     1
  0
ENDSEC
  0
SECTION
  2
TABLES
  0
TABLE
  2
VPORT
 70
     1
  0
VPORT
  2
*ACTIVE
 70
     0
 10
0.0
 20
0.0
 11
1.0
 21
1.0
 12
-0.0009808899536345
 22
-0.0014724851166363
 13
0.0
 23
0.0
 14
0.5
 24
0.5
 15
0.5
 25
0.5
 16
0.0
 26
0.0
 36
1.0
 17
0.0
 27
0.0
 37
0.0
 40
33.483864622453552
 41
1.976264189886481
 42
50.0
 43
0.0
 44
0.0
 50
0.0
 51
0.0
 71
     0
 72
  5500
 73
     1
 74
     1
 75
     0
 76
     0
 77
     0
 78
     0
  0
ENDTAB
  0
TABLE
  2
LTYPE
 70
     2
  0
LTYPE
  2
CONTINUOUS
 70
     0
  3
Solid line
 72
    65
 73
     0
 40
0.0
  0
LTYPE
  2
PHANTOM2
 70
     0
  3
Phantom (.5x) ___ _ _ ___ _ _ ___ _ _ ___ _ _
 72
    65
 73
     6
 40
1.25
 49
0.625
 49
-0.125
 49
0.125
 49
-0.125
 49
0.125
 49
-0.125
  0
ENDTAB
  0
TABLE
  2
LAYER
 70
     2
  0
LAYER
  2
0
 70
     0
 62
     7
  6
CONTINUOUS
  0
LAYER
  2
DEFPOINTS
 70
     0
 62
     7
  6
CONTINUOUS
  0
ENDTAB
  0
TABLE
  2
STYLE
 70
     1
  0
STYLE
  2
STANDARD
 70
     0
 40
0.0
 41
1.0
 50
0.0
 71
     0
 42
0.001
  3
txt
  4

  0
ENDTAB
  0
TABLE
  2
VIEW
 70
     0
  0
ENDTAB
  0
TABLE
  2
UCS
 70
     0
  0
ENDTAB
  0
TABLE
  2
APPID
 70
     4
  0
APPID
  2
ACAD
 70
     0
  0
APPID
  2
ACAD_NAV_VCDISPLAY
 70
     0
  0
APPID
  2
AcDbAttr
 70
     0
  0
APPID
  2
ACAD_MLEADERVER
 70
     0
  0
ENDTAB
  0
TABLE
  2
DIMSTYLE
 70
     1
  0
DIMSTYLE
  2
STANDARD
 70
     0
  3

  4

  5

  6

  7

 40
1.0
 41
0.18
 42
0.0625
 43
0.38
 44
0.18
 45
0.0
 46
0.0
 47
0.0
 48
0.0
140
0.18
141
0.09
142
0.0
143
25.399999999999999
144
1.0
145
0.0
146
1.0
147
0.09
 71
     0
 72
     0
 73
     1
 74
     1
 75
     0
 76
     0
 77
     0
 78
     0
170
     0
171
     2
172
     0
173
     0
174
     0
175
     0
176
     0
177
     0
178
     0
  0
ENDTAB
  0
ENDSEC
  0
SECTION
  2
BLOCKS
  0
BLOCK
  8
0
  2
$MODEL_SPACE
 70
     2
 10
0.0
 20
0.0
 30
0.0
  3
$MODEL_SPACE
  1

  0
ENDBLK
  5
16
  8
0
  0
BLOCK
 67
     1
  8
0
  2
$PAPER_SPACE
 70
     0
 10
0.0
 20
0.0
 30
0.0
  3
$PAPER_SPACE
  1

  0
ENDBLK
  5
1D
 67
     1
  8
0
  0
ENDSEC
  0
SECTION
  2
ENTITIES
  0
POLYLINE
  5
70
  8
0
 66
     1
 10
0.0
 20
0.0
 30
0.0
  0
VERTEX
  5
71
  8
0
 10
12.375
 20
16.60967181213206
 30
0.0
  0
VERTEX
  5
72
  8
0
 10
12.375
 20
-16.60910410147029
 30
0.0
  0
SEQEND
  5
73
  8
0
  0
POLYLINE
  5
74
  8
0
 66
     1
 10
0.0
 20
0.0
 30
0.0
  0
VERTEX
  5
75
  8
0
 10
12.375
 20
-16.625
 30
0.0
  0
VERTEX
  5
76
  8
0
 10
11.625
 20
-16.625
 30
0.0
  0
VERTEX
  5
77
  8
0
 10
11.625
 20
16.60967181213206
 30
0.0
  0
VERTEX
  5
78
  8
0
 10
12.375
 20
16.60967181213206
 30
0.0
  0
VERTEX
  5
79
  8
0
 10
12.375
 20
-16.625
 30
0.0
  0
SEQEND
  5
7A
  8
0
  0
POLYLINE
  5
7B
  8
0
 66
     1
 10
0.0
 20
0.0
 30
0.0
  0
VERTEX
  5
7C
  8
0
 10
12.22008249988161
 20
16.625
 30
0.0
  0
VERTEX
  5
7D
  8
0
 10
11.77991750011844
 20
16.625
 30
0.0
  0
SEQEND
  5
7E
  8
0
  0
POLYLINE
  8
0
  5
124
  66
     1
 10
0.000000
 20
0.000000
 30
0.000000
  70
     8
  0
VERTEX
  8
0
  5
125
 10
11.7799
 20
16.6250
 30
0.000000
  70
    32
  0
VERTEX
  8
0
  5
126
 10
11.7797
 20
16.6250
 30
0.000000
  70
    32
  0
VERTEX
  8
0
  5
127
 10
11.7794
 20
16.6250
 30
0.000000
  70
    32
  0
VERTEX
  8
0
  5
128
 10
11.7791
 20
16.6250
 30
0.000000
  70
    32
  0
VERTEX
  8
0
  5
129
 10
11.7789
 20
16.6250
 30
0.000000
  70
    32
  0
VERTEX
  8
0
  5
12A
 10
11.7786
 20
16.6250
 30
0.000000
  70
    32
  0
VERTEX
  8
0
  5
12B
 10
11.7783
 20
16.6250
 30
0.000000
  70
    32
  0
VERTEX
  8
0
  5
12C
 10
11.7781
 20
16.6249
 30
0.000000
  70
    32
  0
VERTEX
  8
0
  5
12D
 10
11.7778
 20
16.6249
 30
0.000000
  70
    32
  0
VERTEX
  8
0
  5
12E
 10
11.7776
 20
16.6249
 30
0.000000
  70
    32
  0
VERTEX
  8
0
  5
12F
 10
11.7773
 20
16.6249
 30
0.000000
  70
    32
  0
VERTEX
  8
0
  5
130
 10
11.7770
 20
16.6249
 30
0.000000
  70
    32
  0
VERTEX
  8
0
  5
131
 10
11.7768
 20
16.6248
 30
0.000000
  70
    32
  0
VERTEX
  8
0
  5
132
 10
11.7765
 20
16.6248
 30
0.000000
  70
    32
  0
VERTEX
  8
0
  5
133
 10
11.7763
 20
16.6248
 30
0.000000
  70
    32
  0
VERTEX
  8
0
  5
134
 10
11.7760
 20
16.6248
 30
0.000000
  70
    32
  0
VERTEX
  8
0
  5
135
 10
11.7757
 20
16.6247
 30
0.000000
  70
    32
  0
VERTEX
  8
0
  5
136
 10
11.7755
 20
16.6247
 30
0.000000
  70
    32
  0
VERTEX
  8
0
  5
137
 10
11.7752
 20
16.6247
 30
0.000000
  70
    32
  0
VERTEX
  8
0
  5
138
 10
11.7750
 20
16.6246
 30
0.000000
  70
    32
  0
VERTEX
  8
0
  5
139
 10
11.7747
 20
16.6246
 30
0.000000
  70
    32
  0
VERTEX
  8
0
  5
13A
 10
11.7745
 20
16.6245
 30
0.000000
  70
    32
  0
VERTEX
  8
0
  5
13B
 10
11.7742
 20
16.6245
 30
0.000000
  70
    32
  0
VERTEX
  8
0
  5
13C
 10
11.7740
 20
16.6244
 30
0.000000
  70
    32
  0
VERTEX
  8
0
  5
13D
 10
11.7737
 20
16.6244
 30
0.000000
  70
    32
  0
VERTEX
  8
0
  5
13E
 10
11.7735
 20
16.6243
 30
0.000000
  70
    32
  0
VERTEX
  8
0
  5
13F
 10
11.7732
 20
16.6243
 30
0.000000
  70
    32
  0
VERTEX
  8
0
  5
140
 10
11.7730
 20
16.6242
 30
0.000000
  70
    32
  0
VERTEX
  8
0
  5
141
 10
11.7727
 20
16.6242
 30
0.000000
  70
    32
  0
VERTEX
  8
0
  5
142
 10
11.7725
 20
16.6241
 30
0.000000
  70
    32
  0
VERTEX
  8
0
  5
143
 10
11.7722
 20
16.6240
 30
0.000000
  70
    32
  0
VERTEX
  8
0
  5
144
 10
11.7720
 20
16.6240
 30
0.000000
  70
    32
  0
VERTEX
  8
0
  5
145
 10
11.7717
 20
16.6239
 30
0.000000
  70
    32
  0
VERTEX
  8
0
  5
146
 10
11.7715
 20
16.6239
 30
0.000000
  70
    32
  0
VERTEX
  8
0
  5
147
 10
11.7712
 20
16.6238
 30
0.000000
  70
    32
  0
VERTEX
  8
0
  5
148
 10
11.7710
 20
16.6237
 30
0.000000
  70
    32
  0
VERTEX
  8
0
  5
149
 10
11.7707
 20
16.6236
 30
0.000000
  70
    32
  0
VERTEX
  8
0
  5
14A
 10
11.7705
 20
16.6236
 30
0.000000
  70
    32
  0
VERTEX
  8
0
  5
14B
 10
11.7702
 20
16.6235
 30
0.000000
  70
    32
  0
VERTEX
  8
0
  5
14C
 10
11.7700
 20
16.6234
 30
0.000000
  70
    32
  0
VERTEX
  8
0
  5
14D
 10
11.7698
 20
16.6233
 30
0.000000
  70
    32
  0
VERTEX
  8
0
  5
14E
 10
11.7695
 20
16.6232
 30
0.000000
  70
    32
  0
VERTEX
  8
0
  5
14F
 10
11.7693
 20
16.6232
 30
0.000000
  70
    32
  0
VERTEX
  8
0
  5
150
 10
11.7690
 20
16.6231
 30
0.000000
  70
    32
  0
VERTEX
  8
0
  5
151
 10
11.7688
 20
16.6230
 30
0.000000
  70
    32
  0
VERTEX
  8
0
  5
152
 10
11.7686
 20
16.6229
 30
0.000000
  70
    32
  0
VERTEX
  8
0
  5
153
 10
11.7683
 20
16.6228
 30
0.000000
  70
    32
  0
VERTEX
  8
0
  5
154
 10
11.7681
 20
16.6227
 30
0.000000
  70
    32
  0
VERTEX
  8
0
  5
155
 10
11.7679
 20
16.6226
 30
0.000000
  70
    32
  0
VERTEX
  8
0
  5
156
 10
11.7676
 20
16.6225
 30
0.000000
  70
    32
  0
VERTEX
  8
0
  5
157
 10
11.7674
 20
16.6224
 30
0.000000
  70
    32
  0
VERTEX
  8
0
  5
158
 10
11.7672
 20
16.6223
 30
0.000000
  70
    32
  0
VERTEX
  8
0
  5
159
 10
11.7669
 20
16.6222
 30
0.000000
  70
    32
  0
VERTEX
  8
0
  5
15A
 10
11.7667
 20
16.6221
 30
0.000000
  70
    32
  0
VERTEX
  8
0
  5
15B
 10
11.7665
 20
16.6220
 30
0.000000
  70
    32
  0
VERTEX
  8
0
  5
15C
 10
11.7662
 20
16.6219
 30
0.000000
  70
    32
  0
VERTEX
  8
0
  5
15D
 10
11.7660
 20
16.6218
 30
0.000000
  70
    32
  0
VERTEX
  8
0
  5
15E
 10
11.7658
 20
16.6217
 30
0.000000
  70
    32
  0
VERTEX
  8
0
  5
15F
 10
11.7656
 20
16.6215
 30
0.000000
  70
    32
  0
VERTEX
  8
0
  5
160
 10
11.7653
 20
16.6214
 30
0.000000
  70
    32
  0
VERTEX
  8
0
  5
161
 10
11.7651
 20
16.6213
 30
0.000000
  70
    32
  0
VERTEX
  8
0
  5
162
 10
11.7649
 20
16.6212
 30
0.000000
  70
    32
  0
VERTEX
  8
0
  5
163
 10
11.7647
 20
16.6211
 30
0.000000
  70
    32
  0
VERTEX
  8
0
  5
164
 10
11.7644
 20
16.6209
 30
0.000000
  70
    32
  0
VERTEX
  8
0
  5
165
 10
11.7642
 20
16.6208
 30
0.000000
  70
    32
  0
VERTEX
  8
0
  5
166
 10
11.7640
 20
16.6207
 30
0.000000
  70
    32
  0
VERTEX
  8
0
  5
167
 10
11.7638
 20
16.6206
 30
0.000000
  70
    32
  0
VERTEX
  8
0
  5
168
 10
11.7636
 20
16.6204
 30
0.000000
  70
    32
  0
VERTEX
  8
0
  5
169
 10
11.7633
 20
16.6203
 30
0.000000
  70
    32
  0
VERTEX
  8
0
  5
16A
 10
11.7631
 20
16.6202
 30
0.000000
  70
    32
  0
VERTEX
  8
0
  5
16B
 10
11.7629
 20
16.6200
 30
0.000000
  70
    32
  0
VERTEX
  8
0
  5
16C
 10
11.7627
 20
16.6199
 30
0.000000
  70
    32
  0
VERTEX
  8
0
  5
16D
 10
11.7625
 20
16.6198
 30
0.000000
  70
    32
  0
VERTEX
  8
0
  5
16E
 10
11.7623
 20
16.6196
 30
0.000000
  70
    32
  0
VERTEX
  8
0
  5
16F
 10
11.7621
 20
16.6195
 30
0.000000
  70
    32
  0
VERTEX
  8
0
  5
170
 10
11.7619
 20
16.6193
 30
0.000000
  70
    32
  0
VERTEX
  8
0
  5
171
 10
11.7617
 20
16.6192
 30
0.000000
  70
    32
  0
VERTEX
  8
0
  5
172
 10
11.7615
 20
16.6190
 30
0.000000
  70
    32
  0
VERTEX
  8
0
  5
173
 10
11.7612
 20
16.6189
 30
0.000000
  70
    32
  0
VERTEX
  8
0
  5
174
 10
11.7610
 20
16.6187
 30
0.000000
  70
    32
  0
VERTEX
  8
0
  5
175
 10
11.7608
 20
16.6186
 30
0.000000
  70
    32
  0
VERTEX
  8
0
  5
176
 10
11.7606
 20
16.6184
 30
0.000000
  70
    32
  0
VERTEX
  8
0
  5
177
 10
11.7604
 20
16.6183
 30
0.000000
  70
    32
  0
VERTEX
  8
0
  5
178
 10
11.7602
 20
16.6181
 30
0.000000
  70
    32
  0
VERTEX
  8
0
  5
179
 10
11.7600
 20
16.6180
 30
0.000000
  70
    32
  0
VERTEX
  8
0
  5
17A
 10
11.7598
 20
16.6178
 30
0.000000
  70
    32
  0
VERTEX
  8
0
  5
17B
 10
11.7597
 20
16.6176
 30
0.000000
  70
    32
  0
VERTEX
  8
0
  5
17C
 10
11.7595
 20
16.6175
 30
0.000000
  70
    32
  0
VERTEX
  8
0
  5
17D
 10
11.7593
 20
16.6173
 30
0.000000
  70
    32
  0
VERTEX
  8
0
  5
17E
 10
11.7591
 20
16.6171
 30
0.000000
  70
    32
  0
VERTEX
  8
0
  5
17F
 10
11.7589
 20
16.6170
 30
0.000000
  70
    32
  0
VERTEX
  8
0
  5
180
 10
11.7587
 20
16.6168
 30
0.000000
  70
    32
  0
VERTEX
  8
0
  5
181
 10
11.7585
 20
16.6166
 30
0.000000
  70
    32
  0
VERTEX
  8
0
  5
182
 10
11.7583
 20
16.6165
 30
0.000000
  70
    32
  0
VERTEX
  8
0
  5
183
 10
11.7581
 20
16.6163
 30
0.000000
  70
    32
  0
VERTEX
  8
0
  5
184
 10
11.7580
 20
16.6161
 30
0.000000
  70
    32
  0
VERTEX
  8
0
  5
185
 10
11.7578
 20
16.6159
 30
0.000000
  70
    32
  0
VERTEX
  8
0
  5
186
 10
11.7576
 20
16.6157
 30
0.000000
  70
    32
  0
VERTEX
  8
0
  5
187
 10
11.7574
 20
16.6156
 30
0.000000
  70
    32
  0
VERTEX
  8
0
  5
188
 10
11.7572
 20
16.6154
 30
0.000000
  70
    32
  0
VERTEX
  8
0
  5
189
 10
11.7571
 20
16.6152
 30
0.000000
  70
    32
  0
VERTEX
  8
0
  5
18A
 10
11.7569
 20
16.6150
 30
0.000000
  70
    32
  0
VERTEX
  8
0
  5
18B
 10
11.7567
 20
16.6148
 30
0.000000
  70
    32
  0
VERTEX
  8
0
  5
18C
 10
11.7565
 20
16.6146
 30
0.000000
  70
    32
  0
VERTEX
  8
0
  5
18D
 10
11.7564
 20
16.6144
 30
0.000000
  70
    32
  0
VERTEX
  8
0
  5
18E
 10
11.7562
 20
16.6143
 30
0.000000
  70
    32
  0
VERTEX
  8
0
  5
18F
 10
11.7560
 20
16.6141
 30
0.000000
  70
    32
  0
VERTEX
  8
0
  5
190
 10
11.7559
 20
16.6139
 30
0.000000
  70
    32
  0
VERTEX
  8
0
  5
191
 10
11.7557
 20
16.6137
 30
0.000000
  70
    32
  0
VERTEX
  8
0
  5
192
 10
11.7555
 20
16.6135
 30
0.000000
  70
    32
  0
VERTEX
  8
0
  5
193
 10
11.7554
 20
16.6133
 30
0.000000
  70
    32
  0
VERTEX
  8
0
  5
194
 10
11.7552
 20
16.6131
 30
0.000000
  70
    32
  0
VERTEX
  8
0
  5
195
 10
11.7551
 20
16.6129
 30
0.000000
  70
    32
  0
VERTEX
  8
0
  5
196
 10
11.7549
 20
16.6127
 30
0.000000
  70
    32
  0
VERTEX
  8
0
  5
197
 10
11.7547
 20
16.6125
 30
0.000000
  70
    32
  0
VERTEX
  8
0
  5
198
 10
11.7546
 20
16.6123
 30
0.000000
  70
    32
  0
VERTEX
  8
0
  5
199
 10
11.7544
 20
16.6120
 30
0.000000
  70
    32
  0
VERTEX
  8
0
  5
19A
 10
11.7543
 20
16.6118
 30
0.000000
  70
    32
  0
VERTEX
  8
0
  5
19B
 10
11.7541
 20
16.6116
 30
0.000000
  70
    32
  0
VERTEX
  8
0
  5
19C
 10
11.7540
 20
16.6114
 30
0.000000
  70
    32
  0
VERTEX
  8
0
  5
19D
 10
11.7538
 20
16.6112
 30
0.000000
  70
    32
  0
VERTEX
  8
0
  5
19E
 10
11.7537
 20
16.6110
 30
0.000000
  70
    32
  0
VERTEX
  8
0
  5
19F
 10
11.7535
 20
16.6108
 30
0.000000
  70
    32
  0
VERTEX
  8
0
  5
1A0
 10
11.7534
 20
16.6106
 30
0.000000
  70
    32
  0
VERTEX
  8
0
  5
1A1
 10
11.7533
 20
16.6103
 30
0.000000
  70
    32
  0
VERTEX
  8
0
  5
1A2
 10
11.7531
 20
16.6101
 30
0.000000
  70
    32
  0
VERTEX
  8
0
  5
1A3
 10
11.7530
 20
16.6099
 30
0.000000
  70
    32
  0
VERTEX
  8
0
  5
1A4
 10
11.7529
 20
16.6097
 30
0.000000
  70
    32
  0
SEQEND
  8
0
  5
1A5
  0
POLYLINE
  8
0
  5
1A6
  66
     1
 10
0.000000
 20
0.000000
 30
0.000000
  70
     8
  0
VERTEX
  8
0
  5
1A7
 10
12.2471
 20
16.6097
 30
0.000000
  70
    32
  0
VERTEX
  8
0
  5
1A8
 10
12.2470
 20
16.6099
 30
0.000000
  70
    32
  0
VERTEX
  8
0
  5
1A9
 10
12.2469
 20
16.6101
 30
0.000000
  70
    32
  0
VERTEX
  8
0
  5
1AA
 10
12.2468
 20
16.6103
 30
0.000000
  70
    32
  0
VERTEX
  8
0
  5
1AB
 10
12.2466
 20
16.6106
 30
0.000000
  70
    32
  0
VERTEX
  8
0
  5
1AC
 10
12.2465
 20
16.6108
 30
0.000000
  70
    32
  0
VERTEX
  8
0
  5
1AD
 10
12.2464
 20
16.6110
 30
0.000000
  70
    32
  0
VERTEX
  8
0
  5
1AE
 10
12.2462
 20
16.6112
 30
0.000000
  70
    32
  0
VERTEX
  8
0
  5
1AF
 10
12.2461
 20
16.6114
 30
0.000000
  70
    32
  0
VERTEX
  8
0
  5
1B0
 10
12.2459
 20
16.6116
 30
0.000000
  70
    32
  0
VERTEX
  8
0
  5
1B1
 10
12.2458
 20
16.6118
 30
0.000000
  70
    32
  0
VERTEX
  8
0
  5
1B2
 10
12.2457
 20
16.6120
 30
0.000000
  70
    32
  0
VERTEX
  8
0
  5
1B3
 10
12.2455
 20
16.6123
 30
0.000000
  70
    32
  0
VERTEX
  8
0
  5
1B4
 10
12.2454
 20
16.6125
 30
0.000000
  70
    32
  0
VERTEX
  8
0
  5
1B5
 10
12.2452
 20
16.6127
 30
0.000000
  70
    32
  0
VERTEX
  8
0
  5
1B6
 10
12.2451
 20
16.6129
 30
0.000000
  70
    32
  0
VERTEX
  8
0
  5
1B7
 10
12.2449
 20
16.6131
 30
0.000000
  70
    32
  0
VERTEX
  8
0
  5
1B8
 10
12.2447
 20
16.6133
 30
0.000000
  70
    32
  0
VERTEX
  8
0
  5
1B9
 10
12.2446
 20
16.6135
 30
0.000000
  70
    32
  0
VERTEX
  8
0
  5
1BA
 10
12.2444
 20
16.6137
 30
0.000000
  70
    32
  0
VERTEX
  8
0
  5
1BB
 10
12.2443
 20
16.6139
 30
0.000000
  70
    32
  0
VERTEX
  8
0
  5
1BC
 10
12.2441
 20
16.6141
 30
0.000000
  70
    32
  0
VERTEX
  8
0
  5
1BD
 10
12.2439
 20
16.6143
 30
0.000000
  70
    32
  0
VERTEX
  8
0
  5
1BE
 10
12.2438
 20
16.6144
 30
0.000000
  70
    32
  0
VERTEX
  8
0
  5
1BF
 10
12.2436
 20
16.6146
 30
0.000000
  70
    32
  0
VERTEX
  8
0
  5
1C0
 10
12.2434
 20
16.6148
 30
0.000000
  70
    32
  0
VERTEX
  8
0
  5
1C1
 10
12.2433
 20
16.6150
 30
0.000000
  70
    32
  0
VERTEX
  8
0
  5
1C2
 10
12.2431
 20
16.6152
 30
0.000000
  70
    32
  0
VERTEX
  8
0
  5
1C3
 10
12.2429
 20
16.6154
 30
0.000000
  70
    32
  0
VERTEX
  8
0
  5
1C4
 10
12.2427
 20
16.6156
 30
0.000000
  70
    32
  0
VERTEX
  8
0
  5
1C5
 10
12.2426
 20
16.6157
 30
0.000000
  70
    32
  0
VERTEX
  8
0
  5
1C6
 10
12.2424
 20
16.6159
 30
0.000000
  70
    32
  0
VERTEX
  8
0
  5
1C7
 10
12.2422
 20
16.6161
 30
0.000000
  70
    32
  0
VERTEX
  8
0
  5
1C8
 10
12.2420
 20
16.6163
 30
0.000000
  70
    32
  0
VERTEX
  8
0
  5
1C9
 10
12.2418
 20
16.6165
 30
0.000000
  70
    32
  0
VERTEX
  8
0
  5
1CA
 10
12.2417
 20
16.6166
 30
0.000000
  70
    32
  0
VERTEX
  8
0
  5
1CB
 10
12.2415
 20
16.6168
 30
0.000000
  70
    32
  0
VERTEX
  8
0
  5
1CC
 10
12.2413
 20
16.6170
 30
0.000000
  70
    32
  0
VERTEX
  8
0
  5
1CD
 10
12.2411
 20
16.6171
 30
0.000000
  70
    32
  0
VERTEX
  8
0
  5
1CE
 10
12.2409
 20
16.6173
 30
0.000000
  70
    32
  0
VERTEX
  8
0
  5
1CF
 10
12.2407
 20
16.6175
 30
0.000000
  70
    32
  0
VERTEX
  8
0
  5
1D0
 10
12.2405
 20
16.6176
 30
0.000000
  70
    32
  0
VERTEX
  8
0
  5
1D1
 10
12.2403
 20
16.6178
 30
0.000000
  70
    32
  0
VERTEX
  8
0
  5
1D2
 10
12.2401
 20
16.6180
 30
0.000000
  70
    32
  0
VERTEX
  8
0
  5
1D3
 10
12.2399
 20
16.6181
 30
0.000000
  70
    32
  0
VERTEX
  8
0
  5
1D4
 10
12.2397
 20
16.6183
 30
0.000000
  70
    32
  0
VERTEX
  8
0
  5
1D5
 10
12.2395
 20
16.6184
 30
0.000000
  70
    32
  0
VERTEX
  8
0
  5
1D6
 10
12.2393
 20
16.6186
 30
0.000000
  70
    32
  0
VERTEX
  8
0
  5
1D7
 10
12.2391
 20
16.6187
 30
0.000000
  70
    32
  0
VERTEX
  8
0
  5
1D8
 10
12.2389
 20
16.6189
 30
0.000000
  70
    32
  0
VERTEX
  8
0
  5
1D9
 10
12.2387
 20
16.6190
 30
0.000000
  70
    32
  0
VERTEX
  8
0
  5
1DA
 10
12.2385
 20
16.6192
 30
0.000000
  70
    32
  0
VERTEX
  8
0
  5
1DB
 10
12.2383
 20
16.6193
 30
0.000000
  70
    32
  0
VERTEX
  8
0
  5
1DC
 10
12.2381
 20
16.6195
 30
0.000000
  70
    32
  0
VERTEX
  8
0
  5
1DD
 10
12.2379
 20
16.6196
 30
0.000000
  70
    32
  0
VERTEX
  8
0
  5
1DE
 10
12.2377
 20
16.6198
 30
0.000000
  70
    32
  0
VERTEX
  8
0
  5
1DF
 10
12.2375
 20
16.6199
 30
0.000000
  70
    32
  0
VERTEX
  8
0
  5
1E0
 10
12.2373
 20
16.6200
 30
0.000000
  70
    32
  0
VERTEX
  8
0
  5
1E1
 10
12.2370
 20
16.6202
 30
0.000000
  70
    32
  0
VERTEX
  8
0
  5
1E2
 10
12.2368
 20
16.6203
 30
0.000000
  70
    32
  0
VERTEX
  8
0
  5
1E3
 10
12.2366
 20
16.6204
 30
0.000000
  70
    32
  0
VERTEX
  8
0
  5
1E4
 10
12.2364
 20
16.6206
 30
0.000000
  70
    32
  0
VERTEX
  8
0
  5
1E5
 10
12.2362
 20
16.6207
 30
0.000000
  70
    32
  0
VERTEX
  8
0
  5
1E6
 10
12.2359
 20
16.6208
 30
0.000000
  70
    32
  0
VERTEX
  8
0
  5
1E7
 10
12.2357
 20
16.6209
 30
0.000000
  70
    32
  0
VERTEX
  8
0
  5
1E8
 10
12.2355
 20
16.6211
 30
0.000000
  70
    32
  0
VERTEX
  8
0
  5
1E9
 10
12.2353
 20
16.6212
 30
0.000000
  70
    32
  0
VERTEX
  8
0
  5
1EA
 10
12.2351
 20
16.6213
 30
0.000000
  70
    32
  0
VERTEX
  8
0
  5
1EB
 10
12.2348
 20
16.6214
 30
0.000000
  70
    32
  0
VERTEX
  8
0
  5
1EC
 10
12.2346
 20
16.6215
 30
0.000000
  70
    32
  0
VERTEX
  8
0
  5
1ED
 10
12.2344
 20
16.6217
 30
0.000000
  70
    32
  0
VERTEX
  8
0
  5
1EE
 10
12.2341
 20
16.6218
 30
0.000000
  70
    32
  0
VERTEX
  8
0
  5
1EF
 10
12.2339
 20
16.6219
 30
0.000000
  70
    32
  0
VERTEX
  8
0
  5
1F0
 10
12.2337
 20
16.6220
 30
0.000000
  70
    32
  0
VERTEX
  8
0
  5
1F1
 10
12.2335
 20
16.6221
 30
0.000000
  70
    32
  0
VERTEX
  8
0
  5
1F2
 10
12.2332
 20
16.6222
 30
0.000000
  70
    32
  0
VERTEX
  8
0
  5
1F3
 10
12.2330
 20
16.6223
 30
0.000000
  70
    32
  0
VERTEX
  8
0
  5
1F4
 10
12.2328
 20
16.6224
 30
0.000000
  70
    32
  0
VERTEX
  8
0
  5
1F5
 10
12.2325
 20
16.6225
 30
0.000000
  70
    32
  0
VERTEX
  8
0
  5
1F6
 10
12.2323
 20
16.6226
 30
0.000000
  70
    32
  0
VERTEX
  8
0
  5
1F7
 10
12.2321
 20
16.6227
 30
0.000000
  70
    32
  0
VERTEX
  8
0
  5
1F8
 10
12.2318
 20
16.6228
 30
0.000000
  70
    32
  0
VERTEX
  8
0
  5
1F9
 10
12.2316
 20
16.6229
 30
0.000000
  70
    32
  0
VERTEX
  8
0
  5
1FA
 10
12.2313
 20
16.6230
 30
0.000000
  70
    32
  0
VERTEX
  8
0
  5
1FB
 10
12.2311
 20
16.6231
 30
0.000000
  70
    32
  0
VERTEX
  8
0
  5
1FC
 10
12.2309
 20
16.6232
 30
0.000000
  70
    32
  0
VERTEX
  8
0
  5
1FD
 10
12.2306
 20
16.6232
 30
0.000000
  70
    32
  0
VERTEX
  8
0
  5
1FE
 10
12.2304
 20
16.6233
 30
0.000000
  70
    32
  0
VERTEX
  8
0
  5
1FF
 10
12.2301
 20
16.6234
 30
0.000000
  70
    32
  0
VERTEX
  8
0
  5
200
 10
12.2299
 20
16.6235
 30
0.000000
  70
    32
  0
VERTEX
  8
0
  5
201
 10
12.2296
 20
16.6236
 30
0.000000
  70
    32
  0
VERTEX
  8
0
  5
202
 10
12.2294
 20
16.6236
 30
0.000000
  70
    32
  0
VERTEX
  8
0
  5
203
 10
12.2292
 20
16.6237
 30
0.000000
  70
    32
  0
VERTEX
  8
0
  5
204
 10
12.2289
 20
16.6238
 30
0.000000
  70
    32
  0
VERTEX
  8
0
  5
205
 10
12.2287
 20
16.6239
 30
0.000000
  70
    32
  0
VERTEX
  8
0
  5
206
 10
12.2284
 20
16.6239
 30
0.000000
  70
    32
  0
VERTEX
  8
0
  5
207
 10
12.2282
 20
16.6240
 30
0.000000
  70
    32
  0
VERTEX
  8
0
  5
208
 10
12.2279
 20
16.6240
 30
0.000000
  70
    32
  0
VERTEX
  8
0
  5
209
 10
12.2277
 20
16.6241
 30
0.000000
  70
    32
  0
VERTEX
  8
0
  5
20A
 10
12.2274
 20
16.6242
 30
0.000000
  70
    32
  0
VERTEX
  8
0
  5
20B
 10
12.2272
 20
16.6242
 30
0.000000
  70
    32
  0
VERTEX
  8
0
  5
20C
 10
12.2269
 20
16.6243
 30
0.000000
  70
    32
  0
VERTEX
  8
0
  5
20D
 10
12.2267
 20
16.6243
 30
0.000000
  70
    32
  0
VERTEX
  8
0
  5
20E
 10
12.2264
 20
16.6244
 30
0.000000
  70
    32
  0
VERTEX
  8
0
  5
20F
 10
12.2262
 20
16.6244
 30
0.000000
  70
    32
  0
VERTEX
  8
0
  5
210
 10
12.2259
 20
16.6245
 30
0.000000
  70
    32
  0
VERTEX
  8
0
  5
211
 10
12.2257
 20
16.6245
 30
0.000000
  70
    32
  0
VERTEX
  8
0
  5
212
 10
12.2254
 20
16.6246
 30
0.000000
  70
    32
  0
VERTEX
  8
0
  5
213
 10
12.2252
 20
16.6246
 30
0.000000
  70
    32
  0
VERTEX
  8
0
  5
214
 10
12.2249
 20
16.6247
 30
0.000000
  70
    32
  0
VERTEX
  8
0
  5
215
 10
12.2246
 20
16.6247
 30
0.000000
  70
    32
  0
VERTEX
  8
0
  5
216
 10
12.2244
 20
16.6247
 30
0.000000
  70
    32
  0
VERTEX
  8
0
  5
217
 10
12.2241
 20
16.6248
 30
0.000000
  70
    32
  0
VERTEX
  8
0
  5
218
 10
12.2239
 20
16.6248
 30
0.000000
  70
    32
  0
VERTEX
  8
0
  5
219
 10
12.2236
 20
16.6248
 30
0.000000
  70
    32
  0
VERTEX
  8
0
  5
21A
 10
12.2234
 20
16.6248
 30
0.000000
  70
    32
  0
VERTEX
  8
0
  5
21B
 10
12.2231
 20
16.6249
 30
0.000000
  70
    32
  0
VERTEX
  8
0
  5
21C
 10
12.2229
 20
16.6249
 30
0.000000
  70
    32
  0
VERTEX
  8
0
  5
21D
 10
12.2226
 20
16.6249
 30
0.000000
  70
    32
  0
VERTEX
  8
0
  5
21E
 10
12.2223
 20
16.6249
 30
0.000000
  70
    32
  0
VERTEX
  8
0
  5
21F
 10
12.2221
 20
16.6249
 30
0.000000
  70
    32
  0
VERTEX
  8
0
  5
220
 10
12.2218
 20
16.6250
 30
0.000000
  70
    32
  0
VERTEX
  8
0
  5
221
 10
12.2216
 20
16.6250
 30
0.000000
  70
    32
  0
VERTEX
  8
0
  5
222
 10
12.2213
 20
16.6250
 30
0.000000
  70
    32
  0
VERTEX
  8
0
  5
223
 10
12.2210
 20
16.6250
 30
0.000000
  70
    32
  0
VERTEX
  8
0
  5
224
 10
12.2208
 20
16.6250
 30
0.000000
  70
    32
  0
VERTEX
  8
0
  5
225
 10
12.2205
 20
16.6250
 30
0.000000
  70
    32
  0
VERTEX
  8
0
  5
226
 10
12.2203
 20
16.6250
 30
0.000000
  70
    32
  0
SEQEND
  8
0
  5
227
  0
POLYLINE
  5
81
  8
0
 66
     1
 10
0.0
 20
0.0
 30
0.0
  0
VERTEX
  5
82
  8
0
 10
-12.375
 20
16.60967181213206
 30
0.0
  0
VERTEX
  5
83
  8
0
 10
-12.375
 20
-16.60910410147029
 30
0.0
  0
SEQEND
  5
84
  8
0
  0
POLYLINE
  5
85
  8
0
 66
     1
 10
0.0
 20
0.0
 30
0.0
  0
VERTEX
  5
86
  8
0
 10
-12.375
 20
-16.625
 30
0.0
  0
VERTEX
  5
87
  8
0
 10
-11.625
 20
-16.625
 30
0.0
  0
VERTEX
  5
88
  8
0
 10
-11.625
 20
16.60967181213206
 30
0.0
  0
VERTEX
  5
89
  8
0
 10
-12.375
 20
16.60967181213206
 30
0.0
  0
VERTEX
  5
8A
  8
0
 10
-12.375
 20
-16.625
 30
0.0
  0
SEQEND
  5
8B
  8
0
  0
POLYLINE
  5
8C
  8
0
 66
     1
 10
0.0
 20
0.0
 30
0.0
  0
VERTEX
  5
8D
  8
0
 10
-12.22008249988161
 20
16.625
 30
0.0
  0
VERTEX
  5
8E
  8
0
 10
-11.77991750011844
 20
16.625
 30
0.0
  0
SEQEND
  5
8F
  8
0
  0
POLYLINE
  8
0
  5
228
  66
     1
 10
0.000000
 20
0.000000
 30
0.000000
  70
     8
  0
VERTEX
  8
0
  5
229
 10
-11.7799
 20
16.6250
 30
0.000000
  70
    32
  0
VERTEX
  8
0
  5
22A
 10
-11.7797
 20
16.6250
 30
0.000000
  70
    32
  0
VERTEX
  8
0
  5
22B
 10
-11.7794
 20
16.6250
 30
0.000000
  70
    32
  0
VERTEX
  8
0
  5
22C
 10
-11.7791
 20
16.6250
 30
0.000000
  70
    32
  0
VERTEX
  8
0
  5
22D
 10
-11.7789
 20
16.6250
 30
0.000000
  70
    32
  0
VERTEX
  8
0
  5
22E
 10
-11.7786
 20
16.6250
 30
0.000000
  70
    32
  0
VERTEX
  8
0
  5
22F
 10
-11.7783
 20
16.6250
 30
0.000000
  70
    32
  0
VERTEX
  8
0
  5
230
 10
-11.7781
 20
16.6249
 30
0.000000
  70
    32
  0
VERTEX
  8
0
  5
231
 10
-11.7778
 20
16.6249
 30
0.000000
  70
    32
  0
VERTEX
  8
0
  5
232
 10
-11.7776
 20
16.6249
 30
0.000000
  70
    32
  0
VERTEX
  8
0
  5
233
 10
-11.7773
 20
16.6249
 30
0.000000
  70
    32
  0
VERTEX
  8
0
  5
234
 10
-11.7770
 20
16.6249
 30
0.000000
  70
    32
  0
VERTEX
  8
0
  5
235
 10
-11.7768
 20
16.6248
 30
0.000000
  70
    32
  0
VERTEX
  8
0
  5
236
 10
-11.7765
 20
16.6248
 30
0.000000
  70
    32
  0
VERTEX
  8
0
  5
237
 10
-11.7763
 20
16.6248
 30
0.000000
  70
    32
  0
VERTEX
  8
0
  5
238
 10
-11.7760
 20
16.6248
 30
0.000000
  70
    32
  0
VERTEX
  8
0
  5
239
 10
-11.7757
 20
16.6247
 30
0.000000
  70
    32
  0
VERTEX
  8
0
  5
23A
 10
-11.7755
 20
16.6247
 30
0.000000
  70
    32
  0
VERTEX
  8
0
  5
23B
 10
-11.7752
 20
16.6247
 30
0.000000
  70
    32
  0
VERTEX
  8
0
  5
23C
 10
-11.7750
 20
16.6246
 30
0.000000
  70
    32
  0
VERTEX
  8
0
  5
23D
 10
-11.7747
 20
16.6246
 30
0.000000
  70
    32
  0
VERTEX
  8
0
  5
23E
 10
-11.7745
 20
16.6245
 30
0.000000
  70
    32
  0
VERTEX
  8
0
  5
23F
 10
-11.7742
 20
16.6245
 30
0.000000
  70
    32
  0
VERTEX
  8
0
  5
240
 10
-11.7740
 20
16.6244
 30
0.000000
  70
    32
  0
VERTEX
  8
0
  5
241
 10
-11.7737
 20
16.6244
 30
0.000000
  70
    32
  0
VERTEX
  8
0
  5
242
 10
-11.7735
 20
16.6243
 30
0.000000
  70
    32
  0
VERTEX
  8
0
  5
243
 10
-11.7732
 20
16.6243
 30
0.000000
  70
    32
  0
VERTEX
  8
0
  5
244
 10
-11.7730
 20
16.6242
 30
0.000000
  70
    32
  0
VERTEX
  8
0
  5
245
 10
-11.7727
 20
16.6242
 30
0.000000
  70
    32
  0
VERTEX
  8
0
  5
246
 10
-11.7725
 20
16.6241
 30
0.000000
  70
    32
  0
VERTEX
  8
0
  5
247
 10
-11.7722
 20
16.6240
 30
0.000000
  70
    32
  0
VERTEX
  8
0
  5
248
 10
-11.7720
 20
16.6240
 30
0.000000
  70
    32
  0
VERTEX
  8
0
  5
249
 10
-11.7717
 20
16.6239
 30
0.000000
  70
    32
  0
VERTEX
  8
0
  5
24A
 10
-11.7715
 20
16.6239
 30
0.000000
  70
    32
  0
VERTEX
  8
0
  5
24B
 10
-11.7712
 20
16.6238
 30
0.000000
  70
    32
  0
VERTEX
  8
0
  5
24C
 10
-11.7710
 20
16.6237
 30
0.000000
  70
    32
  0
VERTEX
  8
0
  5
24D
 10
-11.7707
 20
16.6236
 30
0.000000
  70
    32
  0
VERTEX
  8
0
  5
24E
 10
-11.7705
 20
16.6236
 30
0.000000
  70
    32
  0
VERTEX
  8
0
  5
24F
 10
-11.7702
 20
16.6235
 30
0.000000
  70
    32
  0
VERTEX
  8
0
  5
250
 10
-11.7700
 20
16.6234
 30
0.000000
  70
    32
  0
VERTEX
  8
0
  5
251
 10
-11.7698
 20
16.6233
 30
0.000000
  70
    32
  0
VERTEX
  8
0
  5
252
 10
-11.7695
 20
16.6232
 30
0.000000
  70
    32
  0
VERTEX
  8
0
  5
253
 10
-11.7693
 20
16.6232
 30
0.000000
  70
    32
  0
VERTEX
  8
0
  5
254
 10
-11.7690
 20
16.6231
 30
0.000000
  70
    32
  0
VERTEX
  8
0
  5
255
 10
-11.7688
 20
16.6230
 30
0.000000
  70
    32
  0
VERTEX
  8
0
  5
256
 10
-11.7686
 20
16.6229
 30
0.000000
  70
    32
  0
VERTEX
  8
0
  5
257
 10
-11.7683
 20
16.6228
 30
0.000000
  70
    32
  0
VERTEX
  8
0
  5
258
 10
-11.7681
 20
16.6227
 30
0.000000
  70
    32
  0
VERTEX
  8
0
  5
259
 10
-11.7679
 20
16.6226
 30
0.000000
  70
    32
  0
VERTEX
  8
0
  5
25A
 10
-11.7676
 20
16.6225
 30
0.000000
  70
    32
  0
VERTEX
  8
0
  5
25B
 10
-11.7674
 20
16.6224
 30
0.000000
  70
    32
  0
VERTEX
  8
0
  5
25C
 10
-11.7672
 20
16.6223
 30
0.000000
  70
    32
  0
VERTEX
  8
0
  5
25D
 10
-11.7669
 20
16.6222
 30
0.000000
  70
    32
  0
VERTEX
  8
0
  5
25E
 10
-11.7667
 20
16.6221
 30
0.000000
  70
    32
  0
VERTEX
  8
0
  5
25F
 10
-11.7665
 20
16.6220
 30
0.000000
  70
    32
  0
VERTEX
  8
0
  5
260
 10
-11.7662
 20
16.6219
 30
0.000000
  70
    32
  0
VERTEX
  8
0
  5
261
 10
-11.7660
 20
16.6218
 30
0.000000
  70
    32
  0
VERTEX
  8
0
  5
262
 10
-11.7658
 20
16.6217
 30
0.000000
  70
    32
  0
VERTEX
  8
0
  5
263
 10
-11.7656
 20
16.6215
 30
0.000000
  70
    32
  0
VERTEX
  8
0
  5
264
 10
-11.7653
 20
16.6214
 30
0.000000
  70
    32
  0
VERTEX
  8
0
  5
265
 10
-11.7651
 20
16.6213
 30
0.000000
  70
    32
  0
VERTEX
  8
0
  5
266
 10
-11.7649
 20
16.6212
 30
0.000000
  70
    32
  0
VERTEX
  8
0
  5
267
 10
-11.7647
 20
16.6211
 30
0.000000
  70
    32
  0
VERTEX
  8
0
  5
268
 10
-11.7644
 20
16.6209
 30
0.000000
  70
    32
  0
VERTEX
  8
0
  5
269
 10
-11.7642
 20
16.6208
 30
0.000000
  70
    32
  0
VERTEX
  8
0
  5
26A
 10
-11.7640
 20
16.6207
 30
0.000000
  70
    32
  0
VERTEX
  8
0
  5
26B
 10
-11.7638
 20
16.6206
 30
0.000000
  70
    32
  0
VERTEX
  8
0
  5
26C
 10
-11.7636
 20
16.6204
 30
0.000000
  70
    32
  0
VERTEX
  8
0
  5
26D
 10
-11.7633
 20
16.6203
 30
0.000000
  70
    32
  0
VERTEX
  8
0
  5
26E
 10
-11.7631
 20
16.6202
 30
0.000000
  70
    32
  0
VERTEX
  8
0
  5
26F
 10
-11.7629
 20
16.6200
 30
0.000000
  70
    32
  0
VERTEX
  8
0
  5
270
 10
-11.7627
 20
16.6199
 30
0.000000
  70
    32
  0
VERTEX
  8
0
  5
271
 10
-11.7625
 20
16.6198
 30
0.000000
  70
    32
  0
VERTEX
  8
0
  5
272
 10
-11.7623
 20
16.6196
 30
0.000000
  70
    32
  0
VERTEX
  8
0
  5
273
 10
-11.7621
 20
16.6195
 30
0.000000
  70
    32
  0
VERTEX
  8
0
  5
274
 10
-11.7619
 20
16.6193
 30
0.000000
  70
    32
  0
VERTEX
  8
0
  5
275
 10
-11.7617
 20
16.6192
 30
0.000000
  70
    32
  0
VERTEX
  8
0
  5
276
 10
-11.7615
 20
16.6190
 30
0.000000
  70
    32
  0
VERTEX
  8
0
  5
277
 10
-11.7612
 20
16.6189
 30
0.000000
  70
    32
  0
VERTEX
  8
0
  5
278
 10
-11.7610
 20
16.6187
 30
0.000000
  70
    32
  0
VERTEX
  8
0
  5
279
 10
-11.7608
 20
16.6186
 30
0.000000
  70
    32
  0
VERTEX
  8
0
  5
27A
 10
-11.7606
 20
16.6184
 30
0.000000
  70
    32
  0
VERTEX
  8
0
  5
27B
 10
-11.7604
 20
16.6183
 30
0.000000
  70
    32
  0
VERTEX
  8
0
  5
27C
 10
-11.7602
 20
16.6181
 30
0.000000
  70
    32
  0
VERTEX
  8
0
  5
27D
 10
-11.7600
 20
16.6180
 30
0.000000
  70
    32
  0
VERTEX
  8
0
  5
27E
 10
-11.7598
 20
16.6178
 30
0.000000
  70
    32
  0
VERTEX
  8
0
  5
27F
 10
-11.7597
 20
16.6176
 30
0.000000
  70
    32
  0
VERTEX
  8
0
  5
280
 10
-11.7595
 20
16.6175
 30
0.000000
  70
    32
  0
VERTEX
  8
0
  5
281
 10
-11.7593
 20
16.6173
 30
0.000000
  70
    32
  0
VERTEX
  8
0
  5
282
 10
-11.7591
 20
16.6171
 30
0.000000
  70
    32
  0
VERTEX
  8
0
  5
283
 10
-11.7589
 20
16.6170
 30
0.000000
  70
    32
  0
VERTEX
  8
0
  5
284
 10
-11.7587
 20
16.6168
 30
0.000000
  70
    32
  0
VERTEX
  8
0
  5
285
 10
-11.7585
 20
16.6166
 30
0.000000
  70
    32
  0
VERTEX
  8
0
  5
286
 10
-11.7583
 20
16.6165
 30
0.000000
  70
    32
  0
VERTEX
  8
0
  5
287
 10
-11.7581
 20
16.6163
 30
0.000000
  70
    32
  0
VERTEX
  8
0
  5
288
 10
-11.7580
 20
16.6161
 30
0.000000
  70
    32
  0
VERTEX
  8
0
  5
289
 10
-11.7578
 20
16.6159
 30
0.000000
  70
    32
  0
VERTEX
  8
0
  5
28A
 10
-11.7576
 20
16.6157
 30
0.000000
  70
    32
  0
VERTEX
  8
0
  5
28B
 10
-11.7574
 20
16.6156
 30
0.000000
  70
    32
  0
VERTEX
  8
0
  5
28C
 10
-11.7572
 20
16.6154
 30
0.000000
  70
    32
  0
VERTEX
  8
0
  5
28D
 10
-11.7571
 20
16.6152
 30
0.000000
  70
    32
  0
VERTEX
  8
0
  5
28E
 10
-11.7569
 20
16.6150
 30
0.000000
  70
    32
  0
VERTEX
  8
0
  5
28F
 10
-11.7567
 20
16.6148
 30
0.000000
  70
    32
  0
VERTEX
  8
0
  5
290
 10
-11.7565
 20
16.6146
 30
0.000000
  70
    32
  0
VERTEX
  8
0
  5
291
 10
-11.7564
 20
16.6144
 30
0.000000
  70
    32
  0
VERTEX
  8
0
  5
292
 10
-11.7562
 20
16.6143
 30
0.000000
  70
    32
  0
VERTEX
  8
0
  5
293
 10
-11.7560
 20
16.6141
 30
0.000000
  70
    32
  0
VERTEX
  8
0
  5
294
 10
-11.7559
 20
16.6139
 30
0.000000
  70
    32
  0
VERTEX
  8
0
  5
295
 10
-11.7557
 20
16.6137
 30
0.000000
  70
    32
  0
VERTEX
  8
0
  5
296
 10
-11.7555
 20
16.6135
 30
0.000000
  70
    32
  0
VERTEX
  8
0
  5
297
 10
-11.7554
 20
16.6133
 30
0.000000
  70
    32
  0
VERTEX
  8
0
  5
298
 10
-11.7552
 20
16.6131
 30
0.000000
  70
    32
  0
VERTEX
  8
0
  5
299
 10
-11.7551
 20
16.6129
 30
0.000000
  70
    32
  0
VERTEX
  8
0
  5
29A
 10
-11.7549
 20
16.6127
 30
0.000000
  70
    32
  0
VERTEX
  8
0
  5
29B
 10
-11.7547
 20
16.6125
 30
0.000000
  70
    32
  0
VERTEX
  8
0
  5
29C
 10
-11.7546
 20
16.6123
 30
0.000000
  70
    32
  0
VERTEX
  8
0
  5
29D
 10
-11.7544
 20
16.6120
 30
0.000000
  70
    32
  0
VERTEX
  8
0
  5
29E
 10
-11.7543
 20
16.6118
 30
0.000000
  70
    32
  0
VERTEX
  8
0
  5
29F
 10
-11.7541
 20
16.6116
 30
0.000000
  70
    32
  0
VERTEX
  8
0
  5
2A0
 10
-11.7540
 20
16.6114
 30
0.000000
  70
    32
  0
VERTEX
  8
0
  5
2A1
 10
-11.7538
 20
16.6112
 30
0.000000
  70
    32
  0
VERTEX
  8
0
  5
2A2
 10
-11.7537
 20
16.6110
 30
0.000000
  70
    32
  0
VERTEX
  8
0
  5
2A3
 10
-11.7535
 20
16.6108
 30
0.000000
  70
    32
  0
VERTEX
  8
0
  5
2A4
 10
-11.7534
 20
16.6106
 30
0.000000
  70
    32
  0
VERTEX
  8
0
  5
2A5
 10
-11.7533
 20
16.6103
 30
0.000000
  70
    32
  0
VERTEX
  8
0
  5
2A6
 10
-11.7531
 20
16.6101
 30
0.000000
  70
    32
  0
VERTEX
  8
0
  5
2A7
 10
-11.7530
 20
16.6099
 30
0.000000
  70
    32
  0
VERTEX
  8
0
  5
2A8
 10
-11.7529
 20
16.6097
 30
0.000000
  70
    32
  0
SEQEND
  8
0
  5
2A9
  0
POLYLINE
  8
0
  5
2AA
  66
     1
 10
0.000000
 20
0.000000
 30
0.000000
  70
     8
  0
VERTEX
  8
0
  5
2AB
 10
-12.2471
 20
16.6097
 30
0.000000
  70
    32
  0
VERTEX
  8
0
  5
2AC
 10
-12.2470
 20
16.6099
 30
0.000000
  70
    32
  0
VERTEX
  8
0
  5
2AD
 10
-12.2469
 20
16.6101
 30
0.000000
  70
    32
  0
VERTEX
  8
0
  5
2AE
 10
-12.2468
 20
16.6103
 30
0.000000
  70
    32
  0
VERTEX
  8
0
  5
2AF
 10
-12.2466
 20
16.6106
 30
0.000000
  70
    32
  0
VERTEX
  8
0
  5
2B0
 10
-12.2465
 20
16.6108
 30
0.000000
  70
    32
  0
VERTEX
  8
0
  5
2B1
 10
-12.2464
 20
16.6110
 30
0.000000
  70
    32
  0
VERTEX
  8
0
  5
2B2
 10
-12.2462
 20
16.6112
 30
0.000000
  70
    32
  0
VERTEX
  8
0
  5
2B3
 10
-12.2461
 20
16.6114
 30
0.000000
  70
    32
  0
VERTEX
  8
0
  5
2B4
 10
-12.2459
 20
16.6116
 30
0.000000
  70
    32
  0
VERTEX
  8
0
  5
2B5
 10
-12.2458
 20
16.6118
 30
0.000000
  70
    32
  0
VERTEX
  8
0
  5
2B6
 10
-12.2457
 20
16.6120
 30
0.000000
  70
    32
  0
VERTEX
  8
0
  5
2B7
 10
-12.2455
 20
16.6123
 30
0.000000
  70
    32
  0
VERTEX
  8
0
  5
2B8
 10
-12.2454
 20
16.6125
 30
0.000000
  70
    32
  0
VERTEX
  8
0
  5
2B9
 10
-12.2452
 20
16.6127
 30
0.000000
  70
    32
  0
VERTEX
  8
0
  5
2BA
 10
-12.2451
 20
16.6129
 30
0.000000
  70
    32
  0
VERTEX
  8
0
  5
2BB
 10
-12.2449
 20
16.6131
 30
0.000000
  70
    32
  0
VERTEX
  8
0
  5
2BC
 10
-12.2447
 20
16.6133
 30
0.000000
  70
    32
  0
VERTEX
  8
0
  5
2BD
 10
-12.2446
 20
16.6135
 30
0.000000
  70
    32
  0
VERTEX
  8
0
  5
2BE
 10
-12.2444
 20
16.6137
 30
0.000000
  70
    32
  0
VERTEX
  8
0
  5
2BF
 10
-12.2443
 20
16.6139
 30
0.000000
  70
    32
  0
VERTEX
  8
0
  5
2C0
 10
-12.2441
 20
16.6141
 30
0.000000
  70
    32
  0
VERTEX
  8
0
  5
2C1
 10
-12.2439
 20
16.6143
 30
0.000000
  70
    32
  0
VERTEX
  8
0
  5
2C2
 10
-12.2438
 20
16.6144
 30
0.000000
  70
    32
  0
VERTEX
  8
0
  5
2C3
 10
-12.2436
 20
16.6146
 30
0.000000
  70
    32
  0
VERTEX
  8
0
  5
2C4
 10
-12.2434
 20
16.6148
 30
0.000000
  70
    32
  0
VERTEX
  8
0
  5
2C5
 10
-12.2433
 20
16.6150
 30
0.000000
  70
    32
  0
VERTEX
  8
0
  5
2C6
 10
-12.2431
 20
16.6152
 30
0.000000
  70
    32
  0
VERTEX
  8
0
  5
2C7
 10
-12.2429
 20
16.6154
 30
0.000000
  70
    32
  0
VERTEX
  8
0
  5
2C8
 10
-12.2427
 20
16.6156
 30
0.000000
  70
    32
  0
VERTEX
  8
0
  5
2C9
 10
-12.2426
 20
16.6157
 30
0.000000
  70
    32
  0
VERTEX
  8
0
  5
2CA
 10
-12.2424
 20
16.6159
 30
0.000000
  70
    32
  0
VERTEX
  8
0
  5
2CB
 10
-12.2422
 20
16.6161
 30
0.000000
  70
    32
  0
VERTEX
  8
0
  5
2CC
 10
-12.2420
 20
16.6163
 30
0.000000
  70
    32
  0
VERTEX
  8
0
  5
2CD
 10
-12.2418
 20
16.6165
 30
0.000000
  70
    32
  0
VERTEX
  8
0
  5
2CE
 10
-12.2417
 20
16.6166
 30
0.000000
  70
    32
  0
VERTEX
  8
0
  5
2CF
 10
-12.2415
 20
16.6168
 30
0.000000
  70
    32
  0
VERTEX
  8
0
  5
2D0
 10
-12.2413
 20
16.6170
 30
0.000000
  70
    32
  0
VERTEX
  8
0
  5
2D1
 10
-12.2411
 20
16.6171
 30
0.000000
  70
    32
  0
VERTEX
  8
0
  5
2D2
 10
-12.2409
 20
16.6173
 30
0.000000
  70
    32
  0
VERTEX
  8
0
  5
2D3
 10
-12.2407
 20
16.6175
 30
0.000000
  70
    32
  0
VERTEX
  8
0
  5
2D4
 10
-12.2405
 20
16.6176
 30
0.000000
  70
    32
  0
VERTEX
  8
0
  5
2D5
 10
-12.2403
 20
16.6178
 30
0.000000
  70
    32
  0
VERTEX
  8
0
  5
2D6
 10
-12.2401
 20
16.6180
 30
0.000000
  70
    32
  0
VERTEX
  8
0
  5
2D7
 10
-12.2399
 20
16.6181
 30
0.000000
  70
    32
  0
VERTEX
  8
0
  5
2D8
 10
-12.2397
 20
16.6183
 30
0.000000
  70
    32
  0
VERTEX
  8
0
  5
2D9
 10
-12.2395
 20
16.6184
 30
0.000000
  70
    32
  0
VERTEX
  8
0
  5
2DA
 10
-12.2393
 20
16.6186
 30
0.000000
  70
    32
  0
VERTEX
  8
0
  5
2DB
 10
-12.2391
 20
16.6187
 30
0.000000
  70
    32
  0
VERTEX
  8
0
  5
2DC
 10
-12.2389
 20
16.6189
 30
0.000000
  70
    32
  0
VERTEX
  8
0
  5
2DD
 10
-12.2387
 20
16.6190
 30
0.000000
  70
    32
  0
VERTEX
  8
0
  5
2DE
 10
-12.2385
 20
16.6192
 30
0.000000
  70
    32
  0
VERTEX
  8
0
  5
2DF
 10
-12.2383
 20
16.6193
 30
0.000000
  70
    32
  0
VERTEX
  8
0
  5
2E0
 10
-12.2381
 20
16.6195
 30
0.000000
  70
    32
  0
VERTEX
  8
0
  5
2E1
 10
-12.2379
 20
16.6196
 30
0.000000
  70
    32
  0
VERTEX
  8
0
  5
2E2
 10
-12.2377
 20
16.6198
 30
0.000000
  70
    32
  0
VERTEX
  8
0
  5
2E3
 10
-12.2375
 20
16.6199
 30
0.000000
  70
    32
  0
VERTEX
  8
0
  5
2E4
 10
-12.2373
 20
16.6200
 30
0.000000
  70
    32
  0
VERTEX
  8
0
  5
2E5
 10
-12.2370
 20
16.6202
 30
0.000000
  70
    32
  0
VERTEX
  8
0
  5
2E6
 10
-12.2368
 20
16.6203
 30
0.000000
  70
    32
  0
VERTEX
  8
0
  5
2E7
 10
-12.2366
 20
16.6204
 30
0.000000
  70
    32
  0
VERTEX
  8
0
  5
2E8
 10
-12.2364
 20
16.6206
 30
0.000000
  70
    32
  0
VERTEX
  8
0
  5
2E9
 10
-12.2362
 20
16.6207
 30
0.000000
  70
    32
  0
VERTEX
  8
0
  5
2EA
 10
-12.2359
 20
16.6208
 30
0.000000
  70
    32
  0
VERTEX
  8
0
  5
2EB
 10
-12.2357
 20
16.6209
 30
0.000000
  70
    32
  0
VERTEX
  8
0
  5
2EC
 10
-12.2355
 20
16.6211
 30
0.000000
  70
    32
  0
VERTEX
  8
0
  5
2ED
 10
-12.2353
 20
16.6212
 30
0.000000
  70
    32
  0
VERTEX
  8
0
  5
2EE
 10
-12.2351
 20
16.6213
 30
0.000000
  70
    32
  0
VERTEX
  8
0
  5
2EF
 10
-12.2348
 20
16.6214
 30
0.000000
  70
    32
  0
VERTEX
  8
0
  5
2F0
 10
-12.2346
 20
16.6215
 30
0.000000
  70
    32
  0
VERTEX
  8
0
  5
2F1
 10
-12.2344
 20
16.6217
 30
0.000000
  70
    32
  0
VERTEX
  8
0
  5
2F2
 10
-12.2341
 20
16.6218
 30
0.000000
  70
    32
  0
VERTEX
  8
0
  5
2F3
 10
-12.2339
 20
16.6219
 30
0.000000
  70
    32
  0
VERTEX
  8
0
  5
2F4
 10
-12.2337
 20
16.6220
 30
0.000000
  70
    32
  0
VERTEX
  8
0
  5
2F5
 10
-12.2335
 20
16.6221
 30
0.000000
  70
    32
  0
VERTEX
  8
0
  5
2F6
 10
-12.2332
 20
16.6222
 30
0.000000
  70
    32
  0
VERTEX
  8
0
  5
2F7
 10
-12.2330
 20
16.6223
 30
0.000000
  70
    32
  0
VERTEX
  8
0
  5
2F8
 10
-12.2328
 20
16.6224
 30
0.000000
  70
    32
  0
VERTEX
  8
0
  5
2F9
 10
-12.2325
 20
16.6225
 30
0.000000
  70
    32
  0
VERTEX
  8
0
  5
2FA
 10
-12.2323
 20
16.6226
 30
0.000000
  70
    32
  0
VERTEX
  8
0
  5
2FB
 10
-12.2321
 20
16.6227
 30
0.000000
  70
    32
  0
VERTEX
  8
0
  5
2FC
 10
-12.2318
 20
16.6228
 30
0.000000
  70
    32
  0
VERTEX
  8
0
  5
2FD
 10
-12.2316
 20
16.6229
 30
0.000000
  70
    32
  0
VERTEX
  8
0
  5
2FE
 10
-12.2313
 20
16.6230
 30
0.000000
  70
    32
  0
VERTEX
  8
0
  5
2FF
 10
-12.2311
 20
16.6231
 30
0.000000
  70
    32
  0
VERTEX
  8
0
  5
300
 10
-12.2309
 20
16.6232
 30
0.000000
  70
    32
  0
VERTEX
  8
0
  5
301
 10
-12.2306
 20
16.6232
 30
0.000000
  70
    32
  0
VERTEX
  8
0
  5
302
 10
-12.2304
 20
16.6233
 30
0.000000
  70
    32
  0
VERTEX
  8
0
  5
303
 10
-12.2301
 20
16.6234
 30
0.000000
  70
    32
  0
VERTEX
  8
0
  5
304
 10
-12.2299
 20
16.6235
 30
0.000000
  70
    32
  0
VERTEX
  8
0
  5
305
 10
-12.2296
 20
16.6236
 30
0.000000
  70
    32
  0
VERTEX
  8
0
  5
306
 10
-12.2294
 20
16.6236
 30
0.000000
  70
    32
  0
VERTEX
  8
0
  5
307
 10
-12.2292
 20
16.6237
 30
0.000000
  70
    32
  0
VERTEX
  8
0
  5
308
 10
-12.2289
 20
16.6238
 30
0.000000
  70
    32
  0
VERTEX
  8
0
  5
309
 10
-12.2287
 20
16.6239
 30
0.000000
  70
    32
  0
VERTEX
  8
0
  5
30A
 10
-12.2284
 20
16.6239
 30
0.000000
  70
    32
  0
VERTEX
  8
0
  5
30B
 10
-12.2282
 20
16.6240
 30
0.000000
  70
    32
  0
VERTEX
  8
0
  5
30C
 10
-12.2279
 20
16.6240
 30
0.000000
  70
    32
  0
VERTEX
  8
0
  5
30D
 10
-12.2277
 20
16.6241
 30
0.000000
  70
    32
  0
VERTEX
  8
0
  5
30E
 10
-12.2274
 20
16.6242
 30
0.000000
  70
    32
  0
VERTEX
  8
0
  5
30F
 10
-12.2272
 20
16.6242
 30
0.000000
  70
    32
  0
VERTEX
  8
0
  5
310
 10
-12.2269
 20
16.6243
 30
0.000000
  70
    32
  0
VERTEX
  8
0
  5
311
 10
-12.2267
 20
16.6243
 30
0.000000
  70
    32
  0
VERTEX
  8
0
  5
312
 10
-12.2264
 20
16.6244
 30
0.000000
  70
    32
  0
VERTEX
  8
0
  5
313
 10
-12.2262
 20
16.6244
 30
0.000000
  70
    32
  0
VERTEX
  8
0
  5
314
 10
-12.2259
 20
16.6245
 30
0.000000
  70
    32
  0
VERTEX
  8
0
  5
315
 10
-12.2257
 20
16.6245
 30
0.000000
  70
    32
  0
VERTEX
  8
0
  5
316
 10
-12.2254
 20
16.6246
 30
0.000000
  70
    32
  0
VERTEX
  8
0
  5
317
 10
-12.2252
 20
16.6246
 30
0.000000
  70
    32
  0
VERTEX
  8
0
  5
318
 10
-12.2249
 20
16.6247
 30
0.000000
  70
    32
  0
VERTEX
  8
0
  5
319
 10
-12.2246
 20
16.6247
 30
0.000000
  70
    32
  0
VERTEX
  8
0
  5
31A
 10
-12.2244
 20
16.6247
 30
0.000000
  70
    32
  0
VERTEX
  8
0
  5
31B
 10
-12.2241
 20
16.6248
 30
0.000000
  70
    32
  0
VERTEX
  8
0
  5
31C
 10
-12.2239
 20
16.6248
 30
0.000000
  70
    32
  0
VERTEX
  8
0
  5
31D
 10
-12.2236
 20
16.6248
 30
0.000000
  70
    32
  0
VERTEX
  8
0
  5
31E
 10
-12.2234
 20
16.6248
 30
0.000000
  70
    32
  0
VERTEX
  8
0
  5
31F
 10
-12.2231
 20
16.6249
 30
0.000000
  70
    32
  0
VERTEX
  8
0
  5
320
 10
-12.2229
 20
16.6249
 30
0.000000
  70
    32
  0
VERTEX
  8
0
  5
321
 10
-12.2226
 20
16.6249
 30
0.000000
  70
    32
  0
VERTEX
  8
0
  5
322
 10
-12.2223
 20
16.6249
 30
0.000000
  70
    32
  0
VERTEX
  8
0
  5
323
 10
-12.2221
 20
16.6249
 30
0.000000
  70
    32
  0
VERTEX
  8
0
  5
324
 10
-12.2218
 20
16.6250
 30
0.000000
  70
    32
  0
VERTEX
  8
0
  5
325
 10
-12.2216
 20
16.6250
 30
0.000000
  70
    32
  0
VERTEX
  8
0
  5
326
 10
-12.2213
 20
16.6250
 30
0.000000
  70
    32
  0
VERTEX
  8
0
  5
327
 10
-12.2210
 20
16.6250
 30
0.000000
  70
    32
  0
VERTEX
  8
0
  5
328
 10
-12.2208
 20
16.6250
 30
0.000000
  70
    32
  0
VERTEX
  8
0
  5
329
 10
-12.2205
 20
16.6250
 30
0.000000
  70
    32
  0
VERTEX
  8
0
  5
32A
 10
-12.2203
 20
16.6250
 30
0.000000
  70
    32
  0
SEQEND
  8
0
  5
32B
  0
POLYLINE
  5
92
  8
0
 66
     1
 10
0.0
 20
0.0
 30
0.0
  0
VERTEX
  5
EC
  8
0
 10
11.625
 20
16.500292891296681
 30
0.0
  0
VERTEX
  5
ED
  8
0
 10
0.0
 20
16.500292891296681
 30
0.0
  0
VERTEX
  5
EE
  8
0
 10
-11.625
 20
16.500292891296681
 30
0.0
  0
SEQEND
  5
EF
  8
0
  0
LINE
  5
93
  8
0
 62
     8
 10
6.0987500346304273
 20
1.175790592139335
 30
0.0
 11
-0.5647807133250922
 21
-6.9749274504758167
 31
0.0
  0
LINE
  5
94
  8
0
 62
     8
 10
3.8754653355892961
 20
0.1000998292526702
 30
0.0
 11
0.5292316659196672
 21
-3.992956566495351
 31
0.0
  0
LINE
  5
95
  8
0
 62
     8
 10
4.7063682379261422
 20
-2.9989662718345889
 30
0.0
 11
2.4481772555162702
 21
-5.7611472656938503
 31
0.0
  0
POLYLINE
  5
96
  8
0
 66
     1
 10
0.0
 20
0.0
 30
0.0
  0
VERTEX
  5
F0
  8
0
 10
-11.625
 20
-16.374828835044319
 30
0.0
  0
VERTEX
  5
F1
  8
0
 10
-0.0000000000000284
 20
-16.374828835044319
 30
0.0
  0
VERTEX
  5
F2
  8
0
 10
11.625
 20
-16.374828835044319
 30
0.0
  0
SEQEND
  5
F3
  8
0
  0
ATTDEF
  5
97
  8
DEFPOINTS
 10
0.0
 20
-0.005
 30
0.0
 40
0.001
  1
METAL - GLASS
  3

  2
MATERIAL
 70
     8
1001
AcDbAttr
1070
     0
1070
     1
  0
ATTDEF
  5
99
  8
DEFPOINTS
 10
0.0
 20
-0.0033333333333333
 30
0.0
 40
0.001
  1
MIRROR
  3

  2
PRODUCT
 70
     8
1001
AcDbAttr
1070
     0
1070
     1
  0
ATTDEF
  5
9A
  8
DEFPOINTS
 10
0.0
 20
-0.0016666666666667
 30
0.0
 40
0.001
  1
LOURE
  3

  2
TRADENAME
 70
     8
1001
AcDbAttr
1070
     0
1070
     1
  0
ATTDEF
  5
9B
  8
DEFPOINTS
 10
0.0
 20
0.0
 30
0.0
 40
0.001
  1
K-11579
  3

  2
MODELNUMBER
 70
     8
1001
AcDbAttr
1070
     0
1070
     1
  0
ENDSEC
  0
EOF
