  0
SECTION
  2
HEADER
  9
$ACADVER
  1
AC1009
  9
$INSBASE
 10
16.563980927799999
 20
5.606444591999999
 30
0.0
  9
$EXTMIN
 10
13.81706423474815
 20
-1.215292146194296
 30
0.0
  9
$EXTMAX
 10
16.587800892298421
 20
6.8661819535946638
 30
0.0
  9
$LIMMIN
 10
0.0
 20
0.0
  9
$LIMMAX
 10
11.692913385800001
 20
8.2677165353999982
  9
$ORTHOMODE
 70
     0
  9
$REGENMODE
 70
     1
  9
$FILLMODE
 70
     1
  9
$QTEXTMODE
 70
     0
  9
$MIRRTEXT
 70
     0
  9
$DRAGMODE
 70
     2
  9
$LTSCALE
 40
0.6431102362
  9
$OSMODE
 70
  3071
  9
$ATTMODE
 70
     1
  9
$TEXTSIZE
 40
0.2
  9
$TRACEWID
 40
0.05
  9
$TEXTSTYLE
  7
STANDARD
  9
$CLAYER
  8
0
  9
$CELTYPE
  6
BYLAYER
  9
$CECOLOR
 62
   256
  9
$DIMSCALE
 40
1.0
  9
$DIMASZ
 40
0.1875
  9
$DIMEXO
 40
0.0625
  9
$DIMDLI
 40
0.4443307087
  9
$DIMRND
 40
0.0
  9
$DIMDLE
 40
0.0
  9
$DIMEXE
 40
0.125
  9
$DIMTP
 40
0.01
  9
$DIMTM
 40
0.01
  9
$DIMTXT
 40
0.15625
  9
$DIMCEN
 40
0.1052362205
  9
$DIMTSZ
 40
0.0
  9
$DIMTOL
 70
     1
  9
$DIMLIM
 70
     0
  9
$DIMTIH
 70
     1
  9
$DIMTOH
 70
     1
  9
$DIMSE1
 70
     0
  9
$DIMSE2
 70
     0
  9
$DIMTAD
 70
     0
  9
$DIMZIN
 70
     0
  9
$DIMBLK
  1

  9
$DIMASO
 70
     1
  9
$DIMSHO
 70
     1
  9
$DIMPOST
  1

  9
$DIMAPOST
  1

  9
$DIMALT
 70
     0
  9
$DIMALTD
 70
     2
  9
$DIMALTF
 40
25.399999999999999
  9
$DIMLFAC
 40
1.0
  9
$DIMTOFL
 70
     0
  9
$DIMTVP
 40
0.0
  9
$DIMTIX
 70
     0
  9
$DIMSOXD
 70
     0
  9
$DIMSAH
 70
     0
  9
$DIMBLK1
  1

  9
$DIMBLK2
  1

  9
$DIMSTYLE
  2
STANDARD
  9
$DIMCLRD
 70
     0
  9
$DIMCLRE
 70
     0
  9
$DIMCLRT
 70
     0
  9
$DIMTFAC
 40
1.0
  9
$DIMGAP
 40
0.09
  9
$LUNITS
 70
     2
  9
$LUPREC
 70
     4
  9
$SKETCHINC
 40
0.1
  9
$FILLETRAD
 40
0.0
  9
$AUNITS
 70
     0
  9
$AUPREC
 70
     0
  9
$MENU
  1
.
  9
$ELEVATION
 40
0.0
  9
$PELEVATION
 40
0.0
  9
$THICKNESS
 40
0.0
  9
$LIMCHECK
 70
     0
  9
$BLIPMODE
 70
     0
  9
$CHAMFERA
 40
0.0
  9
$CHAMFERB
 40
0.0
  9
$SKPOLY
 70
     0
  9
$TDCREATE
 40
2457892.7739611231
  9
$TDUPDATE
 40
2457904.5883257869
  9
$TDINDWG
 40
0.0885212731
  9
$TDUSRTIMER
 40
0.0885212731
  9
$USRTIMER
 70
     1
  9
$ANGBASE
 50
0.0
  9
$ANGDIR
 70
     0
  9
$PDMODE
 70
     0
  9
$PDSIZE
 40
0.3125
  9
$PLINEWID
 40
0.0
  9
$COORDS
 70
     1
  9
$SPLFRAME
 70
     0
  9
$SPLINETYPE
 70
     6
  9
$SPLINESEGS
 70
     8
  9
$ATTDIA
 70
     1
  9
$ATTREQ
 70
     1
  9
$HANDLING
 70
     1
  9
$HANDSEED
  5
C1D
  9
$SURFTAB1
 70
     6
  9
$SURFTAB2
 70
     6
  9
$SURFTYPE
 70
     6
  9
$SURFU
 70
     6
  9
$SURFV
 70
     6
  9
$UCSNAME
  2

  9
$UCSORG
 10
0.0
 20
0.0
 30
0.0
  9
$UCSXDIR
 10
1.0
 20
0.0
 30
0.0
  9
$UCSYDIR
 10
0.0
 20
1.0
 30
0.0
  9
$PUCSNAME
  2

  9
$PUCSORG
 10
0.0
 20
0.0
 30
0.0
  9
$PUCSXDIR
 10
1.0
 20
0.0
 30
0.0
  9
$PUCSYDIR
 10
0.0
 20
1.0
 30
0.0
  9
$USERI1
 70
     0
  9
$USERI2
 70
     0
  9
$USERI3
 70
     0
  9
$USERI4
 70
     0
  9
$USERI5
 70
     0
  9
$USERR1
 40
0.0
  9
$USERR2
 40
0.0
  9
$USERR3
 40
0.0
  9
$USERR4
 40
0.0
  9
$USERR5
 40
0.0
  9
$WORLDVIEW
 70
     1
  9
$SHADEDGE
 70
     3
  9
$SHADEDIF
 70
    70
  9
$TILEMODE
 70
     1
  9
$MAXACTVP
 70
    48
  9
$PLIMCHECK
 70
     0
  9
$PEXTMIN
 10
1.0000000000000000E+020
 20
1.0000000000000000E+020
 30
1.0000000000000000E+020
  9
$PEXTMAX
 10
-1.0000000000000000E+020
 20
-1.0000000000000000E+020
 30
-1.0000000000000000E+020
  9
$PLIMMIN
 10
0.0
 20
0.0
  9
$PLIMMAX
 10
12.0
 20
9.0
  9
$UNITMODE
 70
     0
  9
$VISRETAIN
 70
     1
  9
$PLINEGEN
 70
     0
  9
$PSLTSCALE
 70
     1
  0
ENDSEC
  0
SECTION
  2
TABLES
  0
TABLE
  2
VPORT
 70
     1
  0
VPORT
  2
*ACTIVE
 70
     0
 10
0.0
 20
0.0
 11
1.0
 21
1.0
 12
0.0
 22
0.0
 13
0.0
 23
0.0
 14
1.0
 24
1.0
 15
0.0
 25
0.0
 16
-0.0000000000000053
 26
0.0
 36
21.358885392108469
 17
15.20243256352328
 27
2.8254448745267409
 37
0.0
 40
8.5432541061914193
 41
1.798307475317348
 42
50.0
 43
0.0
 44
0.0
 50
0.0
 51
0.0
 71
     0
 72
   100
 73
     1
 74
     1
 75
     0
 76
     0
 77
     0
 78
     0
  0
ENDTAB
  0
TABLE
  2
LTYPE
 70
     8
  0
LTYPE
  2
CONTINUOUS
 70
     0
  3
Solid line
 72
    65
 73
     0
 40
0.0
  0
LTYPE
  2
PHANTOM2
 70
     0
  3
___ _ _ ___ _ _ ___ _ _ ___ _ _
 72
    65
 73
     6
 40
1.25
 49
0.625
 49
-0.125
 49
0.125
 49
-0.125
 49
0.125
 49
-0.125
  0
ENDTAB
  0
TABLE
  2
LAYER
 70
    24
  0
LAYER
  2
0
 70
     0
 62
     7
  6
CONTINUOUS
  0
LAYER
  2
DEFPOINTS
 70
     0
 62
     7
  6
CONTINUOUS
  0
ENDTAB
  0
TABLE
  2
STYLE
 70
     2
  0
STYLE
  2
STANDARD
 70
     0
 40
0.0
 41
0.8
 50
0.0
 71
     0
 42
0.2
  3
txt
  4

  0
ENDTAB
  0
TABLE
  2
VIEW
 70
     0
  0
ENDTAB
  0
TABLE
  2
UCS
 70
     0
  0
ENDTAB
  0
TABLE
  2
APPID
 70
     5
  0
APPID
  2
ACAD
 70
     0
  0
APPID
  2
ACAD_MLEADERVER
 70
     0
  0
APPID
  2
ACAD_NAV_VCDISPLAY
 70
     0
  0
APPID
  2
ACAD_EXEMPT_FROM_CAD_STANDARDS
 70
     0
  0
APPID
  2
AcDbAttr
 70
     0
  0
ENDTAB
  0
TABLE
  2
DIMSTYLE
 70
     2
  0
DIMSTYLE
  2
STANDARD
 70
     0
  3

  4

  5

  6

  7

 40
1.0
 41
0.1875
 42
0.0625
 43
0.38
 44
0.125
 45
0.0
 46
0.0
 47
0.01
 48
0.01
140
0.15625
141
0.09
142
0.0
143
25.399999999999999
144
1.0
145
0.0
146
1.0
147
0.09
 71
     1
 72
     0
 73
     1
 74
     1
 75
     0
 76
     0
 77
     0
 78
     4
170
     0
171
     2
172
     0
173
     0
174
     0
175
     0
176
     0
177
     0
178
     0
  0
ENDTAB
  0
ENDSEC
  0
SECTION
  2
BLOCKS
  0
BLOCK
  8
0
  2
$MODEL_SPACE
 70
     0
 10
0.0
 20
0.0
 30
0.0
  3
$MODEL_SPACE
  1

  0
ENDBLK
  5
21
  8
0
  0
BLOCK
 67
     1
  8
0
  2
$PAPER_SPACE
 70
     0
 10
0.0
 20
0.0
 30
0.0
  3
$PAPER_SPACE
  1

  0
ENDBLK
  5
1D
 67
     1
  8
0
  0
ENDSEC
  0
SECTION
  2
ENTITIES
  0
LINE
  5
8FA
  8
0
 10
16.563980927799999
 20
6.7874432689999988
 30
0.0
 11
16.563980927799999
 21
4.4254459150000001
 31
0.0
  0
ARC
  5
8FB
  8
0
 10
16.563983904554568
 20
3.912255072141738
 30
0.0
 40
0.5131908428668953
 50
90.000332343174108
 51
121.37339094733029
  0
ARC
  5
8FC
  8
0
 10
16.283612244185662
 20
4.3720575685244922
 30
0.0
 40
0.025350338119157
 50
204.2140099525931
 51
301.37346279195123
  0
ARC
  5
8FD
  8
0
 10
15.27971095419999
 20
3.920591350999997
 30
0.0
 40
1.0753946576000031
 50
24.214010078518019
 51
89.414190463899857
  0
LINE
  5
8FE
  8
0
 10
15.290705925819029
 20
4.9959298001376258
 30
0.0
 11
15.28092863219999
 21
5.0128634584
 31
0.0
  0
ARC
  5
8FF
  8
0
 10
16.563983904554568
 20
7.3006341118582601
 30
0.0
 40
0.5131908428668953
 50
238.62660905266969
 51
269.99966765682592
  0
ARC
  5
900
  8
0
 10
16.283612244185662
 20
6.8408316154755067
 30
0.0
 40
0.025350338119157
 50
58.626537208048823
 51
155.78599004740661
  0
ARC
  5
901
  8
0
 10
15.27971095419999
 20
7.2922978330000046
 30
0.0
 40
1.0753946576000031
 50
270.5858095361001
 51
335.78598992148198
  0
LINE
  5
902
  8
0
 10
15.290705925819029
 20
6.2169593838623731
 30
0.0
 11
15.28092863219999
 21
6.200025725599998
 31
0.0
  0
LINE
  5
903
  8
0
 10
15.28092863219999
 20
6.2174682141000011
 30
0.0
 11
15.28092863219999
 21
4.9954209699999996
 31
0.0
  0
ARC
  5
904
  8
0
 10
15.2809286322
 20
4.7505390801999727
 30
0.0
 40
0.2448818898000274
 50
90.000000000002444
 51
128.07663430069869
  0
ARC
  5
905
  8
0
 10
15.11436704753404
 20
4.9631414424058899
 30
0.0
 40
0.025196850388776
 50
202.19987825590431
 51
308.0766343872661
  0
ARC
  5
906
  8
0
 10
14.952157296922
 20
4.8969452716920809
 30
0.0
 40
0.1499999994995502
 50
22.199878162147218
 51
60.073045097679788
  0
ARC
  5
907
  8
0
 10
15.2809286322
 20
6.4623501038000262
 30
0.0
 40
0.2448818898000274
 50
231.9233656993012
 51
269.99999999999739
  0
ARC
  5
908
  8
0
 10
15.11436704753404
 20
6.2497477415941081
 30
0.0
 40
0.025196850388776
 50
51.923365612733889
 51
157.80012174409541
  0
ARC
  5
909
  8
0
 10
14.952157296922
 20
6.3159439123079144
 30
0.0
 40
0.1499999994995502
 50
299.92695490232018
 51
337.80012183785283
  0
LINE
  5
90A
  8
0
 10
15.02699162429999
 20
6.1859445919414311
 30
0.0
 11
15.02699162429999
 21
5.0269445919999978
 31
0.0
  0
LINE
  5
90D
  8
0
 10
15.129906320799989
 20
6.2695823642494721
 30
0.0
 11
15.129906320799989
 21
4.9433068197505312
 31
0.0
  0
ARC
  5
90E
  8
0
 10
15.01201436413907
 20
6.1691595854611423
 30
0.0
 40
0.0149253197598331
 50
359.90550428049119
 51
114.33469839675369
  0
ARC
  5
90F
  8
0
 10
13.53831660693495
 20
9.1986353362263475
 30
0.0
 40
3.3539837151061782
 50
278.3518573121583
 51
295.94789294336931
  0
ARC
  5
910
  8
0
 10
14.027065274396239
 20
5.8517286947874609
 30
0.0
 40
0.0285364207277152
 50
76.391444665260977
 51
108.00809773943389
  0
ARC
  5
911
  8
0
 10
14.102379429061751
 20
5.6062394346680886
 30
0.0
 40
0.2853152675953677
 50
107.1508594467289
 51
179.9589348803309
  0
ARC
  5
912
  8
0
 10
14.111381422101431
 20
5.6079167507004
 30
0.0
 40
0.2943208724902266
 50
180.2867176100732
 51
197.2038787666099
  0
ARC
  5
913
  8
0
 10
14.0403959604853
 20
5.8492765116985286
 30
0.0
 40
0.030907470025867
 50
73.109384455320622
 51
106.8911408542601
  0
ARC
  5
914
  8
0
 10
14.11381156467451
 20
5.6075029105908651
 30
0.0
 40
0.2835818160347844
 50
106.8911408542602
 51
180.21396037141801
  0
ARC
  5
915
  8
0
 10
13.964694820991291
 20
5.6058124799183346
 30
0.0
 40
0.2858684190408441
 50
0.1134732787402816
 51
72.769035252292113
  0
LINE
  5
916
  8
0
 10
14.2505626794
 20
5.6063786368999997
 30
0.0
 11
14.249781372099999
 21
-0.9646003299
 31
0.0
  0
ARC
  5
917
  8
0
 10
13.96457221142842
 20
-0.9427612360035556
 30
0.0
 40
0.2860440723965504
 50
290.05039152434478
 51
355.62128048937171
  0
ARC
  5
918
  8
0
 10
14.04039563845911
 20
-1.148666435940259
 30
0.0
 40
0.0666257102540374
 50
250.50716783951449
 51
289.50515819353711
  0
ARC
  5
919
  8
0
 10
14.11522892852571
 20
-0.9435120519660095
 30
0.0
 40
0.2849999875257154
 50
179.99999984600311
 51
250.0877304684299
  0
LINE
  5
91A
  8
0
 10
13.830228941
 20
-0.9435120519660095
 30
0.0
 11
13.83023172592485
 21
5.6064439298041204
 31
0.0
  0
LINE
  5
91B
  8
0
 10
14.018159387706691
 20
-1.2114719316772109
 30
0.0
 11
14.03943687411941
 21
5.3188499493374382
 31
0.0
  0
LINE
  5
91C
  8
0
 10
14.03943687411941
 20
5.3188499493374382
 30
0.0
 11
14.03141569504359
 21
5.8788505972464602
 31
0.0
  0
ARC
  5
91D
  8
0
 10
14.35234378984476
 20
5.6397646149131431
 30
0.0
 40
0.1036028110705734
 50
165.58280083361009
 51
181.037498239206
  0
ARC
  5
91E
  8
0
 10
14.268287895404759
 20
5.6613733979792
 30
0.0
 40
0.0168137973896646
 50
138.99056331706331
 51
165.5828008336095
  0
ARC
  5
91F
  8
0
 10
14.264216412776451
 20
5.6649138613064673
 30
0.0
 40
0.0114182574385225
 50
85.277949380457216
 51
138.9905633170591
  0
ARC
  5
920
  8
0
 10
14.25677321892973
 20
5.6308568993305306
 30
0.0
 40
0.0462033517280486
 50
45.187399271592113
 51
79.546312381202384
  0
ARC
  5
921
  8
0
 10
14.238362745072671
 20
5.603412697892975
 30
0.0
 40
0.0788986884789009
 50
2.2018100794125899
 51
49.753985752278687
  0
ARC
  5
922
  8
0
 10
14.35234378984476
 20
5.5731232587797512
 30
0.0
 40
0.1036028110705734
 50
190.7418799397249
 51
194.41719916638991
  0
ARC
  5
923
  8
0
 10
14.268287895404759
 20
5.5515144757136943
 30
0.0
 40
0.0168137973896646
 50
194.4171991663905
 51
221.00943668293669
  0
ARC
  5
924
  8
0
 10
14.264216412776451
 20
5.5479740123864261
 30
0.0
 40
0.0114182574385225
 50
221.00943668294079
 51
274.72205061954281
  0
ARC
  5
925
  8
0
 10
14.25677321892973
 20
5.582030974362362
 30
0.0
 40
0.0462033517280486
 50
280.45368761879757
 51
314.81260072840792
  0
ARC
  5
926
  8
0
 10
14.238362745072671
 20
5.6094751757999193
 30
0.0
 40
0.0788986884789009
 50
310.24601424772129
 51
357.79818992058739
  0
LINE
  5
927
  8
0
 10
14.24875564474965
 20
5.6415077894539252
 30
0.0
 11
14.256642808600001
 21
5.6632460987000002
 31
0.0
  0
LINE
  5
928
  8
0
 10
14.256642808600001
 20
5.6632460987000002
 30
0.0
 11
14.266874683199999
 21
5.6348331916999994
 31
0.0
  0
LINE
  5
929
  8
0
 10
14.266874683199999
 20
5.6348331916999994
 30
0.0
 11
14.266874683199999
 21
5.5780073777999988
 31
0.0
  0
LINE
  5
92A
  8
0
 10
14.266874683199999
 20
5.5780073777999988
 30
0.0
 11
14.256642808600001
 21
5.5495944708999998
 31
0.0
  0
LINE
  5
92B
  8
0
 10
14.256642808600001
 20
5.5495944708999998
 30
0.0
 11
14.250562646200001
 21
5.5664784827
 31
0.0
  0
LINE
  5
92C
  8
0
 10
14.266874683199999
 20
5.5780073777999988
 30
0.0
 11
14.250562648900001
 21
5.5780073777999988
 31
0.0
  0
LINE
  5
92D
  8
0
 10
14.266874683199999
 20
5.6348331916999994
 30
0.0
 11
14.249086366738689
 21
5.6348331916999994
 31
0.0
  0
ARC
  5
96F
  8
0
 10
13.406277381136309
 20
1.647133498028535
 30
0.0
 40
3.7421036472481619
 50
64.694340397207782
 51
76.961374725117764
  0
ARC
  5
970
  8
0
 10
15.012006630147191
 20
5.0437985367780227
 30
0.0
 40
0.0149850555149637
 50
245.6534798544356
 51
359.83603206733062
  0
ARC
  5
9B2
  8
0
 10
12.554162739190261
 20
-1.5858681802159971
 30
0.0
 40
5.8751821764468568
 50
71.017793399892355
 51
73.219363105498047
  0
ARC
  5
9B3
  8
0
 10
14.20840198911158
 20
3.2232425710705992
 30
0.0
 40
0.789510764123741
 50
67.150539479975663
 51
71.017793399892369
  0
ARC
  5
9B4
  8
0
 10
14.474307424055
 20
3.8389786490445208
 30
0.0
 40
0.1189869488965377
 50
4.6097113247957129
 51
70.013048562479256
  0
ARC
  5
9B5
  8
0
 10
12.66655787105829
 20
3.822648693061605
 30
0.0
 40
1.9265256192418401
 50
351.06938849762179
 51
0.770083800882825
  0
ARC
  5
9B6
  8
0
 10
65.407797642248582
 20
-2.3559878780584151
 30
0.0
 40
51.176934140352309
 50
173.40289058558099
 51
178.4420626197396
  0
LINE
  5
9F9
  8
0
 10
16.296809991300002
 20
6.8624755317999959
 30
0.0
 11
16.296809991300002
 21
4.3504136522000021
 31
0.0
  0
ATTDEF
  5
B91
  8
DEFPOINTS
 10
16.577134225631749
 20
5.6115862075435219
 30
0.0
 40
0.001
  1
K-11377
  3

  2
MODELNUMBER
 70
     0
1001
AcDbAttr
1070
     0
1070
     1
  0
ATTDEF
  5
B92
  8
DEFPOINTS
 10
16.577134225631749
 20
5.6099195408768567
 30
0.0
 40
0.001
  1
FORTE
  3

  2
TRADENAME
 70
     0
1001
AcDbAttr
1070
     0
1070
     1
  0
ATTDEF
  5
B93
  8
DEFPOINTS
 10
16.577134225631749
 20
5.6082528742101916
 30
0.0
 40
0.001
  1
TOWEL RING
  3

  2
PRODUCT
 70
     0
1001
AcDbAttr
1070
     0
1070
     1
  0
ATTDEF
  5
B94
  8
DEFPOINTS
 10
16.577134225631749
 20
5.6065862075435273
 30
0.0
 40
0.001
  1
METAL
  3

  2
MATERIAL
 70
     0
1001
AcDbAttr
1070
     0
1070
     1
  0
ENDSEC
  0
EOF
