  0
SECTION
  2
HEADER
  9
$ACADVER
  1
AC1009
  9
$INSBASE
 10
7.5813945787950274
 20
13.18276777090164
 30
0.0
  9
$EXTMIN
 10
3.8694098320289192
 20
10.435648240433441
 30
0.0
  9
$EXTMAX
 10
11.62370855443111
 20
13.195201995927871
 30
0.0
  9
$LIMMIN
 10
0.0
 20
0.0
  9
$LIMMAX
 10
11.692913385800001
 20
8.2677165353999982
  9
$ORTHOMODE
 70
     0
  9
$REGENMODE
 70
     1
  9
$FILLMODE
 70
     1
  9
$QTEXTMODE
 70
     0
  9
$MIRRTEXT
 70
     0
  9
$DRAGMODE
 70
     2
  9
$LTSCALE
 40
0.6431102362
  9
$OSMODE
 70
  3071
  9
$ATTMODE
 70
     1
  9
$TEXTSIZE
 40
0.2
  9
$TRACEWID
 40
0.05
  9
$TEXTSTYLE
  7
STANDARD
  9
$CLAYER
  8
0
  9
$CELTYPE
  6
BYLAYER
  9
$CECOLOR
 62
   256
  9
$DIMSCALE
 40
1.0
  9
$DIMASZ
 40
0.1875
  9
$DIMEXO
 40
0.0625
  9
$DIMDLI
 40
0.4443307087
  9
$DIMRND
 40
0.0
  9
$DIMDLE
 40
0.0
  9
$DIMEXE
 40
0.125
  9
$DIMTP
 40
0.01
  9
$DIMTM
 40
0.01
  9
$DIMTXT
 40
0.15625
  9
$DIMCEN
 40
0.1052362205
  9
$DIMTSZ
 40
0.0
  9
$DIMTOL
 70
     1
  9
$DIMLIM
 70
     0
  9
$DIMTIH
 70
     1
  9
$DIMTOH
 70
     1
  9
$DIMSE1
 70
     0
  9
$DIMSE2
 70
     0
  9
$DIMTAD
 70
     0
  9
$DIMZIN
 70
     0
  9
$DIMBLK
  1

  9
$DIMASO
 70
     1
  9
$DIMSHO
 70
     1
  9
$DIMPOST
  1

  9
$DIMAPOST
  1

  9
$DIMALT
 70
     0
  9
$DIMALTD
 70
     2
  9
$DIMALTF
 40
25.399999999999999
  9
$DIMLFAC
 40
1.0
  9
$DIMTOFL
 70
     0
  9
$DIMTVP
 40
0.0
  9
$DIMTIX
 70
     0
  9
$DIMSOXD
 70
     0
  9
$DIMSAH
 70
     0
  9
$DIMBLK1
  1

  9
$DIMBLK2
  1

  9
$DIMSTYLE
  2
STANDARD
  9
$DIMCLRD
 70
     0
  9
$DIMCLRE
 70
     0
  9
$DIMCLRT
 70
     0
  9
$DIMTFAC
 40
1.0
  9
$DIMGAP
 40
0.09
  9
$LUNITS
 70
     2
  9
$LUPREC
 70
     4
  9
$SKETCHINC
 40
0.1
  9
$FILLETRAD
 40
0.0
  9
$AUNITS
 70
     0
  9
$AUPREC
 70
     0
  9
$MENU
  1
.
  9
$ELEVATION
 40
0.0
  9
$PELEVATION
 40
0.0
  9
$THICKNESS
 40
0.0
  9
$LIMCHECK
 70
     0
  9
$BLIPMODE
 70
     0
  9
$CHAMFERA
 40
0.0
  9
$CHAMFERB
 40
0.0
  9
$SKPOLY
 70
     0
  9
$TDCREATE
 40
2457892.7739611231
  9
$TDUPDATE
 40
2457904.5877185068
  9
$TDINDWG
 40
0.0875535764
  9
$TDUSRTIMER
 40
0.0875535764
  9
$USRTIMER
 70
     1
  9
$ANGBASE
 50
0.0
  9
$ANGDIR
 70
     0
  9
$PDMODE
 70
     0
  9
$PDSIZE
 40
0.3125
  9
$PLINEWID
 40
0.0
  9
$COORDS
 70
     1
  9
$SPLFRAME
 70
     0
  9
$SPLINETYPE
 70
     6
  9
$SPLINESEGS
 70
     8
  9
$ATTDIA
 70
     1
  9
$ATTREQ
 70
     1
  9
$HANDLING
 70
     1
  9
$HANDSEED
  5
C7D
  9
$SURFTAB1
 70
     6
  9
$SURFTAB2
 70
     6
  9
$SURFTYPE
 70
     6
  9
$SURFU
 70
     6
  9
$SURFV
 70
     6
  9
$UCSNAME
  2

  9
$UCSORG
 10
0.0
 20
0.0
 30
0.0
  9
$UCSXDIR
 10
1.0
 20
0.0
 30
0.0
  9
$UCSYDIR
 10
0.0
 20
1.0
 30
0.0
  9
$PUCSNAME
  2

  9
$PUCSORG
 10
0.0
 20
0.0
 30
0.0
  9
$PUCSXDIR
 10
1.0
 20
0.0
 30
0.0
  9
$PUCSYDIR
 10
0.0
 20
1.0
 30
0.0
  9
$USERI1
 70
     0
  9
$USERI2
 70
     0
  9
$USERI3
 70
     0
  9
$USERI4
 70
     0
  9
$USERI5
 70
     0
  9
$USERR1
 40
0.0
  9
$USERR2
 40
0.0
  9
$USERR3
 40
0.0
  9
$USERR4
 40
0.0
  9
$USERR5
 40
0.0
  9
$WORLDVIEW
 70
     1
  9
$SHADEDGE
 70
     3
  9
$SHADEDIF
 70
    70
  9
$TILEMODE
 70
     1
  9
$MAXACTVP
 70
    48
  9
$PLIMCHECK
 70
     0
  9
$PEXTMIN
 10
1.0000000000000000E+020
 20
1.0000000000000000E+020
 30
1.0000000000000000E+020
  9
$PEXTMAX
 10
-1.0000000000000000E+020
 20
-1.0000000000000000E+020
 30
-1.0000000000000000E+020
  9
$PLIMMIN
 10
0.0
 20
0.0
  9
$PLIMMAX
 10
12.0
 20
9.0
  9
$UNITMODE
 70
     0
  9
$VISRETAIN
 70
     1
  9
$PLINEGEN
 70
     0
  9
$PSLTSCALE
 70
     1
  0
ENDSEC
  0
SECTION
  2
TABLES
  0
TABLE
  2
VPORT
 70
     1
  0
VPORT
  2
*ACTIVE
 70
     0
 10
0.0
 20
0.0
 11
1.0
 21
1.0
 12
0.0
 22
0.0
 13
0.0
 23
0.0
 14
1.0
 24
1.0
 15
0.0
 25
0.0
 16
-0.0000000000000044
 26
0.0
 36
20.577130149567111
 17
7.746521857145205
 27
11.81550834683865
 37
0.0
 40
8.2305629913102205
 41
1.798307475317348
 42
50.0
 43
0.0
 44
0.0
 50
0.0
 51
0.0
 71
     0
 72
   100
 73
     1
 74
     1
 75
     0
 76
     0
 77
     0
 78
     0
  0
ENDTAB
  0
TABLE
  2
LTYPE
 70
     2
  0
LTYPE
  2
CONTINUOUS
 70
     0
  3
Solid line
 72
    65
 73
     0
 40
0.0
  0
LTYPE
  2
PHANTOM2
 70
     0
  3
___ _ _ ___ _ _ ___ _ _ ___ _ _
 72
    65
 73
     6
 40
1.25
 49
0.625
 49
-0.125
 49
0.125
 49
-0.125
 49
0.125
 49
-0.125
  0
ENDTAB
  0
TABLE
  2
LAYER
 70
     2
  0
LAYER
  2
0
 70
     0
 62
     7
  6
CONTINUOUS
  0
LAYER
  2
DEFPOINTS
 70
     0
 62
     7
  6
CONTINUOUS
  0
ENDTAB
  0
TABLE
  2
STYLE
 70
     1
  0
STYLE
  2
STANDARD
 70
     0
 40
0.0
 41
0.8
 50
0.0
 71
     0
 42
0.2
  3
txt
  4

  0
ENDTAB
  0
TABLE
  2
VIEW
 70
     0
  0
ENDTAB
  0
TABLE
  2
UCS
 70
     0
  0
ENDTAB
  0
TABLE
  2
APPID
 70
     5
  0
APPID
  2
ACAD
 70
     0
  0
APPID
  2
ACAD_MLEADERVER
 70
     0
  0
APPID
  2
ACAD_NAV_VCDISPLAY
 70
     0
  0
APPID
  2
ACAD_EXEMPT_FROM_CAD_STANDARDS
 70
     0
  0
APPID
  2
AcDbAttr
 70
     0
  0
ENDTAB
  0
TABLE
  2
DIMSTYLE
 70
     1
  0
DIMSTYLE
  2
STANDARD
 70
     0
  3

  4

  5

  6

  7

 40
1.0
 41
0.1875
 42
0.0625
 43
0.38
 44
0.125
 45
0.0
 46
0.0
 47
0.01
 48
0.01
140
0.15625
141
0.09
142
0.0
143
25.399999999999999
144
1.0
145
0.0
146
1.0
147
0.09
 71
     1
 72
     0
 73
     1
 74
     1
 75
     0
 76
     0
 77
     0
 78
     4
170
     0
171
     2
172
     0
173
     0
174
     0
175
     0
176
     0
177
     0
178
     0
  0
ENDTAB
  0
ENDSEC
  0
SECTION
  2
BLOCKS
  0
BLOCK
  8
0
  2
$MODEL_SPACE
 70
     0
 10
0.0
 20
0.0
 30
0.0
  3
$MODEL_SPACE
  1

  0
ENDBLK
  5
21
  8
0
  0
BLOCK
 67
     1
  8
0
  2
$PAPER_SPACE
 70
     0
 10
0.0
 20
0.0
 30
0.0
  3
$PAPER_SPACE
  1

  0
ENDBLK
  5
1D
 67
     1
  8
0
  0
ENDSEC
  0
SECTION
  2
ENTITIES
  0
LINE
  5
B96
  8
0
 10
6.4003959017950267
 20
13.18276777090164
 30
0.0
 11
8.7623932557950273
 21
13.18276777090164
 31
0.0
  0
ARC
  5
B97
  8
0
 10
9.2755840986532885
 20
13.182770747656219
 30
0.0
 40
0.5131908428668953
 50
180.00033234317411
 51
211.37339094733031
  0
ARC
  5
B98
  8
0
 10
8.8157816022705351
 20
12.902399087287311
 30
0.0
 40
0.025350338119157
 50
294.21400995259319
 51
31.373462791951169
  0
ARC
  5
B99
  8
0
 10
9.2672478197950312
 20
11.898497797301641
 30
0.0
 40
1.0753946576000031
 50
114.214010078518
 51
179.41419046389981
  0
LINE
  5
B9A
  8
0
 10
8.1919093706574007
 20
11.90949276892068
 30
0.0
 11
8.1749757123950264
 21
11.89971547530164
 31
0.0
  0
ARC
  5
B9B
  8
0
 10
5.8872050589367664
 20
13.182770747656219
 30
0.0
 40
0.5131908428668953
 50
328.62660905266972
 51
359.99966765682592
  0
ARC
  5
B9C
  8
0
 10
6.3470075553195189
 20
12.902399087287311
 30
0.0
 40
0.025350338119157
 50
148.62653720804889
 51
245.78599004740681
  0
ARC
  5
B9D
  8
0
 10
5.8955413377950228
 20
11.898497797301641
 30
0.0
 40
1.0753946576000031
 50
0.5858095361001455
 51
65.785989921481985
  0
LINE
  5
B9E
  8
0
 10
6.9708797869326542
 20
11.90949276892068
 30
0.0
 11
6.9878134451950276
 21
11.89971547530164
 31
0.0
  0
LINE
  5
B9F
  8
0
 10
6.9703709566950263
 20
11.89971547530164
 30
0.0
 11
8.1924182007950268
 21
11.89971547530164
 31
0.0
  0
ARC
  5
BA0
  8
0
 10
8.4373000905950537
 20
11.899715475301649
 30
0.0
 40
0.2448818898000274
 50
180.00000000000239
 51
218.0766343006986
  0
ARC
  5
BA1
  8
0
 10
8.2246977283891365
 20
11.733153890635689
 30
0.0
 40
0.025196850388776
 50
292.19987825590448
 51
38.07663438726609
  0
ARC
  5
BA2
  8
0
 10
8.2908938991029402
 20
11.57094414002365
 30
0.0
 40
0.1499999994995502
 50
112.1998781621472
 51
150.0730450976798
  0
ARC
  5
BA3
  8
0
 10
6.7254890669950012
 20
11.899715475301649
 30
0.0
 40
0.2448818898000274
 50
321.9233656993012
 51
359.99999999999739
  0
ARC
  5
BA4
  8
0
 10
6.9380914292009184
 20
11.733153890635689
 30
0.0
 40
0.025196850388776
 50
141.9233656127339
 51
247.80012174409549
  0
ARC
  5
BA5
  8
0
 10
6.8718952584871094
 20
11.57094414002365
 30
0.0
 40
0.1499999994995502
 50
29.926954902320169
 51
67.800121837852785
  0
LINE
  5
BA6
  8
0
 10
7.0018945788535962
 20
11.645778467401639
 30
0.0
 11
8.1608945787950251
 21
11.645778467401639
 31
0.0
  0
ARC
  5
BA7
  8
0
 10
8.1338483680288096
 20
11.63079256986202
 30
0.0
 40
0.0149347294484137
 50
319.07553995824418
 51
90.044273866335715
  0
ARC
  5
BA8
  8
0
 10
8.7134073349232306
 20
11.10876301962346
 30
0.0
 40
0.7650702156732161
 50
137.96830298297019
 51
165.00028616651349
  0
ARC
  5
BA9
  8
0
 10
8.4017553016996604
 20
11.18943480822514
 30
0.0
 40
0.4431665103914048
 50
164.64643637837
 51
200.7806745905861
  0
ARC
  5
BAA
  8
0
 10
8.2506185905152787
 20
11.140009016181059
 30
0.0
 40
0.2844226645783266
 50
202.27388482926361
 51
225.8327664275119
  0
ARC
  5
BAB
  8
0
 10
8.1806243877825242
 20
11.02126498974302
 30
0.0
 40
0.1539532442566456
 50
213.6350998934976
 51
270.04073832828738
  0
ARC
  5
BAC
  8
0
 10
8.2766492131527638
 20
11.26365445288801
 30
0.0
 40
0.4077833585412612
 50
256.39590588207312
 51
268.62591118495533
  0
ARC
  5
BAD
  8
0
 10
8.2664710059624031
 20
10.84107410880987
 30
0.0
 40
0.0149195995680456
 50
5.9216994229780218
 51
88.465494262500968
  0
ARC
  5
BAE
  8
0
 10
7.0228476496306707
 20
11.630817843200269
 30
0.0
 40
0.014960624202769
 50
89.999216948137828
 51
211.7208831688103
  0
ARC
  5
BAF
  8
0
 10
5.6428476794729434
 20
10.853155785590969
 30
0.0
 40
1.569083998431408
 50
17.22106426025962
 51
29.380169000013741
  0
ARC
  5
BB0
  8
0
 10
8.3827099330205197
 20
11.64747859117019
 30
0.0
 40
1.284187179298111
 50
194.8803500914629
 51
229.0085724186066
  0
ARC
  5
BB1
  8
0
 10
8.2447313022407371
 20
11.57982803794099
 30
0.0
 40
1.1441797975075489
 50
232.00308041458371
 51
271.07929968055078
  0
ARC
  5
BB2
  8
0
 10
8.2664930722418664
 20
10.45075138729454
 30
0.0
 40
0.0149016257962593
 50
269.19350308553481
 51
0.2292121970288402
  0
LINE
  5
BB3
  8
0
 10
8.2813945787950232
 20
10.45081100120164
 30
0.0
 11
8.2813936264950261
 21
10.854349629601639
 31
0.0
  0
ARC
  5
BB4
  8
0
 10
8.2963935283951944
 20
10.85434962960124
 30
0.0
 40
0.0149999019004031
 50
89.999975950041986
 51
180.0004834837336
  0
LINE
  5
BB5
  8
0
 10
8.1556581523253389
 20
10.86934959057545
 30
0.0
 11
11.349373827794761
 21
10.86934825001026
 31
0.0
  0
ARC
  5
BB6
  8
0
 10
11.349373708165469
 20
10.584347609616611
 30
0.0
 40
0.2850006403936762
 50
16.222802242615391
 51
89.999975950042284
  0
ARC
  5
BB7
  8
0
 10
11.60657543761652
 20
10.659182631870751
 30
0.0
 40
0.0171331168145884
 50
343.78965740733742
 51
16.222802242617082
  0
ARC
  5
BB8
  8
0
 10
11.34943030523525
 20
10.73394053734288
 30
0.0
 40
0.2849247588386798
 50
269.98864289998079
 51
343.7896574073373
  0
LINE
  5
BB9
  8
0
 10
11.349373827795031
 20
10.44901578410164
 30
0.0
 11
8.2812932794339513
 21
10.44901578410164
 31
0.0
  0
ARC
  5
BBA
  8
0
 10
8.2963954386466714
 20
10.46401584515335
 30
0.0
 40
0.0150000610518288
 50
180.00058447579559
 51
270.0002295414273
  0
ARC
  5
BBB
  8
0
 10
7.9263506422096919
 20
101.8525237528501
 30
0.0
 40
91.403621388747098
 50
269.6351229639842
 51
270.0902611354885
  0
ARC
  5
BBC
  8
0
 10
7.8728415863797609
 20
34.836267321026
 30
0.0
 40
24.391239438102929
 50
264.43092297532672
 51
268.75826790492579
  0
ARC
  5
BBD
  8
0
 10
-0.9426658557605893
 20
-68.220671642545682
 30
0.0
 40
79.044299413231144
 50
85.320604735399868
 51
85.811821423164432
  0
ARC
  5
BBE
  8
0
 10
5.7085103573948661
 20
23.592945068603839
 30
0.0
 40
13.010085690610291
 50
262.90009953672882
 51
266.12871620103789
  0
ARC
  5
BBF
  8
0
 10
4.2940481415251286
 20
12.141455511690619
 30
0.0
 40
1.4716244161264309
 50
255.4209324785501
 51
262.44126322262002
  0
ARC
  5
BC0
  8
0
 10
3.9444563732577378
 20
10.80343245215276
 30
0.0
 40
0.0886995885911743
 50
234.50040457688331
 51
256.41173820569998
  0
ARC
  5
BC1
  8
0
 10
3.9233726837044509
 20
10.77578914207942
 30
0.0
 40
0.053962851675532
 50
161.97896670869241
 51
235.6814370173214
  0
ARC
  5
BC2
  8
0
 10
4.3722263212798138
 20
10.63489851742766
 30
0.0
 40
0.5244065829632392
 50
123.3054366873955
 51
162.5122803384167
  0
ARC
  5
BC3
  8
0
 10
4.5880296097623123
 20
10.264881817789989
 30
0.0
 40
0.952421410698453
 50
107.2673827767325
 51
121.93260645884691
  0
ARC
  5
BC4
  8
0
 10
4.5541236089947246
 20
10.46296753290383
 30
0.0
 40
0.7536623014151596
 50
97.117307088254634
 51
109.2763400279313
  0
ARC
  5
BC5
  8
0
 10
4.5126463132692178
 20
10.85996556370654
 30
0.0
 40
0.3546751609589911
 50
73.767158894534916
 51
98.414755984692164
  0
ARC
  5
BC6
  8
0
 10
4.5324978393743001
 20
10.965831703262481
 30
0.0
 40
0.2477042792226304
 50
32.09588437846319
 51
71.329866273014673
  0
ARC
  5
BC7
  8
0
 10
4.0425678394826088
 20
10.69575338029831
 30
0.0
 40
0.8068720650827046
 50
7.5724693962027096
 51
29.857178751014509
  0
ARC
  5
BC8
  8
0
 10
4.7835315785395407
 20
10.79214793202809
 30
0.0
 40
0.0597040118640396
 50
281.73966936756449
 51
9.5789419258025141
  0
ARC
  5
BC9
  8
0
 10
4.7637853366578158
 20
10.89666296148352
 30
0.0
 40
0.166061726421056
 50
268.36157064802831
 51
281.07306896300372
  0
ARC
  5
BCA
  8
0
 10
4.6789128139306513
 20
7.2333644036802376
 30
0.0
 40
3.4982224430004321
 50
88.687563302027897
 51
91.170979114012241
  0
ARC
  5
BCB
  8
0
 10
4.6145359475650567
 20
10.46881489329814
 30
0.0
 40
0.2621379126892451
 50
91.554859183338252
 51
98.483381488007097
  0
ARC
  5
BCC
  8
0
 10
4.5756607745088633
 20
10.71867037509335
 30
0.0
 40
0.0094165079540686
 50
88.759119956642607
 51
200.90454131055029
  0
ARC
  5
BCD
  8
0
 10
4.5871456267345874
 20
10.723057056765629
 30
0.0
 40
0.0217106043722958
 50
200.90454131055111
 51
252.7562839917311
  0
ARC
  5
BCE
  8
0
 10
5.1139549555409767
 20
13.02853903893579
 30
0.0
 40
2.3865529015459859
 50
257.08899192083169
 51
267.5982434230516
  0
ARC
  5
BCF
  8
0
 10
5.5233349694536829
 20
32.009440059963751
 30
0.0
 40
21.371429024306501
 50
268.63421618610812
 51
270.48191136604532
  0
ARC
  5
BD0
  8
0
 10
159.3719133391844
 20
-76913.948763987821
 30
0.0
 40
76924.741019504858
 50
90.113052732375095
 51
90.114457077798477
  0
ARC
  5
BD1
  8
0
 10
5.8722588169875829
 20
22.439072937505198
 30
0.0
 40
11.547558608753381
 50
264.72925925826672
 51
268.06942784959
  0
ARC
  5
BD2
  8
0
 10
7.1998085699457572
 20
61.823361112013757
 30
0.0
 40
50.95421468814326
 50
268.06942784959
 51
270.18134007148262
  0
LINE
  5
BD3
  8
0
 10
6.9182568065455579
 20
11.74869316390164
 30
0.0
 11
8.2445323510444961
 21
11.74869316390164
 31
0.0
  0
ARC
  5
BD4
  8
0
 10
8.2693037655971526
 20
10.63672649625045
 30
0.0
 40
0.0181983430703709
 50
48.363382241155392
 51
98.799985168138747
  0
ARC
  5
BD5
  8
0
 10
8.2473259533714174
 20
11.44346633326801
 30
0.0
 40
0.7889892144911882
 50
242.4611464070743
 51
271.39397103798399
  0
ARC
  5
BD6
  8
0
 10
8.2592032795340522
 20
11.282910272823811
 30
0.0
 40
0.6576019919085046
 50
183.30825098135159
 51
235.05513227691949
  0
ARC
  5
BD7
  8
0
 10
10.5191377807006
 20
11.600480021627639
 30
0.0
 40
2.938029823523383
 50
179.1165805809797
 51
186.9501509485716
  0
ARC
  5
BD8
  8
0
 10
8.2940712569318524
 20
10.65504418976348
 30
0.0
 40
0.0133348358660049
 50
79.679199495955316
 51
161.90361924870689
  0
ARC
  5
BD9
  8
0
 10
10.269219056116279
 20
274.08723666295901
 30
0.0
 40
263.42646033547072
 50
269.57091703663019
 51
269.74301296500852
  0
ARC
  5
BDA
  8
0
 10
10.311285002395779
 20
216.40245458281689
 30
0.0
 40
205.7426670547045
 50
269.65924631255967
 51
270.36529978804748
  0
LINE
  5
BDB
  8
0
 10
6.3253636389950261
 20
12.91559683440164
 30
0.0
 11
8.8374255185950261
 21
12.91559683440164
 31
0.0
  0
ARC
  5
BDC
  8
0
 10
3.8977034168444442
 20
10.720749102716139
 30
0.0
 40
0.0761807901830487
 50
87.214890824929256
 51
109.6724345261736
  0
ARC
  5
BDD
  8
0
 10
3.9071542137735942
 20
7.6933384155257896
 30
0.0
 40
3.103506817656676
 50
87.639291578045203
 51
90.1061388657631
  0
ARC
  5
BDE
  8
0
 10
4.0643569400802368
 20
11.43464755555366
 30
0.0
 40
0.6411092211522793
 50
267.37448818771838
 51
281.87352826562858
  0
ARC
  5
BDF
  8
0
 10
4.7814737504312923
 20
7.2641241567840318
 30
0.0
 40
3.5911344470765338
 50
94.779993184672648
 51
99.378682311991895
  0
ARC
  5
BE0
  8
0
 10
4.5897323522797171
 20
9.7141219036698931
 30
0.0
 40
1.1337554560365311
 50
81.061169023532926
 51
95.441198662196612
  0
ARC
  5
BE1
  8
0
 10
4.729347907826857
 20
10.601752014833149
 30
0.0
 40
0.2352123476691921
 50
65.939923832961298
 51
81.061169023532869
  0
ARC
  5
BE2
  8
0
 10
4.8158185045272068
 20
10.78791790644121
 30
0.0
 40
0.0301229991540633
 50
28.050120417865081
 51
71.768619489207495
  0
ATTDEF
  5
BF4
  8
DEFPOINTS
 10
7.5781439888015187
 20
13.19420199592787
 30
0.0
 40
0.001
  1
K-11377
  3

  2
MODELNUMBER
 70
     0
1001
AcDbAttr
1070
     0
1070
     1
  0
ATTDEF
  5
BF5
  8
DEFPOINTS
 10
7.5781439888015187
 20
13.19253532926121
 30
0.0
 40
0.001
  1
FORTE
  3

  2
TRADENAME
 70
     0
1001
AcDbAttr
1070
     0
1070
     1
  0
ATTDEF
  5
BF6
  8
DEFPOINTS
 10
7.5781439888015187
 20
13.190868662594539
 30
0.0
 40
0.001
  1
TOWEL RING
  3

  2
PRODUCT
 70
     0
1001
AcDbAttr
1070
     0
1070
     1
  0
ATTDEF
  5
BF7
  8
DEFPOINTS
 10
7.5781439888015187
 20
13.189201995927879
 30
0.0
 40
0.001
  1
METAL
  3

  2
MATERIAL
 70
     0
1001
AcDbAttr
1070
     0
1070
     1
  0
ENDSEC
  0
EOF
