  0
SECTION
  2
HEADER
  9
$ACADVER
  1
AC1009
  9
$INSBASE
 10
6.5349579665999986
 20
5.6064439403007293
 30
0.0
  9
$EXTMIN
 10
2.8283549656241611
 20
-1.2203203956541011
 30
0.0
  9
$EXTMAX
 10
10.55950282162879
 20
6.866181297999999
 30
0.0
  9
$LIMMIN
 10
0.0
 20
0.0
  9
$LIMMAX
 10
11.692913385800001
 20
8.2677165353999982
  9
$ORTHOMODE
 70
     0
  9
$REGENMODE
 70
     1
  9
$FILLMODE
 70
     1
  9
$QTEXTMODE
 70
     0
  9
$MIRRTEXT
 70
     0
  9
$DRAGMODE
 70
     2
  9
$LTSCALE
 40
0.6431102362
  9
$OSMODE
 70
  3071
  9
$ATTMODE
 70
     1
  9
$TEXTSIZE
 40
0.2
  9
$TRACEWID
 40
0.05
  9
$TEXTSTYLE
  7
STANDARD
  9
$CLAYER
  8
0
  9
$CELTYPE
  6
BYLAYER
  9
$CECOLOR
 62
   256
  9
$DIMSCALE
 40
1.0
  9
$DIMASZ
 40
0.1875
  9
$DIMEXO
 40
0.0625
  9
$DIMDLI
 40
0.4443307087
  9
$DIMRND
 40
0.0
  9
$DIMDLE
 40
0.0
  9
$DIMEXE
 40
0.125
  9
$DIMTP
 40
0.01
  9
$DIMTM
 40
0.01
  9
$DIMTXT
 40
0.15625
  9
$DIMCEN
 40
0.1052362205
  9
$DIMTSZ
 40
0.0
  9
$DIMTOL
 70
     1
  9
$DIMLIM
 70
     0
  9
$DIMTIH
 70
     1
  9
$DIMTOH
 70
     1
  9
$DIMSE1
 70
     0
  9
$DIMSE2
 70
     0
  9
$DIMTAD
 70
     0
  9
$DIMZIN
 70
     0
  9
$DIMBLK
  1

  9
$DIMASO
 70
     1
  9
$DIMSHO
 70
     1
  9
$DIMPOST
  1

  9
$DIMAPOST
  1

  9
$DIMALT
 70
     0
  9
$DIMALTD
 70
     2
  9
$DIMALTF
 40
25.399999999999999
  9
$DIMLFAC
 40
1.0
  9
$DIMTOFL
 70
     0
  9
$DIMTVP
 40
0.0
  9
$DIMTIX
 70
     0
  9
$DIMSOXD
 70
     0
  9
$DIMSAH
 70
     0
  9
$DIMBLK1
  1

  9
$DIMBLK2
  1

  9
$DIMSTYLE
  2
STANDARD
  9
$DIMCLRD
 70
     0
  9
$DIMCLRE
 70
     0
  9
$DIMCLRT
 70
     0
  9
$DIMTFAC
 40
1.0
  9
$DIMGAP
 40
0.09
  9
$LUNITS
 70
     2
  9
$LUPREC
 70
     4
  9
$SKETCHINC
 40
0.1
  9
$FILLETRAD
 40
0.0
  9
$AUNITS
 70
     0
  9
$AUPREC
 70
     0
  9
$MENU
  1
.
  9
$ELEVATION
 40
0.0
  9
$PELEVATION
 40
0.0
  9
$THICKNESS
 40
0.0
  9
$LIMCHECK
 70
     0
  9
$BLIPMODE
 70
     0
  9
$CHAMFERA
 40
0.0
  9
$CHAMFERB
 40
0.0
  9
$SKPOLY
 70
     0
  9
$TDCREATE
 40
2457892.7739611231
  9
$TDUPDATE
 40
2457904.5852270261
  9
$TDINDWG
 40
0.0849578704
  9
$TDUSRTIMER
 40
0.0849578704
  9
$USRTIMER
 70
     1
  9
$ANGBASE
 50
0.0
  9
$ANGDIR
 70
     0
  9
$PDMODE
 70
     0
  9
$PDSIZE
 40
0.3125
  9
$PLINEWID
 40
0.0
  9
$COORDS
 70
     1
  9
$SPLFRAME
 70
     0
  9
$SPLINETYPE
 70
     6
  9
$SPLINESEGS
 70
     8
  9
$ATTDIA
 70
     1
  9
$ATTREQ
 70
     1
  9
$HANDLING
 70
     1
  9
$HANDSEED
  5
B9D
  9
$SURFTAB1
 70
     6
  9
$SURFTAB2
 70
     6
  9
$SURFTYPE
 70
     6
  9
$SURFU
 70
     6
  9
$SURFV
 70
     6
  9
$UCSNAME
  2

  9
$UCSORG
 10
0.0
 20
0.0
 30
0.0
  9
$UCSXDIR
 10
1.0
 20
0.0
 30
0.0
  9
$UCSYDIR
 10
0.0
 20
1.0
 30
0.0
  9
$PUCSNAME
  2

  9
$PUCSORG
 10
0.0
 20
0.0
 30
0.0
  9
$PUCSXDIR
 10
1.0
 20
0.0
 30
0.0
  9
$PUCSYDIR
 10
0.0
 20
1.0
 30
0.0
  9
$USERI1
 70
     0
  9
$USERI2
 70
     0
  9
$USERI3
 70
     0
  9
$USERI4
 70
     0
  9
$USERI5
 70
     0
  9
$USERR1
 40
0.0
  9
$USERR2
 40
0.0
  9
$USERR3
 40
0.0
  9
$USERR4
 40
0.0
  9
$USERR5
 40
0.0
  9
$WORLDVIEW
 70
     1
  9
$SHADEDGE
 70
     3
  9
$SHADEDIF
 70
    70
  9
$TILEMODE
 70
     1
  9
$MAXACTVP
 70
    48
  9
$PLIMCHECK
 70
     0
  9
$PEXTMIN
 10
1.0000000000000000E+020
 20
1.0000000000000000E+020
 30
1.0000000000000000E+020
  9
$PEXTMAX
 10
-1.0000000000000000E+020
 20
-1.0000000000000000E+020
 30
-1.0000000000000000E+020
  9
$PLIMMIN
 10
0.0
 20
0.0
  9
$PLIMMAX
 10
12.0
 20
9.0
  9
$UNITMODE
 70
     0
  9
$VISRETAIN
 70
     1
  9
$PLINEGEN
 70
     0
  9
$PSLTSCALE
 70
     1
  0
ENDSEC
  0
SECTION
  2
TABLES
  0
TABLE
  2
VPORT
 70
     1
  0
VPORT
  2
*ACTIVE
 70
     0
 10
0.0
 20
0.0
 11
1.0
 21
1.0
 12
0.0
 22
0.0
 13
0.0
 23
0.0
 14
1.0
 24
1.0
 15
0.0
 25
0.0
 16
-0.0000000000000062
 26
0.0
 36
27.938396216313389
 17
6.6955629788772004
 27
2.8290267225764101
 37
0.0
 40
11.17496600658804
 41
1.798307475317348
 42
50.0
 43
0.0
 44
0.0
 50
0.0
 51
0.0
 71
     0
 72
   100
 73
     1
 74
     1
 75
     0
 76
     0
 77
     0
 78
     0
  0
ENDTAB
  0
TABLE
  2
LTYPE
 70
     2
  0
LTYPE
  2
CONTINUOUS
 70
     0
  3
Solid line
 72
    65
 73
     0
 40
0.0
  0
LTYPE
  2
PHANTOM2
 70
     0
  3
___ _ _ ___ _ _ ___ _ _ ___ _ _
 72
    65
 73
     6
 40
1.25
 49
0.625
 49
-0.125
 49
0.125
 49
-0.125
 49
0.125
 49
-0.125
  0
ENDTAB
  0
TABLE
  2
LAYER
 70
     2
  0
LAYER
  2
0
 70
     0
 62
     7
  6
CONTINUOUS
  0
LAYER
  2
DEFPOINTS
 70
     0
 62
     7
  6
CONTINUOUS
  0
ENDTAB
  0
TABLE
  2
STYLE
 70
     1
  0
STYLE
  2
STANDARD
 70
     0
 40
0.0
 41
0.8
 50
0.0
 71
     0
 42
0.2
  3
txt
  4

  0
ENDTAB
  0
TABLE
  2
VIEW
 70
     0
  0
ENDTAB
  0
TABLE
  2
UCS
 70
     0
  0
ENDTAB
  0
TABLE
  2
APPID
 70
     5
  0
APPID
  2
ACAD
 70
     0
  0
APPID
  2
ACAD_MLEADERVER
 70
     0
  0
APPID
  2
ACAD_NAV_VCDISPLAY
 70
     0
  0
APPID
  2
ACAD_EXEMPT_FROM_CAD_STANDARDS
 70
     0
  0
APPID
  2
AcDbAttr
 70
     0
  0
ENDTAB
  0
TABLE
  2
DIMSTYLE
 70
     1
  0
DIMSTYLE
  2
STANDARD
 70
     0
  3

  4

  5

  6

  7

 40
1.0
 41
0.1875
 42
0.0625
 43
0.38
 44
0.125
 45
0.0
 46
0.0
 47
0.01
 48
0.01
140
0.15625
141
0.09
142
0.0
143
25.399999999999999
144
1.0
145
0.0
146
1.0
147
0.09
 71
     1
 72
     0
 73
     1
 74
     1
 75
     0
 76
     0
 77
     0
 78
     4
170
     0
171
     2
172
     0
173
     0
174
     0
175
     0
176
     0
177
     0
178
     0
  0
ENDTAB
  0
ENDSEC
  0
SECTION
  2
BLOCKS
  0
BLOCK
  8
0
  2
$MODEL_SPACE
 70
     0
 10
0.0
 20
0.0
 30
0.0
  3
$MODEL_SPACE
  1

  0
ENDBLK
  5
21
  8
0
  0
BLOCK
 67
     1
  8
0
  2
$PAPER_SPACE
 70
     0
 10
0.0
 20
0.0
 30
0.0
  3
$PAPER_SPACE
  1

  0
ENDBLK
  5
1D
 67
     1
  8
0
  0
ENDSEC
  0
SECTION
  2
ENTITIES
  0
ARC
  5
7F1
  8
0
 10
6.5349579665999986
 20
5.6064439363999989
 30
0.0
 40
1.2597373615999989
 50
10.43949605019078
 51
345.10773895440673
  0
ARC
  5
7F2
  8
0
 10
6.5349579665999986
 20
5.606443930997977
 30
0.0
 40
0.6685000044627286
 50
24.20376399315543
 51
335.79623980511673
  0
ARC
  5
7F3
  8
0
 10
6.5349579665999986
 20
5.6064439363999989
 30
0.0
 40
0.5794999999999999
 50
28.45025357348349
 51
331.54974565517813
  0
ARC
  5
7F4
  8
0
 10
7.7610617977922782
 20
6.1975409741081284
 30
0.0
 40
1.225840873429517
 50
180.5420574852109
 51
184.136740423643
  0
ARC
  5
7F5
  8
0
 10
6.8330882479115891
 20
6.1294406461962998
 30
0.0
 40
0.2953740203446896
 50
183.94632201638581
 51
199.2470618665707
  0
ARC
  5
7F6
  8
0
 10
6.7016492677106481
 20
6.0829986075342584
 30
0.0
 40
0.1559733043654857
 50
199.05664345931271
 51
234.88283982636679
  0
ARC
  5
7F7
  8
0
 10
6.772797660015712
 20
6.2040352960097982
 30
0.0
 40
0.2961273368887887
 50
237.09463667461509
 51
257.29912079584273
  0
ARC
  5
7F8
  8
0
 10
6.9776741641323889
 20
7.157018090678207
 30
0.0
 40
1.2708728640637641
 50
257.73465705723368
 51
267.81172930505932
  0
ARC
  5
7F9
  8
0
 10
7.2044209115012521
 20
11.3920679450947
 30
0.0
 40
5.5118740376596076
 50
267.13735599522482
 51
270.162116403136
  0
ARC
  5
7FA
  8
0
 10
7.2199877143720341
 20
5.865231777588269
 30
0.0
 40
0.0149842212485379
 50
357.54554608618258
 51
89.889757551404983
  0
LINE
  5
7FB
  8
0
 10
7.2349581888000003
 20
5.8645900752999989
 30
0.0
 11
7.2349578762000002
 21
5.3483085409999997
 31
0.0
  0
ARC
  5
7FC
  8
0
 10
7.2496526243609072
 20
5.8654826288010771
 30
0.0
 40
0.0147224446262421
 50
88.659195549114742
 51
183.5175973705019
  0
ARC
  5
7FE
  8
0
 10
7.2243164185019193
 20
2.5459818412662849
 30
0.0
 40
3.3343180981443519
 50
20.96385098129851
 51
89.558707271931752
  0
ARC
  5
7FF
  8
0
 10
6.8611479241226707
 20
2.4780345018520191
 30
0.0
 40
3.6983548975061211
 50
264.21220658656853
 51
19.933804312083311
  0
ARC
  5
841
  8
0
 10
6.8537098429024397
 20
2.893266529566803
 30
0.0
 40
4.1110153790296193
 50
212.53915379632701
 51
264.89896094908892
  0
ARC
  5
842
  8
0
 10
6.4993160209255372
 20
2.6303378289186758
 30
0.0
 40
3.6709610553013761
 50
163.0648425935529
 51
212.0547530957171
  0
ARC
  5
843
  8
0
 10
4.532101600562557
 20
3.1962795420222099
 30
0.0
 40
1.6245100307760221
 50
156.91327487109629
 51
161.9492394709969
  0
ARC
  5
844
  8
0
 10
3.3335285066202678
 20
3.7127127313461998
 30
0.0
 40
0.3194624240955794
 50
125.0233312091145
 51
157.82513436089869
  0
ARC
  5
845
  8
0
 10
3.3889034015742832
 20
3.6438274982959662
 30
0.0
 40
0.407695465227337
 50
358.62607864054399
 51
125.8403774459476
  0
ARC
  5
848
  8
0
 10
2.8459149082978241
 20
3.773832073959726
 30
0.0
 40
0.9607890398053186
 50
335.29264257397358
 51
351.63466112053118
  0
ARC
  5
849
  8
0
 10
6.4680340912171328
 20
2.4368135864847011
 30
0.0
 40
2.9040648024201721
 50
161.2095068485406
 51
213.13950348113741
  0
ARC
  5
84A
  8
0
 10
6.7553016708940934
 20
2.5301173221267881
 30
0.0
 40
3.19658751711783
 50
211.7248633894074
 51
266.04376572463588
  0
ARC
  5
84C
  8
0
 10
6.8303592340736818
 20
2.545222755833882
 30
0.0
 40
3.2176827898875429
 50
264.72887789628982
 51
340.76968018119862
  0
ARC
  5
84D
  8
0
 10
7.1377475681701332
 20
2.4617562102978048
 30
0.0
 40
2.9000417487277481
 50
340.32644839377082
 51
64.574921167774491
  0
ARC
  5
84E
  8
0
 10
7.227452745502978
 20
2.5566685316344731
 30
0.0
 40
2.7761008267088929
 50
65.406044316074556
 51
89.537385809216119
  0
ARC
  5
84F
  8
0
 10
7.2496757468716817
 20
5.3474220794429748
 30
0.0
 40
0.0147444521843852
 50
176.5532016235735
 51
270.74372414046047
  0
ARC
  5
850
  8
0
 10
7.2199876085661847
 20
5.3476565070363629
 30
0.0
 40
0.0149845509759324
 50
270.1106434416626
 51
2.4939415141627381
  0
ARC
  5
892
  8
0
 10
7.7610617977923173
 20
5.0153468986918703
 30
0.0
 40
1.2258408734295561
 50
175.863259576357
 51
179.45794251478901
  0
ARC
  5
893
  8
0
 10
6.8330882479115891
 20
5.0834472266036981
 30
0.0
 40
0.2953740203446896
 50
160.7529381334293
 51
176.05367798361419
  0
ARC
  5
894
  8
0
 10
6.7016492677106481
 20
5.1298892652657413
 30
0.0
 40
0.1559733043654857
 50
125.1171601736331
 51
160.94335654068729
  0
ARC
  5
895
  8
0
 10
6.772797660015712
 20
5.0088525767902006
 30
0.0
 40
0.2961273368887887
 50
102.7008792041572
 51
122.9053633253849
  0
ARC
  5
896
  8
0
 10
6.9776741641323889
 20
4.0558697821217917
 30
0.0
 40
1.2708728640637641
 50
92.188270694940655
 51
102.2653429427663
  0
ARC
  5
897
  8
0
 10
7.2044252538016949
 20
-0.1792981299947157
 30
0.0
 40
5.5119921649014749
 50
89.837932211608035
 51
92.862627798011317
  0
ARC
  5
898
  8
0
 10
6.5347825558690218
 20
4.6568037859193261
 30
0.0
 40
0.2731951308937706
 50
79.872086283986675
 51
99.853142833514553
  0
ARC
  5
899
  8
0
 10
6.5733624692175541
 20
4.866982519096041
 30
0.0
 40
0.0595160785663364
 50
53.191033160600597
 51
80.853683197799285
  0
ARC
  5
89A
  8
0
 10
6.5976506091655533
 20
4.9006497761297814
 30
0.0
 40
0.0180232098212933
 50
331.89591046312933
 51
50.883403398673252
  0
ARC
  5
89B
  8
0
 10
6.5461254515055458
 20
4.9374875156160591
 30
0.0
 40
0.0812436585397459
 50
276.52278164922632
 51
326.08745202181723
  0
ARC
  5
89C
  8
0
 10
6.5347841750204072
 20
4.9656276639968224
 30
0.0
 40
0.110784402627182
 50
234.68353776783479
 51
280.70076316255529
  0
ARC
  5
89D
  8
0
 10
6.4943699930917971
 20
4.9092786140216109
 30
0.0
 40
0.0414440118481638
 50
196.24873790084291
 51
235.23914208953781
  0
ARC
  5
89E
  8
0
 10
6.4728139270777101
 20
4.9009322982282111
 30
0.0
 40
0.0185199109454567
 50
115.3279668671201
 51
190.10712894365099
  0
ARC
  5
89F
  8
0
 10
6.5019278459146621
 20
4.8507945244127164
 30
0.0
 40
0.0764480883271232
 50
100.47241936152361
 51
118.9776811480104
  0
ATTDEF
  5
B14
  8
DEFPOINTS
 10
6.5311174096130831
 20
5.5926372516596974
 30
0.0
 40
0.001
  1
METAL
  3

  2
MATERIAL
 70
     0
1001
AcDbAttr
1070
     0
1070
     1
  0
ATTDEF
  5
B15
  8
DEFPOINTS
 10
6.5311174096130831
 20
5.5943039183263616
 30
0.0
 40
0.001
  1
TOWEL RING
  3

  2
PRODUCT
 70
     0
1001
AcDbAttr
1070
     0
1070
     1
  0
ATTDEF
  5
B16
  8
DEFPOINTS
 10
6.5311174096130831
 20
5.5959705849930268
 30
0.0
 40
0.001
  1
FORTE
  3

  2
TRADENAME
 70
     0
1001
AcDbAttr
1070
     0
1070
     1
  0
ATTDEF
  5
B17
  8
DEFPOINTS
 10
6.5311174096130831
 20
5.5976372516596919
 30
0.0
 40
0.001
  1
K-11377
  3

  2
MODELNUMBER
 70
     0
1001
AcDbAttr
1070
     0
1070
     1
  0
ENDSEC
  0
EOF
