  0
SECTION
  2
HEADER
  9
$ACADVER
  1
AC1009
  9
$INSBASE
 10
5.244710279804079
 20
2.7694258879000002
 30
0.0
  9
$EXTMIN
 10
-10.992328429412289
 20
1.5222669127958339
 30
0.0
  9
$EXTMAX
 10
21.481748989020449
 20
4.0165848657400032
 30
0.0
  9
$LIMMIN
 10
0.0
 20
0.0
  9
$LIMMAX
 10
11.692913385800001
 20
8.2677165353999982
  9
$ORTHOMODE
 70
     0
  9
$REGENMODE
 70
     1
  9
$FILLMODE
 70
     1
  9
$QTEXTMODE
 70
     0
  9
$MIRRTEXT
 70
     0
  9
$DRAGMODE
 70
     2
  9
$LTSCALE
 40
0.6431102362
  9
$OSMODE
 70
  3071
  9
$ATTMODE
 70
     1
  9
$TEXTSIZE
 40
0.2
  9
$TRACEWID
 40
0.05
  9
$TEXTSTYLE
  7
STANDARD
  9
$CLAYER
  8
0
  9
$CELTYPE
  6
BYLAYER
  9
$CECOLOR
 62
   256
  9
$DIMSCALE
 40
1.0
  9
$DIMASZ
 40
0.1875
  9
$DIMEXO
 40
0.0625
  9
$DIMDLI
 40
0.4443307087
  9
$DIMRND
 40
0.0
  9
$DIMDLE
 40
0.0
  9
$DIMEXE
 40
0.125
  9
$DIMTP
 40
0.01
  9
$DIMTM
 40
0.01
  9
$DIMTXT
 40
0.15625
  9
$DIMCEN
 40
0.1052362205
  9
$DIMTSZ
 40
0.0
  9
$DIMTOL
 70
     1
  9
$DIMLIM
 70
     0
  9
$DIMTIH
 70
     1
  9
$DIMTOH
 70
     1
  9
$DIMSE1
 70
     0
  9
$DIMSE2
 70
     0
  9
$DIMTAD
 70
     0
  9
$DIMZIN
 70
     0
  9
$DIMBLK
  1

  9
$DIMASO
 70
     1
  9
$DIMSHO
 70
     1
  9
$DIMPOST
  1
\X
  9
$DIMAPOST
  1

  9
$DIMALT
 70
     1
  9
$DIMALTD
 70
     2
  9
$DIMALTF
 40
25.399999999999999
  9
$DIMLFAC
 40
1.0
  9
$DIMTOFL
 70
     0
  9
$DIMTVP
 40
0.0
  9
$DIMTIX
 70
     0
  9
$DIMSOXD
 70
     0
  9
$DIMSAH
 70
     0
  9
$DIMBLK1
  1

  9
$DIMBLK2
  1

  9
$DIMSTYLE
  2
STANDARD
  9
$DIMCLRD
 70
     0
  9
$DIMCLRE
 70
     0
  9
$DIMCLRT
 70
     0
  9
$DIMTFAC
 40
1.0
  9
$DIMGAP
 40
0.09
  9
$LUNITS
 70
     2
  9
$LUPREC
 70
     4
  9
$SKETCHINC
 40
0.1
  9
$FILLETRAD
 40
0.0
  9
$AUNITS
 70
     0
  9
$AUPREC
 70
     0
  9
$MENU
  1
.
  9
$ELEVATION
 40
0.0
  9
$PELEVATION
 40
0.0
  9
$THICKNESS
 40
0.0
  9
$LIMCHECK
 70
     0
  9
$BLIPMODE
 70
     0
  9
$CHAMFERA
 40
0.0
  9
$CHAMFERB
 40
0.0
  9
$SKPOLY
 70
     0
  9
$TDCREATE
 40
2457892.7758687502
  9
$TDUPDATE
 40
2457904.695163901
  9
$TDINDWG
 40
0.0513794907
  9
$TDUSRTIMER
 40
0.0513794907
  9
$USRTIMER
 70
     1
  9
$ANGBASE
 50
0.0
  9
$ANGDIR
 70
     0
  9
$PDMODE
 70
     0
  9
$PDSIZE
 40
0.3125
  9
$PLINEWID
 40
0.0
  9
$COORDS
 70
     1
  9
$SPLFRAME
 70
     0
  9
$SPLINETYPE
 70
     6
  9
$SPLINESEGS
 70
     8
  9
$ATTDIA
 70
     1
  9
$ATTREQ
 70
     1
  9
$HANDLING
 70
     1
  9
$HANDSEED
  5
B95
  9
$SURFTAB1
 70
     6
  9
$SURFTAB2
 70
     6
  9
$SURFTYPE
 70
     6
  9
$SURFU
 70
     6
  9
$SURFV
 70
     6
  9
$UCSNAME
  2

  9
$UCSORG
 10
0.0
 20
0.0
 30
0.0
  9
$UCSXDIR
 10
1.0
 20
0.0
 30
0.0
  9
$UCSYDIR
 10
0.0
 20
1.0
 30
0.0
  9
$PUCSNAME
  2

  9
$PUCSORG
 10
0.0
 20
0.0
 30
0.0
  9
$PUCSXDIR
 10
1.0
 20
0.0
 30
0.0
  9
$PUCSYDIR
 10
0.0
 20
1.0
 30
0.0
  9
$USERI1
 70
     0
  9
$USERI2
 70
     0
  9
$USERI3
 70
     0
  9
$USERI4
 70
     0
  9
$USERI5
 70
     0
  9
$USERR1
 40
0.0
  9
$USERR2
 40
0.0
  9
$USERR3
 40
0.0
  9
$USERR4
 40
0.0
  9
$USERR5
 40
0.0
  9
$WORLDVIEW
 70
     1
  9
$SHADEDGE
 70
     3
  9
$SHADEDIF
 70
    70
  9
$TILEMODE
 70
     1
  9
$MAXACTVP
 70
    48
  9
$PLIMCHECK
 70
     0
  9
$PEXTMIN
 10
1.0000000000000000E+020
 20
1.0000000000000000E+020
 30
1.0000000000000000E+020
  9
$PEXTMAX
 10
-1.0000000000000000E+020
 20
-1.0000000000000000E+020
 30
-1.0000000000000000E+020
  9
$PLIMMIN
 10
0.0
 20
0.0
  9
$PLIMMAX
 10
12.0
 20
9.0
  9
$UNITMODE
 70
     0
  9
$VISRETAIN
 70
     1
  9
$PLINEGEN
 70
     0
  9
$PSLTSCALE
 70
     1
  0
ENDSEC
  0
SECTION
  2
TABLES
  0
TABLE
  2
VPORT
 70
     1
  0
VPORT
  2
*ACTIVE
 70
     0
 10
0.0
 20
0.0
 11
1.0
 21
1.0
 12
0.0
 22
0.0
 13
0.0
 23
0.0
 14
1.0
 24
1.0
 15
0.0
 25
0.0
 16
-0.0000000000000178
 26
0.0
 36
81.544758871802017
 17
5.244710279804079
 27
2.7694258874266571
 37
0.0
 40
32.616758004015878
 41
1.798307475317348
 42
50.0
 43
0.0
 44
0.0
 50
0.0
 51
0.0
 71
     0
 72
   100
 73
     1
 74
     1
 75
     0
 76
     0
 77
     0
 78
     0
  0
ENDTAB
  0
TABLE
  2
LTYPE
 70
     2
  0
LTYPE
  2
CONTINUOUS
 70
     0
  3
Solid line
 72
    65
 73
     0
 40
0.0
  0
LTYPE
  2
PHANTOM2
 70
     0
  3
___ _ _ ___ _ _ ___ _ _ ___ _ _
 72
    65
 73
     6
 40
1.25
 49
0.625
 49
-0.125
 49
0.125
 49
-0.125
 49
0.125
 49
-0.125
  0
ENDTAB
  0
TABLE
  2
LAYER
 70
     2
  0
LAYER
  2
0
 70
     0
 62
     7
  6
CONTINUOUS
  0
LAYER
  2
DEFPOINTS
 70
     0
 62
     7
  6
CONTINUOUS
  0
ENDTAB
  0
TABLE
  2
STYLE
 70
     1
  0
STYLE
  2
STANDARD
 70
     0
 40
0.0
 41
0.8
 50
0.0
 71
     0
 42
0.2
  3
txt
  4

  0
ENDTAB
  0
TABLE
  2
VIEW
 70
     0
  0
ENDTAB
  0
TABLE
  2
UCS
 70
     0
  0
ENDTAB
  0
TABLE
  2
APPID
 70
     7
  0
APPID
  2
ACAD
 70
     0
  0
APPID
  2
ACAD_MLEADERVER
 70
     0
  0
APPID
  2
ACAD_NAV_VCDISPLAY
 70
     0
  0
APPID
  2
ACAD_EXEMPT_FROM_CAD_STANDARDS
 70
     0
  0
APPID
  2
ACAD_DSTYLE_DIMJAG
 70
     0
  0
APPID
  2
ACAD_DSTYLE_DIMTALN
 70
     0
  0
APPID
  2
AcDbAttr
 70
     0
  0
ENDTAB
  0
TABLE
  2
DIMSTYLE
 70
     1
  0
DIMSTYLE
  2
STANDARD
 70
     0
  3

  4

  5

  6

  7

 40
1.0
 41
0.1875
 42
0.0625
 43
0.38
 44
0.125
 45
0.0
 46
0.0
 47
0.01
 48
0.01
140
0.15625
141
0.09
142
0.0
143
25.399999999999999
144
1.0
145
0.0
146
1.0
147
0.09
 71
     1
 72
     0
 73
     1
 74
     1
 75
     0
 76
     0
 77
     0
 78
     4
170
     0
171
     2
172
     0
173
     0
174
     0
175
     0
176
     0
177
     0
178
     0
  0
ENDTAB
  0
ENDSEC
  0
SECTION
  2
BLOCKS
  0
BLOCK
  8
0
  2
$MODEL_SPACE
 70
     0
 10
0.0
 20
0.0
 30
0.0
  3
$MODEL_SPACE
  1

  0
ENDBLK
  5
21
  8
0
  0
BLOCK
 67
     1
  8
0
  2
$PAPER_SPACE
 70
     0
 10
0.0
 20
0.0
 30
0.0
  3
$PAPER_SPACE
  1

  0
ENDBLK
  5
1D
 67
     1
  8
0
  0
BLOCK
  8
0
  2
*U4
 70
     1
 10
0.0
 20
0.0
 30
0.0
  3
*U4
  1

  0
TEXT
  5
B7D
  8
0
 62
     0
 10
4.5988769464707451
 20
15.80983667073632
 30
0.0
 40
0.15625
  1
30.0001±0.0100
 41
0.8
  0
ENDBLK
  5
B7F
  8
0
  0
BLOCK
  8
0
  2
*U5
 70
     1
 10
0.0
 20
0.0
 30
0.0
  3
*U5
  1

  0
TEXT
  5
B81
  8
0
 62
     0
 10
4.609293613137412
 20
15.473586670736321
 30
0.0
 40
0.15625
  1
[762.00±0.25]
 41
0.8
  0
ENDBLK
  5
B83
  8
0
  0
BLOCK
  8
0
  2
*U6
 70
     1
 10
0.0
 20
0.0
 30
0.0
  3
*U6
  1

  0
TEXT
  5
B85
  8
0
 62
     0
 10
27.219638005862699
 20
4.7280342168853693
 30
0.0
 40
0.15625
  1
3.7806±0.0100
 41
0.8
  0
ENDBLK
  5
B87
  8
0
  0
BLOCK
  8
0
  2
*U7
 70
     1
 10
0.0
 20
0.0
 30
0.0
  3
*U7
  1

  0
TEXT
  5
B89
  8
0
 62
     0
 10
27.271721339196041
 20
4.3917842168853687
 30
0.0
 40
0.15625
  1
[96.03±0.25]
 41
0.8
  0
ENDBLK
  5
B8B
  8
0
  0
BLOCK
  8
0
  2
*U8
 70
     1
 10
0.0
 20
0.0
 30
0.0
  3
*U8
  1

  0
TEXT
  5
B8D
  8
0
 62
     0
 10
21.605455685597931
 20
2.8594258879000032
 30
0.0
 40
0.15625
  1
2.5195±0.0100
 41
0.8
  0
ENDBLK
  5
B8F
  8
0
  0
BLOCK
  8
0
  2
*U9
 70
     1
 10
0.0
 20
0.0
 30
0.0
  3
*U9
  1

  0
TEXT
  5
B91
  8
0
 62
     0
 10
21.636705685597938
 20
2.523175887900003
 30
0.0
 40
0.15625
  1
[63.99±0.25]
 41
0.8
  0
ENDBLK
  5
B93
  8
0
  0
ENDSEC
  0
SECTION
  2
ENTITIES
  0
LINE
  5
7D3
  8
0
 10
-7.190209834
 20
3.1688809583999991
 30
0.0
 11
17.6796159455
 21
3.1688827163999989
 31
0.0
  0
ARC
  5
7D4
  8
0
 10
17.67952522782829
 20
3.1534047765270552
 30
0.0
 40
0.0154782057230908
 50
15.88281964073378
 51
89.664187854337527
  0
ARC
  5
7D6
  8
0
 10
16.602842747026429
 20
2.9213018411261782
 30
0.0
 40
1.116861964924895
 50
1.873020843348806
 51
12.216703750380409
  0
ARC
  5
7D7
  8
0
 10
14.24997386267885
 20
2.7733221448190708
 30
0.0
 40
3.4740359657043012
 50
359.93574090476682
 51
3.0440443325463078
  0
ARC
  5
7D8
  8
0
 10
17.709724635040821
 20
3.1533534449713971
 30
0.0
 40
0.0154807103611029
 50
90.023772552925749
 51
167.46517371324441
  0
ARC
  5
7D9
  8
0
 10
17.392198766658531
 20
-28.01833803178479
 30
0.0
 40
31.18878849112172
 50
86.977297362793038
 51
89.416686595388029
  0
ARC
  5
7DA
  8
0
 10
25.761486577356699
 20
129.2103765617201
 30
0.0
 40
126.2625207146902
 50
266.94702321400422
 51
267.23064904233189
  0
ARC
  5
7DB
  8
0
 10
19.79211155030444
 20
6.5184869159597758
 30
0.0
 40
3.425680206310636
 50
267.8074608510816
 51
269.8508627182652
  0
ARC
  5
7DC
  8
0
 10
19.823250974157979
 20
4.104871290487301
 30
0.0
 40
1.0128453625879541
 50
267.73346219018151
 51
286.1933168350846
  0
ARC
  5
7DD
  8
0
 10
20.04795655628029
 20
3.3164804048258798
 30
0.0
 40
0.1931102349495988
 50
287.40247987371589
 51
351.55532703809178
  0
ARC
  5
7DE
  8
0
 10
19.85247841069765
 20
3.354718341554805
 30
0.0
 40
0.3921904108255455
 50
350.22335326222623
 51
358.96564567064883
  0
LINE
  5
7DF
  8
0
 10
-7.190209834
 20
2.3699708362987959
 30
0.0
 11
17.6796159455
 21
2.3699690782987961
 31
0.0
  0
ARC
  5
7E0
  8
0
 10
17.67952522782829
 20
2.3854470181717411
 30
0.0
 40
0.0154782057230908
 50
270.33581214566249
 51
344.11718035926617
  0
ARC
  5
7E1
  8
0
 10
16.602842747026429
 20
2.6175499535726181
 30
0.0
 40
1.116861964924895
 50
347.78329624961958
 51
358.1269791566512
  0
ARC
  5
7E2
  8
0
 10
17.709724635040821
 20
2.3854983497273992
 30
0.0
 40
0.0154807103611029
 50
192.53482628675559
 51
269.97622744707428
  0
ARC
  5
7E3
  8
0
 10
17.392198766658531
 20
33.557189826483587
 30
0.0
 40
31.18878849112172
 50
270.583313404612
 51
273.02270263720692
  0
ARC
  5
7E4
  8
0
 10
25.761486577356699
 20
-123.6715247670213
 30
0.0
 40
126.2625207146902
 50
92.769350957668124
 51
93.052976785995796
  0
ARC
  5
7E5
  8
0
 10
19.79211155030444
 20
-0.9796351212609799
 30
0.0
 40
3.425680206310636
 50
90.149137281734838
 51
92.192539148918357
  0
ARC
  5
7E6
  8
0
 10
19.823250974157979
 20
1.4339805042114939
 30
0.0
 40
1.0128453625879541
 50
73.806683164915412
 51
92.266537809818445
  0
ARC
  5
7E7
  8
0
 10
20.04795655628029
 20
2.222371389872916
 30
0.0
 40
0.1931102349495988
 50
8.4446729619081982
 51
72.597520126284024
  0
ARC
  5
7E8
  8
0
 10
19.85247841069765
 20
2.18413345314399
 30
0.0
 40
0.3921904108255455
 50
1.0343543293512281
 51
9.7766467377737811
  0
ARC
  5
7E9
  8
0
 10
14.24997386267885
 20
2.7655296559809259
 30
0.0
 40
3.4740359657043012
 50
356.95595566745368
 51
0.0642590952332333
  0
ARC
  5
7EA
  8
0
 10
20.244738261399998
 20
2.7694258879000002
 30
0.0
 40
1.2597400702410579
 50
196.49274095347579
 51
163.50725816388069
  0
ARC
  5
7EB
  8
0
 10
20.244738458899999
 20
2.7694258879000002
 30
0.0
 40
0.6685000000000007
 50
209.17590219734009
 51
150.82409599629941
  0
ARC
  5
7EC
  8
0
 10
20.2447384062
 20
2.7694258879000002
 30
0.0
 40
0.5782126838095834
 50
214.01815624521441
 51
145.98184150720689
  0
ARC
  5
7ED
  8
0
 10
20.24489839185545
 20
1.8147698717609719
 30
0.0
 40
0.2781946857254949
 50
80.691820406144615
 51
99.744158734793913
  0
ARC
  5
7EE
  8
0
 10
20.277941504399742
 20
2.0163716619517831
 30
0.0
 40
0.0739029113077404
 50
57.733422448829252
 51
80.691820406147002
  0
ARC
  5
7EF
  8
0
 10
20.308083336487162
 20
2.0641129610058542
 30
0.0
 40
0.0174426449520425
 50
339.29969482823401
 51
57.733422448833593
  0
ARC
  5
7F0
  8
0
 10
20.265758476270261
 20
2.0880693917919921
 30
0.0
 40
0.0659253916076775
 50
285.6149389168699
 51
332.81202421155763
  0
ARC
  5
7F1
  8
0
 10
20.244848261422799
 20
2.1345109918799041
 30
0.0
 40
0.1165319326128386
 50
245.89622220719579
 51
289.37291485037372
  0
ARC
  5
7F2
  8
0
 10
20.221417797627812
 20
2.08739692368811
 30
0.0
 40
0.0639930987968542
 50
210.27332032937409
 51
247.81848374567051
  0
ARC
  5
7F3
  8
0
 10
20.181646633703998
 20
2.0636867654454019
 30
0.0
 40
0.017697772562027
 50
130.49910359757001
 51
208.89029302640171
  0
ARC
  5
7F4
  8
0
 10
20.206574587806909
 20
2.0301208838680811
 30
0.0
 40
0.0594789224617162
 50
98.46964288193584
 51
127.7591417932593
  0
ARC
  5
7F5
  8
0
 10
-7.1901046682201288
 20
3.1534047765270552
 30
0.0
 40
0.0154782057230908
 50
90.335812145662416
 51
164.1171803592662
  0
ARC
  5
7F6
  8
0
 10
-6.1134221874182764
 20
2.9213018411261782
 30
0.0
 40
1.116861964924895
 50
167.78329624961961
 51
178.1269791566512
  0
ARC
  5
7F7
  8
0
 10
-3.760553303070695
 20
2.7733221448190708
 30
0.0
 40
3.4740359657043012
 50
176.95595566745371
 51
180.06425909523321
  0
ARC
  5
7F8
  8
0
 10
-7.2203040754326651
 20
3.1533534449713971
 30
0.0
 40
0.0154807103611029
 50
12.534826286755591
 51
89.976227447074265
  0
ARC
  5
7F9
  8
0
 10
-6.9027782070503738
 20
-28.01833803178479
 30
0.0
 40
31.18878849112172
 50
90.583313404611957
 51
93.022702637206905
  0
ARC
  5
7FA
  8
0
 10
-15.27206601774853
 20
129.2103765617201
 30
0.0
 40
126.2625207146902
 50
272.76935095766811
 51
273.05297678599572
  0
ARC
  5
7FB
  8
0
 10
-9.3026909906962878
 20
6.5184869159597758
 30
0.0
 40
3.425680206310636
 50
270.1491372817348
 51
272.19253914891829
  0
ARC
  5
7FC
  8
0
 10
-9.3338304145498192
 20
4.104871290487301
 30
0.0
 40
1.0128453625879541
 50
253.80668316491551
 51
272.26653780981849
  0
ARC
  5
7FD
  8
0
 10
-9.5585359966721306
 20
3.3164804048258798
 30
0.0
 40
0.1931102349495988
 50
188.4446729619082
 51
252.597520126284
  0
ARC
  5
7FE
  8
0
 10
-9.3630578510894882
 20
3.354718341554805
 30
0.0
 40
0.3921904108255455
 50
181.0343543293512
 51
189.77664673777369
  0
ARC
  5
7FF
  8
0
 10
-7.1901046682201288
 20
2.3854470181717411
 30
0.0
 40
0.0154782057230908
 50
195.8828196407338
 51
269.66418785433751
  0
ARC
  5
800
  8
0
 10
-6.1134221874182764
 20
2.6175499535726181
 30
0.0
 40
1.116861964924895
 50
181.8730208433488
 51
192.21670375038039
  0
ARC
  5
801
  8
0
 10
-7.2203040754326651
 20
2.3854983497273992
 30
0.0
 40
0.0154807103611029
 50
270.02377255292572
 51
347.4651737132445
  0
ARC
  5
802
  8
0
 10
-6.9027782070503738
 20
33.557189826483587
 30
0.0
 40
31.18878849112172
 50
266.97729736279308
 51
269.41668659538811
  0
ARC
  5
803
  8
0
 10
-15.27206601774853
 20
-123.6715247670213
 30
0.0
 40
126.2625207146902
 50
86.947023214004247
 51
87.230649042331905
  0
ARC
  5
804
  8
0
 10
-9.3026909906962878
 20
-0.9796351212609799
 30
0.0
 40
3.425680206310636
 50
87.807460851081686
 51
89.850862718265134
  0
ARC
  5
805
  8
0
 10
-9.3338304145498192
 20
1.4339805042114939
 30
0.0
 40
1.0128453625879541
 50
87.733462190181527
 51
106.1933168350845
  0
ARC
  5
806
  8
0
 10
-9.5585359966721306
 20
2.222371389872916
 30
0.0
 40
0.1931102349495988
 50
107.4024798737159
 51
171.5553270380918
  0
ARC
  5
807
  8
0
 10
-9.3630578510894882
 20
2.18413345314399
 30
0.0
 40
0.3921904108255455
 50
170.2233532622262
 51
178.96564567064871
  0
ARC
  5
808
  8
0
 10
-3.760553303070695
 20
2.7655296559809259
 30
0.0
 40
3.4740359657043012
 50
179.9357409047667
 51
183.04404433254629
  0
ARC
  5
809
  8
0
 10
-9.7553177017918422
 20
2.7694258879000002
 30
0.0
 40
1.2597400702410579
 50
16.492741836119279
 51
343.5072590465241
  0
ARC
  5
80A
  8
0
 10
-9.7553178992918426
 20
2.7694258879000002
 30
0.0
 40
0.6685000000000007
 50
29.17590400370058
 51
330.82409780265988
  0
ARC
  5
80B
  8
0
 10
-9.7553178465918382
 20
2.7694258879000002
 30
0.0
 40
0.5782126838095834
 50
34.01815849279307
 51
325.9818437547857
  0
ARC
  5
80C
  8
0
 10
-9.7554778322472906
 20
1.8147698717609719
 30
0.0
 40
0.2781946857254949
 50
80.255841265206044
 51
99.308179593855371
  0
ARC
  5
80D
  8
0
 10
-9.7885209447915802
 20
2.0163716619517831
 30
0.0
 40
0.0739029113077404
 50
99.308179593853012
 51
122.2665775511707
  0
ARC
  5
80E
  8
0
 10
-9.8186627768789982
 20
2.0641129610058542
 30
0.0
 40
0.0174426449520425
 50
122.26657755116641
 51
200.70030517176599
  0
ARC
  5
80F
  8
0
 10
-9.7763379166621007
 20
2.0880693917919921
 30
0.0
 40
0.0659253916076775
 50
207.18797578844249
 51
254.3850610831301
  0
ARC
  5
810
  8
0
 10
-9.7554277018146358
 20
2.1345109918799041
 30
0.0
 40
0.1165319326128386
 50
250.62708514962631
 51
294.10377779280418
  0
ARC
  5
811
  8
0
 10
-9.7319972380196482
 20
2.08739692368811
 30
0.0
 40
0.0639930987968542
 50
292.18151625432949
 51
329.72667967062591
  0
ARC
  5
812
  8
0
 10
-9.692226074095835
 20
2.0636867654454019
 30
0.0
 40
0.017697772562027
 50
331.10970697359818
 51
49.500896402429888
  0
ARC
  5
813
  8
0
 10
-9.7171540281987454
 20
2.0301208838680811
 30
0.0
 40
0.0594789224617162
 50
52.24085820674069
 51
81.530357118064174
  0
ATTDEF
  5
AB2
  8
DEFPOINTS
 10
5.2411238328756697
 20
2.7607908102727738
 30
0.0
 40
0.001
  1
K-11372
  3

  2
MODELNUMBER
 70
     0
1001
AcDbAttr
1070
     0
1070
     1
  0
ATTDEF
  5
AB3
  8
DEFPOINTS
 10
5.2411238328756697
 20
2.7591241436061091
 30
0.0
 40
0.001
  1
FORTE
  3

  2
TRADENAME
 70
     0
1001
AcDbAttr
1070
     0
1070
     1
  0
ATTDEF
  5
AB4
  8
DEFPOINTS
 10
5.2411238328756697
 20
2.7574574769394431
 30
0.0
 40
0.001
  1
TOWEL BAR
  3

  2
PRODUCT
 70
     0
1001
AcDbAttr
1070
     0
1070
     1
  0
ATTDEF
  5
AB5
  8
DEFPOINTS
 10
5.2411238328756697
 20
2.7557908102727779
 30
0.0
 40
0.001
  1
METAL
  3

  2
MATERIAL
 70
     0
1001
AcDbAttr
1070
     0
1070
     1
  0
ENDSEC
  0
EOF
