  0
SECTION
  2
HEADER
  9
$ACADVER
  1
AC1009
  9
$INSBASE
 10
5.1187508418999998
 20
12.027362386451109
 30
0.0
  9
$EXTMIN
 10
-5.142311407877016
 20
8.5533253840631502
 30
-0.0015258207003583
  9
$EXTMAX
 10
15.379202057362351
 20
12.04032857252443
 30
0.0000000349246037
  9
$LIMMIN
 10
0.0
 20
0.0
  9
$LIMMAX
 10
11.692913385800001
 20
8.2677165353999982
  9
$ORTHOMODE
 70
     0
  9
$REGENMODE
 70
     1
  9
$FILLMODE
 70
     1
  9
$QTEXTMODE
 70
     0
  9
$MIRRTEXT
 70
     0
  9
$DRAGMODE
 70
     2
  9
$LTSCALE
 40
0.6431102362
  9
$OSMODE
 70
  3071
  9
$ATTMODE
 70
     1
  9
$TEXTSIZE
 40
0.2
  9
$TRACEWID
 40
0.05
  9
$TEXTSTYLE
  7
STANDARD
  9
$CLAYER
  8
0
  9
$CELTYPE
  6
BYLAYER
  9
$CECOLOR
 62
     1
  9
$DIMSCALE
 40
1.0
  9
$DIMASZ
 40
0.1875
  9
$DIMEXO
 40
0.0625
  9
$DIMDLI
 40
0.4443307087
  9
$DIMRND
 40
0.0
  9
$DIMDLE
 40
0.0
  9
$DIMEXE
 40
0.125
  9
$DIMTP
 40
0.0
  9
$DIMTM
 40
0.0
  9
$DIMTXT
 40
0.15625
  9
$DIMCEN
 40
0.1052362205
  9
$DIMTSZ
 40
0.0
  9
$DIMTOL
 70
     0
  9
$DIMLIM
 70
     0
  9
$DIMTIH
 70
     1
  9
$DIMTOH
 70
     1
  9
$DIMSE1
 70
     0
  9
$DIMSE2
 70
     0
  9
$DIMTAD
 70
     0
  9
$DIMZIN
 70
     0
  9
$DIMBLK
  1

  9
$DIMASO
 70
     1
  9
$DIMSHO
 70
     1
  9
$DIMPOST
  1

  9
$DIMAPOST
  1

  9
$DIMALT
 70
     0
  9
$DIMALTD
 70
     2
  9
$DIMALTF
 40
25.399999999999999
  9
$DIMLFAC
 40
1.0
  9
$DIMTOFL
 70
     0
  9
$DIMTVP
 40
0.0
  9
$DIMTIX
 70
     0
  9
$DIMSOXD
 70
     0
  9
$DIMSAH
 70
     0
  9
$DIMBLK1
  1

  9
$DIMBLK2
  1

  9
$DIMSTYLE
  2
STANDARD
  9
$DIMCLRD
 70
     0
  9
$DIMCLRE
 70
     0
  9
$DIMCLRT
 70
     0
  9
$DIMTFAC
 40
1.0
  9
$DIMGAP
 40
0.09
  9
$LUNITS
 70
     2
  9
$LUPREC
 70
     4
  9
$SKETCHINC
 40
0.1
  9
$FILLETRAD
 40
0.0
  9
$AUNITS
 70
     0
  9
$AUPREC
 70
     0
  9
$MENU
  1
.
  9
$ELEVATION
 40
0.0
  9
$PELEVATION
 40
0.0
  9
$THICKNESS
 40
0.0
  9
$LIMCHECK
 70
     0
  9
$BLIPMODE
 70
     0
  9
$CHAMFERA
 40
0.0
  9
$CHAMFERB
 40
0.0
  9
$SKPOLY
 70
     0
  9
$TDCREATE
 40
2457972.4209698839
  9
$TDUPDATE
 40
2457972.4640323962
  9
$TDINDWG
 40
0.0418856829
  9
$TDUSRTIMER
 40
0.0418856829
  9
$USRTIMER
 70
     1
  9
$ANGBASE
 50
0.0
  9
$ANGDIR
 70
     0
  9
$PDMODE
 70
     0
  9
$PDSIZE
 40
0.3125
  9
$PLINEWID
 40
0.0
  9
$COORDS
 70
     1
  9
$SPLFRAME
 70
     0
  9
$SPLINETYPE
 70
     6
  9
$SPLINESEGS
 70
     8
  9
$ATTDIA
 70
     1
  9
$ATTREQ
 70
     1
  9
$HANDLING
 70
     1
  9
$HANDSEED
  5
B0E
  9
$SURFTAB1
 70
     6
  9
$SURFTAB2
 70
     6
  9
$SURFTYPE
 70
     6
  9
$SURFU
 70
     6
  9
$SURFV
 70
     6
  9
$UCSNAME
  2

  9
$UCSORG
 10
0.0
 20
0.0
 30
0.0
  9
$UCSXDIR
 10
1.0
 20
0.0
 30
0.0
  9
$UCSYDIR
 10
0.0
 20
1.0
 30
0.0
  9
$PUCSNAME
  2

  9
$PUCSORG
 10
0.0
 20
0.0
 30
0.0
  9
$PUCSXDIR
 10
1.0
 20
0.0
 30
0.0
  9
$PUCSYDIR
 10
0.0
 20
1.0
 30
0.0
  9
$USERI1
 70
     0
  9
$USERI2
 70
     0
  9
$USERI3
 70
     0
  9
$USERI4
 70
     0
  9
$USERI5
 70
     0
  9
$USERR1
 40
0.0
  9
$USERR2
 40
0.0
  9
$USERR3
 40
0.0
  9
$USERR4
 40
0.0
  9
$USERR5
 40
0.0
  9
$WORLDVIEW
 70
     1
  9
$SHADEDGE
 70
     3
  9
$SHADEDIF
 70
    70
  9
$TILEMODE
 70
     1
  9
$MAXACTVP
 70
    48
  9
$PLIMCHECK
 70
     0
  9
$PEXTMIN
 10
1.0000000000000000E+020
 20
1.0000000000000000E+020
 30
1.0000000000000000E+020
  9
$PEXTMAX
 10
-1.0000000000000000E+020
 20
-1.0000000000000000E+020
 30
-1.0000000000000000E+020
  9
$PLIMMIN
 10
0.0
 20
0.0
  9
$PLIMMAX
 10
12.0
 20
9.0
  9
$UNITMODE
 70
     0
  9
$VISRETAIN
 70
     1
  9
$PLINEGEN
 70
     0
  9
$PSLTSCALE
 70
     1
  0
ENDSEC
  0
SECTION
  2
TABLES
  0
TABLE
  2
VPORT
 70
     1
  0
VPORT
  2
*ACTIVE
 70
     0
 10
0.0
 20
0.0
 11
1.0
 21
1.0
 12
-5.4275978757177352
 22
2.956086470341349
 13
0.0
 23
0.0
 14
1.0
 24
1.0
 15
0.0
 25
0.0
 16
-0.0000000000000178
 26
0.0
 36
83.606265400238925
 17
10.546043200460399
 27
7.3407405079524404
 37
0.0
 40
11.46712720468328
 41
1.798307475317348
 42
50.0
 43
0.0
 44
0.0
 50
0.0
 51
0.0
 71
     0
 72
   100
 73
     1
 74
     1
 75
     0
 76
     0
 77
     0
 78
     0
  0
ENDTAB
  0
TABLE
  2
LTYPE
 70
     2
  0
LTYPE
  2
CONTINUOUS
 70
     0
  3
Solid line
 72
    65
 73
     0
 40
0.0
  0
LTYPE
  2
PHANTOM2
 70
     0
  3
___ _ _ ___ _ _ ___ _ _ ___ _ _
 72
    65
 73
     6
 40
1.25
 49
0.625
 49
-0.125
 49
0.125
 49
-0.125
 49
0.125
 49
-0.125
  0
ENDTAB
  0
TABLE
  2
LAYER
 70
     2
  0
LAYER
  2
0
 70
     0
 62
     7
  6
CONTINUOUS
  0
LAYER
  2
DEFPOINTS
 70
     0
 62
     7
  6
CONTINUOUS
  0
ENDTAB
  0
TABLE
  2
STYLE
 70
     1
  0
STYLE
  2
STANDARD
 70
     0
 40
0.0
 41
0.8
 50
0.0
 71
     0
 42
0.2
  3
txt
  4

  0
ENDTAB
  0
TABLE
  2
VIEW
 70
     0
  0
ENDTAB
  0
TABLE
  2
UCS
 70
     0
  0
ENDTAB
  0
TABLE
  2
APPID
 70
     5
  0
APPID
  2
ACAD
 70
     0
  0
APPID
  2
ACAD_MLEADERVER
 70
     0
  0
APPID
  2
ACAD_NAV_VCDISPLAY
 70
     0
  0
APPID
  2
ACAD_EXEMPT_FROM_CAD_STANDARDS
 70
     0
  0
APPID
  2
AcDbAttr
 70
     0
  0
ENDTAB
  0
TABLE
  2
DIMSTYLE
 70
     1
  0
DIMSTYLE
  2
STANDARD
 70
     0
  3

  4

  5

  6

  7

 40
1.0
 41
0.1875
 42
0.0625
 43
0.38
 44
0.125
 45
0.0
 46
0.0
 47
1.5
 48
1.5
140
0.15625
141
0.09
142
0.0
143
25.399999999999999
144
1.0
145
0.0
146
1.0
147
0.09
 71
     0
 72
     0
 73
     1
 74
     1
 75
     0
 76
     0
 77
     0
 78
     4
170
     0
171
     2
172
     0
173
     0
174
     0
175
     0
176
     0
177
     0
178
     0
  0
ENDTAB
  0
ENDSEC
  0
SECTION
  2
BLOCKS
  0
BLOCK
  8
0
  2
$MODEL_SPACE
 70
     0
 10
0.0
 20
0.0
 30
0.0
  3
$MODEL_SPACE
  1

  0
ENDBLK
  5
21
  8
0
  0
BLOCK
 67
     1
  8
0
  2
$PAPER_SPACE
 70
     0
 10
0.0
 20
0.0
 30
0.0
  3
$PAPER_SPACE
  1

  0
ENDBLK
  5
1D
 67
     1
  8
0
  0
ENDSEC
  0
SECTION
  2
ENTITIES
  0
LINE
  5
5CD
  8
0
 10
12.93725947068927
 20
12.027362386451109
 30
0.0
 11
15.29925813591073
 21
12.027362386451109
 31
0.0
  0
ARC
  5
5CE
  8
0
 10
15.812442206124199
 20
12.02735906785823
 30
0.0
 40
0.5131840702241997
 50
179.99962948700579
 51
211.37309224152469
  0
ARC
  5
5CF
  8
0
 10
15.352644013900001
 20
11.746993357799999
 30
0.0
 40
0.025350338099997
 50
294.21363946113081
 51
31.373091908390659
  0
ARC
  5
5D7
  8
0
 10
15.80410374025819
 20
10.74308914853253
 30
0.0
 40
1.075394657758866
 50
114.213639605083
 51
179.41381997969211
  0
LINE
  5
5D9
  8
0
 10
14.72876536207878
 20
10.7540910734
 30
0.0
 11
14.711831640535539
 21
10.744313889320519
 31
0.0
  0
LINE
  5
5DA
  8
0
 10
13.50722688499488
 20
10.74432167836938
 30
0.0
 11
14.7292642924
 21
10.7443137766
 31
0.0
  0
ARC
  5
5DB
  8
0
 10
14.974218040698579
 20
10.744349549189611
 30
0.0
 40
0.2449537509106654
 50
180.0083673689694
 51
218.07419535289679
  0
ARC
  5
5DC
  8
0
 10
14.76155257950915
 20
10.577751983202299
 30
0.0
 40
0.0251968503913797
 50
292.1995077347176
 51
38.076263828863148
  0
ARC
  5
5DD
  8
0
 10
14.827747701799989
 20
10.415541804200011
 30
0.0
 40
0.1499999999999837
 50
112.19950779308719
 51
150.07267458630071
  0
LINE
  5
5DE
  8
0
 10
14.69774886494573
 20
10.49037697251368
 30
0.0
 11
13.5387496786
 21
10.4903844667
 31
0.0
  0
ARC
  5
5E0
  8
0
 10
14.678072090680169
 20
10.475620935592779
 30
0.0
 40
0.0147565932757243
 50
328.10563691476142
 51
90.436584564981118
  0
ARC
  5
5E1
  8
0
 10
-1.57088948415375
 20
19.013230422275861
 30
0.0
 40
18.370085276004101
 50
329.80895188523863
 51
332.27809303419491
  0
ARC
  5
5E2
  8
0
 10
13.110048574864241
 20
10.56726625365739
 30
0.0
 40
1.4355928017277959
 50
289.66419863215037
 51
326.5135111022567
  0
ARC
  5
5E3
  8
0
 10
12.34489379652541
 20
12.738715444743979
 30
0.0
 40
3.7378989617297571
 50
275.82868277606099
 51
289.50821802229808
  0
ARC
  5
5E4
  8
0
 10
11.612329331040691
 20
8.9138745698680601
 30
0.0
 40
0.0153927202125522
 50
199.8631176048444
 51
275.99317012735031
  0
ARC
  5
5E5
  8
0
 10
9.1224036346319508
 20
36.791106644333233
 30
0.0
 40
28.003599065098101
 50
275.10446285618059
 51
277.39040569495961
  0
LINE
  5
5E6
  8
0
 10
11.5978523693
 20
8.9086445207000011
 30
0.0
 11
11.539308870768339
 21
9.4656800061507713
 31
0.0
  0
ARC
  5
5E7
  8
0
 10
11.557763481763679
 20
9.4676195549226652
 30
0.0
 40
0.0185562527582434
 50
107.18835106992699
 51
185.9996652745649
  0
LINE
  5
5E8
  8
0
 10
11.5522798525482
 20
9.4853470569197036
 30
0.0
 11
12.467295440862509
 21
9.5894377172861471
 31
0.0
  0
ARC
  5
5E9
  8
0
 10
11.926821464891111
 20
15.32152389542661
 30
0.0
 40
5.7575102320648366
 50
275.38644977176449
 51
282.7706704241852
  0
ARC
  5
5EA
  8
0
 10
13.14661164543895
 20
10.14714286478716
 30
0.0
 40
0.4438675615419732
 50
276.84520212137812
 51
349.64682034444689
  0
ARC
  5
5EB
  8
0
 10
12.47804248528516
 20
10.147587096582649
 30
0.0
 40
1.1081170299155501
 50
355.84885965407199
 51
16.985809532376969
  0
ARC
  5
5EC
  8
0
 10
11.524402337316131
 20
9.4640083830088688
 30
0.0
 40
0.0149999687829776
 50
6.3984342349965182
 51
95.999488141978347
  0
ARC
  5
5ED
  8
0
 10
11.582934565339849
 20
8.9070766575201752
 30
0.0
 40
0.0149999689980994
 50
275.99976898466019
 51
5.99976752378398
  0
ARC
  5
5EE
  8
0
 10
5.1189495681144637
 20
70.55520896631316
 30
0.0
 40
61.411090692613151
 50
264.0140032427442
 51
275.98562624677959
  0
ARC
  5
5EF
  8
0
 10
5.1189471346025268
 20
70.555224684035466
 30
0.0
 40
62.001105577822038
 50
264.0139023391917
 51
275.98576021419137
  0
ARC
  5
5F0
  8
0
 10
12.4240754004758
 20
12.02735906785823
 30
0.0
 40
0.5131840702241997
 50
328.62690775847528
 51
0.0003705129942032
  0
ARC
  5
5F1
  8
0
 10
12.88387359269999
 20
11.746993357799999
 30
0.0
 40
0.025350338099997
 50
148.62690809160941
 51
245.7863605388691
  0
ARC
  5
5F2
  8
0
 10
12.432413866341809
 20
10.74308914853253
 30
0.0
 40
1.075394657758866
 50
0.5861800203079235
 51
65.786360394916926
  0
LINE
  5
5F3
  8
0
 10
13.507752244521219
 20
10.7540910734
 30
0.0
 11
13.52468596606446
 21
10.744313889320519
 31
0.0
  0
ARC
  5
5F4
  8
0
 10
13.26229956590141
 20
10.744349549189611
 30
0.0
 40
0.2449537509106654
 50
321.92580464710329
 51
359.99163263103048
  0
ARC
  5
5F5
  8
0
 10
13.47496502709085
 20
10.577751983202299
 30
0.0
 40
0.0251968503913797
 50
141.9237361711368
 51
247.80049226528229
  0
ARC
  5
5F6
  8
0
 10
13.4088279922002
 20
10.415639884743269
 30
0.0
 40
0.1498872433976669
 50
29.912183710333782
 51
67.806884939575951
  0
LINE
  5
5F7
  8
0
 10
-2.6993603344603629
 20
12.027362386451109
 30
0.0
 11
-5.061358999681822
 21
12.027362386451109
 31
0.0
  0
ARC
  5
5F8
  8
0
 10
-5.5745430698952934
 20
12.02735906785823
 30
0.0
 40
0.5131840702241997
 50
328.62690775847528
 51
0.0003705129942032
  0
ARC
  5
5F9
  8
0
 10
-5.1147448776710958
 20
11.746993357799999
 30
0.0
 40
0.025350338099997
 50
148.62690809160929
 51
245.78636053886919
  0
ARC
  5
5FA
  8
0
 10
-5.5662046040292816
 20
10.74308914853253
 30
0.0
 40
1.075394657758866
 50
0.5861800203079235
 51
65.786360394917025
  0
LINE
  5
5FB
  8
0
 10
-4.4908662258498744
 20
10.7540910734
 30
0.0
 11
-4.4739325043066351
 21
10.744313889320519
 31
0.0
  0
LINE
  5
5FC
  8
0
 10
-3.2693277487659742
 20
10.74432167836938
 30
0.0
 11
-4.491365156171093
 21
10.7443137766
 31
0.0
  0
ARC
  5
5FD
  8
0
 10
-4.7363189044696776
 20
10.744349549189611
 30
0.0
 40
0.2449537509106654
 50
321.92580464710329
 51
359.99163263103048
  0
ARC
  5
5FE
  8
0
 10
-4.5236534432802404
 20
10.577751983202299
 30
0.0
 40
0.0251968503913797
 50
141.9237361711368
 51
247.80049226528249
  0
ARC
  5
5FF
  8
0
 10
-4.5898485655710806
 20
10.415541804200011
 30
0.0
 40
0.1499999999999837
 50
29.9273254136993
 51
67.800492206912836
  0
LINE
  5
600
  8
0
 10
-4.4598497287168248
 20
10.49037697251368
 30
0.0
 11
-3.3008505423710921
 21
10.4903844667
 31
0.0
  0
ARC
  5
601
  8
0
 10
-4.4401729544512696
 20
10.475620935592779
 30
0.0
 40
0.0147565932757243
 50
89.563415435018882
 51
211.89436308523861
  0
ARC
  5
602
  8
0
 10
11.80878862038265
 20
19.013230422275861
 30
0.0
 40
18.370085276004101
 50
207.7219069658052
 51
210.1910481147614
  0
ARC
  5
603
  8
0
 10
-2.8721494386353319
 20
10.56726625365739
 30
0.0
 40
1.4355928017277959
 50
213.48648889774319
 51
250.3358013678496
  0
ARC
  5
604
  8
0
 10
-2.1069946602965022
 20
12.738715444743979
 30
0.0
 40
3.7378989617297571
 50
250.49178197770189
 51
264.17131722393901
  0
ARC
  5
605
  8
0
 10
-1.3744301948117901
 20
8.9138745698680601
 30
0.0
 40
0.0153927202125522
 50
264.0068298726498
 51
340.13688239515562
  0
ARC
  5
606
  8
0
 10
1.115495501596955
 20
36.791106644333233
 30
0.0
 40
28.003599065098101
 50
262.60959430504028
 51
264.89553714381941
  0
LINE
  5
607
  8
0
 10
-1.3599532330710931
 20
8.9086445207000011
 30
0.0
 11
-1.3014097345394351
 21
9.4656800061507713
 31
0.0
  0
ARC
  5
608
  8
0
 10
-1.3198643455347729
 20
9.4676195549226652
 30
0.0
 40
0.0185562527582434
 50
354.0003347254351
 51
72.811648930072948
  0
LINE
  5
609
  8
0
 10
-1.314380716319298
 20
9.4853470569197036
 30
0.0
 11
-2.2293963046336058
 21
9.5894377172861471
 31
0.0
  0
ARC
  5
60A
  8
0
 10
-1.6889223286622039
 20
15.32152389542661
 30
0.0
 40
5.7575102320648366
 50
257.22932957581492
 51
264.61355022823562
  0
ARC
  5
60B
  8
0
 10
-2.908712509210047
 20
10.14714286478716
 30
0.0
 40
0.4438675615419732
 50
190.35317965555311
 51
263.15479787862182
  0
ARC
  5
60C
  8
0
 10
-2.2401433490562588
 20
10.147587096582649
 30
0.0
 40
1.1081170299155501
 50
163.014190467623
 51
184.1511403459279
  0
ARC
  5
60D
  8
0
 10
-1.2864943770754531
 20
9.4640035322285208
 30
0.0
 40
0.0150092788997452
 50
85.552076937815713
 51
173.58691779729989
  0
ARC
  5
60E
  8
0
 10
-1.3450258846747061
 20
8.9070794847530514
 30
0.0
 40
0.0150091661214857
 50
174.01477432300089
 51
262.55253994940477
  0
ARC
  5
60F
  8
0
 10
-2.1861762642468938
 20
12.02735906785823
 30
0.0
 40
0.5131840702241997
 50
179.99962948700579
 51
211.37309224152469
  0
ARC
  5
610
  8
0
 10
-2.6459744564710901
 20
11.746993357799999
 30
0.0
 40
0.025350338099997
 50
294.21363946113098
 51
31.37309190839067
  0
ARC
  5
611
  8
0
 10
-2.1945147301129051
 20
10.74308914853253
 30
0.0
 40
1.075394657758866
 50
114.2136396050831
 51
179.41381997969211
  0
LINE
  5
612
  8
0
 10
-3.2698531082923128
 20
10.7540910734
 30
0.0
 11
-3.286786829835552
 21
10.744313889320519
 31
0.0
  0
ARC
  5
613
  8
0
 10
-3.0244004296725091
 20
10.744349549189611
 30
0.0
 40
0.2449537509106654
 50
180.00836736896949
 51
218.07419535289671
  0
ARC
  5
614
  8
0
 10
-3.2370658908619472
 20
10.577751983202299
 30
0.0
 40
0.0251968503913797
 50
292.19950773471771
 51
38.07626382886319
  0
ARC
  5
615
  8
0
 10
-3.1709288559712991
 20
10.415639884743269
 30
0.0
 40
0.1498872433976669
 50
112.19311506042401
 51
150.08781628966619
  0
LINE
  5
616
  8
0
 10
-5.1363888794096333
 20
11.7601909648
 30
0.0
 11
-2.6243304547325539
 21
11.7601909648
 31
0.0
  0
LINE
  5
617
  8
0
 10
12.86222959096146
 20
11.7601909648
 30
0.0
 11
15.374288015638539
 21
11.7601909648
 31
0.0
  0
LINE
  5
619
  8
0
 10
14.118249271772861
 20
10.49038071960684
 30
0.0
 11
14.1167169843804
 21
10.423414268117851
 31
0.0
  0
ARC
  5
61A
  8
0
 10
13.011891762164471
 20
10.363562302978149
 30
0.0
 40
1.106445222040185
 50
325.67266585752259
 51
3.1008671385626321
  0
ARC
  5
61B
  8
0
 10
13.17064840905045
 20
10.40266557778169
 30
0.0
 40
1.0048022159989589
 50
277.72744268262142
 51
318.70919647901047
  0
ARC
  5
61C
  8
0
 10
9.9412610680609177
 20
28.590474147781201
 30
0.0
 40
19.47629219002248
 50
274.79433969226739
 51
279.94764217049368
  0
ARC
  5
61D
  8
0
 10
5.1187510067836817
 20
69.692329345090656
 30
0.0
 40
60.852831342323149
 50
263.91528549750188
 51
276.084714502498
  0
ARC
  5
61E
  8
0
 10
-2.7743897485971969
 20
10.363562302978149
 30
0.0
 40
1.106445222040185
 50
173.41841168473599
 51
214.32733414247741
  0
ARC
  5
61F
  8
0
 10
-2.9331463954831771
 20
10.40266557778169
 30
0.0
 40
1.0048022159989589
 50
221.2908035209895
 51
262.27255731737858
  0
ARC
  5
620
  8
0
 10
0.2962409455063568
 20
28.590474147781201
 30
0.0
 40
19.47629219002248
 50
260.05235782950632
 51
265.20566030773261
  0
ATTDEF
  5
A85
  8
DEFPOINTS
 10
5.1152197467629437
 20
12.033989809223259
 30
0.0
 40
0.001
  1
METAL
  3

  2
MATERIAL
 70
     0
1001
AcDbAttr
1070
     0
1070
     1
  0
ATTDEF
  5
A86
  8
DEFPOINTS
 10
5.1152197467629437
 20
12.03565647588993
 30
0.0
 40
0.001
  1
TOWEL BAR
  3

  2
PRODUCT
 70
     0
1001
AcDbAttr
1070
     0
1070
     1
  0
ATTDEF
  5
A87
  8
DEFPOINTS
 10
5.1152197467629437
 20
12.037323142556589
 30
0.0
 40
0.001
  1
FORTE
  3

  2
TRADENAME
 70
     0
1001
AcDbAttr
1070
     0
1070
     1
  0
ATTDEF
  5
A88
  8
DEFPOINTS
 10
5.1152197467629437
 20
12.03898980922326
 30
0.0
 40
0.001
  1
K-11370
  3

  2
MODELNUMBER
 70
     0
1001
AcDbAttr
1070
     0
1070
     1
  0
ENDSEC
  0
EOF
