  0
SECTION
  2
HEADER
  9
$ACADVER
  1
AC1009
  9
$INSBASE
 10
0.0
 20
0.0
 30
0.0
  9
$EXTMIN
 10
-17.999999999949988
 20
-0.2776002546113352
 30
0.0
  9
$EXTMAX
 10
18.00000127825
 20
24.24107284081138
 30
0.0
  9
$LIMMIN
 10
0.0
 20
0.0
  9
$LIMMAX
 10
144.0
 20
108.0
  9
$ORTHOMODE
 70
     1
  9
$REGENMODE
 70
     1
  9
$FILLMODE
 70
     1
  9
$QTEXTMODE
 70
     0
  9
$MIRRTEXT
 70
     1
  9
$DRAGMODE
 70
     2
  9
$LTSCALE
 40
4.0
  9
$OSMODE
 70
     1
  9
$ATTMODE
 70
     1
  9
$TEXTSIZE
 40
0.003
  9
$TRACEWID
 40
0.05
  9
$TEXTSTYLE
  7
STANDARD
  9
$CLAYER
  8
0
  9
$CELTYPE
  6
CONTINUOUS
  9
$CECOLOR
 62
   256
  9
$DIMSCALE
 40
1.0
  9
$DIMASZ
 40
0.18
  9
$DIMEXO
 40
0.0625
  9
$DIMDLI
 40
0.38
  9
$DIMRND
 40
0.0
  9
$DIMDLE
 40
0.0
  9
$DIMEXE
 40
0.18
  9
$DIMTP
 40
0.0
  9
$DIMTM
 40
0.0
  9
$DIMTXT
 40
0.18
  9
$DIMCEN
 40
0.09
  9
$DIMTSZ
 40
0.0
  9
$DIMTOL
 70
     0
  9
$DIMLIM
 70
     0
  9
$DIMTIH
 70
     1
  9
$DIMTOH
 70
     1
  9
$DIMSE1
 70
     0
  9
$DIMSE2
 70
     0
  9
$DIMTAD
 70
     0
  9
$DIMZIN
 70
     0
  9
$DIMBLK
  1

  9
$DIMASO
 70
     1
  9
$DIMSHO
 70
     1
  9
$DIMPOST
  1

  9
$DIMAPOST
  1

  9
$DIMALT
 70
     0
  9
$DIMALTD
 70
     2
  9
$DIMALTF
 40
25.399999999999999
  9
$DIMLFAC
 40
1.0
  9
$DIMTOFL
 70
     0
  9
$DIMTVP
 40
0.0
  9
$DIMTIX
 70
     0
  9
$DIMSOXD
 70
     0
  9
$DIMSAH
 70
     0
  9
$DIMBLK1
  1

  9
$DIMBLK2
  1

  9
$DIMSTYLE
  2
STANDARD
  9
$DIMCLRD
 70
     0
  9
$DIMCLRE
 70
     0
  9
$DIMCLRT
 70
     0
  9
$DIMTFAC
 40
1.0
  9
$DIMGAP
 40
0.09
  9
$LUNITS
 70
     2
  9
$LUPREC
 70
     4
  9
$SKETCHINC
 40
0.1
  9
$FILLETRAD
 40
0.0
  9
$AUNITS
 70
     0
  9
$AUPREC
 70
     0
  9
$MENU
  1
acad
  9
$ELEVATION
 40
0.0
  9
$PELEVATION
 40
0.0
  9
$THICKNESS
 40
0.0
  9
$LIMCHECK
 70
     0
  9
$BLIPMODE
 70
     0
  9
$CHAMFERA
 40
0.0
  9
$CHAMFERB
 40
0.0
  9
$SKPOLY
 70
     0
  9
$TDCREATE
 40
2453711.374404144
  9
$TDUPDATE
 40
2453916.7484789928
  9
$TDINDWG
 40
0.2872755208
  9
$TDUSRTIMER
 40
0.2872755208
  9
$USRTIMER
 70
     1
  9
$ANGBASE
 50
0.0
  9
$ANGDIR
 70
     0
  9
$PDMODE
 70
     3
  9
$PDSIZE
 40
-2.0
  9
$PLINEWID
 40
0.0
  9
$COORDS
 70
     1
  9
$SPLFRAME
 70
     0
  9
$SPLINETYPE
 70
     6
  9
$SPLINESEGS
 70
     8
  9
$ATTDIA
 70
     0
  9
$ATTREQ
 70
     1
  9
$HANDLING
 70
     1
  9
$HANDSEED
  5
12A4
  9
$SURFTAB1
 70
     6
  9
$SURFTAB2
 70
     6
  9
$SURFTYPE
 70
     6
  9
$SURFU
 70
     6
  9
$SURFV
 70
     6
  9
$UCSNAME
  2

  9
$UCSORG
 10
0.0
 20
0.0
 30
0.0
  9
$UCSXDIR
 10
1.0
 20
0.0
 30
0.0
  9
$UCSYDIR
 10
0.0
 20
1.0
 30
0.0
  9
$PUCSNAME
  2

  9
$PUCSORG
 10
0.0
 20
0.0
 30
0.0
  9
$PUCSXDIR
 10
1.0
 20
0.0
 30
0.0
  9
$PUCSYDIR
 10
0.0
 20
1.0
 30
0.0
  9
$USERI1
 70
     0
  9
$USERI2
 70
     0
  9
$USERI3
 70
     0
  9
$USERI4
 70
     0
  9
$USERI5
 70
     0
  9
$USERR1
 40
0.0
  9
$USERR2
 40
0.0
  9
$USERR3
 40
0.0
  9
$USERR4
 40
0.0
  9
$USERR5
 40
0.0
  9
$WORLDVIEW
 70
     1
  9
$SHADEDGE
 70
     3
  9
$SHADEDIF
 70
    70
  9
$TILEMODE
 70
     1
  9
$MAXACTVP
 70
    16
  9
$PLIMCHECK
 70
     0
  9
$PEXTMIN
 10
1.0000000000000000E+020
 20
1.0000000000000000E+020
 30
1.0000000000000000E+020
  9
$PEXTMAX
 10
-1.0000000000000000E+020
 20
-1.0000000000000000E+020
 30
-1.0000000000000000E+020
  9
$PLIMMIN
 10
0.0
 20
0.0
  9
$PLIMMAX
 10
12.0
 20
9.0
  9
$UNITMODE
 70
     0
  9
$VISRETAIN
 70
     0
  9
$PLINEGEN
 70
     1
  9
$PSLTSCALE
 70
     0
  0
ENDSEC
  0
SECTION
  2
TABLES
  0
TABLE
  2
VPORT
 70
     3
  0
VPORT
  2
*ACTIVE
 70
     0
 10
0.0
 20
0.0
 11
1.0
 21
1.0
 12
0.000546898790617
 22
11.98006062557439
 13
0.0
 23
0.0
 14
1.0
 24
1.0
 15
0.0
 25
0.0
 16
0.0
 26
0.0
 36
1.0
 17
0.0
 27
0.0
 37
0.0
 40
24.70544099602947
 41
1.5
 42
50.0
 43
0.0
 44
0.0
 50
0.0
 51
0.0
 71
     0
 72
   100
 73
     1
 74
     1
 75
     0
 76
     0
 77
     0
 78
     0
  0
ENDTAB
  0
TABLE
  2
LTYPE
 70
     1
  0
LTYPE
  2
CONTINUOUS
 70
     0
  3
Solid line
 72
    65
 73
     0
 40
0.0
  0
ENDTAB
  0
TABLE
  2
LAYER
 70
     1
  0
LAYER
  2
0
 70
     0
 62
     7
  6
CONTINUOUS
  0
ENDTAB
  0
TABLE
  2
STYLE
 70
     1
  0
STYLE
  2
STANDARD
 70
     0
 40
0.0
 41
1.0
 50
0.0
 71
     0
 42
0.003
  3
txt
  4

  0
ENDTAB
  0
TABLE
  2
VIEW
 70
     0
  0
ENDTAB
  0
TABLE
  2
UCS
 70
     0
  0
ENDTAB
  0
TABLE
  2
APPID
 70
     3
  0
APPID
  2
ACAD
 70
     0
  0
APPID
  2
ACAECLAYERSTANDARD
 70
     0
  0
APPID
  2
DCO15
 70
     0
  0
ENDTAB
  0
TABLE
  2
DIMSTYLE
 70
     1
  0
DIMSTYLE
  2
STANDARD
 70
     0
  3

  4

  5

  6

  7

 40
1.0
 41
0.18
 42
0.0625
 43
0.38
 44
0.18
 45
0.0
 46
0.0
 47
0.0
 48
0.0
140
0.18
141
0.09
142
0.0
143
25.399999999999999
144
1.0
145
0.0
146
1.0
147
0.09
 71
     0
 72
     0
 73
     1
 74
     1
 75
     0
 76
     0
 77
     0
 78
     0
170
     0
171
     2
172
     0
173
     0
174
     0
175
     0
176
     0
177
     0
178
     0
  0
ENDTAB
  0
ENDSEC
  0
SECTION
  2
BLOCKS
  0
BLOCK
  8
0
  2
$MODEL_SPACE
 70
     2
 10
0.0
 20
0.0
 30
0.0
  3
$MODEL_SPACE
  1

  0
ENDBLK
  5
9
  8
0
  0
BLOCK
 67
     1
  8
0
  2
$PAPER_SPACE
 70
     0
 10
0.0
 20
0.0
 30
0.0
  3
$PAPER_SPACE
  1

  0
ENDBLK
  5
E
 67
     1
  8
0
  0
ENDSEC
  0
SECTION
  2
ENTITIES
  0
ATTDEF
  5
56
  8
0
  6
CONTINUOUS
 10
-0.0018
 20
-0.0165
 30
0.0
 40
0.003
  1
ACRYLIC
  3

  2
MATERIAL
 70
     2
  0
ATTDEF
  5
57
  8
0
  6
CONTINUOUS
 10
-0.0018
 20
-0.0132
 30
0.0
 40
0.003
  1
BATH
  3

  2
PRODUCT
 70
     2
  0
ATTDEF
  5
58
  8
0
  6
CONTINUOUS
 10
-0.0018
 20
-0.0098
 30
0.0
 40
0.003
  1
ESCALE
  3

  2
TRADENAME
 70
     2
  0
ATTDEF
  5
59
  8
0
  6
CONTINUOUS
 10
-0.0018
 20
-0.0065
 30
0.0
 40
0.003
  1
K-11344
  3

  2
MODELNUMBER
 70
     2
  0
LINE
  5
1267
  8
0
  6
CONTINUOUS
 10
-17.64698459825
 20
21.364760515899999
 30
0.0
 11
-17.645919338029881
 21
21.242614818787771
 31
0.0
  0
LINE
  5
1268
  8
0
  6
CONTINUOUS
 10
8.1595000000500164
 20
0.0090511780000035
 30
0.0
 11
9.3405000000499996
 21
0.0090511780000035
 31
0.0
  0
LINE
  5
1269
  8
0
  6
CONTINUOUS
 10
8.1595000000500164
 20
0.1140505777000023
 30
0.0
 11
8.1595000000500164
 21
0.0090511780000035
 31
0.0
  0
LINE
  5
126A
  8
0
  6
CONTINUOUS
 10
9.3405000000499996
 20
0.1140505777000023
 30
0.0
 11
9.3405000000499996
 21
0.0090511780000035
 31
0.0
  0
LINE
  5
126B
  8
0
  6
CONTINUOUS
 10
-8.1594999999500004
 20
0.0090511780000035
 30
0.0
 11
-9.3404999999499836
 21
0.0090511780000035
 31
0.0
  0
LINE
  5
126C
  8
0
  6
CONTINUOUS
 10
-9.3404999999499836
 20
0.0090511780000035
 30
0.0
 11
-9.3404999999499836
 21
0.1140505777000023
 31
0.0
  0
LINE
  5
126D
  8
0
  6
CONTINUOUS
 10
-8.1594999999500004
 20
0.0090511780000035
 30
0.0
 11
-8.1594999999500004
 21
0.1140505777000023
 31
0.0
  0
LINE
  5
126E
  8
0
  6
CONTINUOUS
 10
-0.4921259842500234
 20
0.1140505777000094
 30
0.0
 11
-0.4921259842500234
 21
0.0000000000000107
 31
0.0
  0
LINE
  5
126F
  8
0
  6
CONTINUOUS
 10
0.4921259842499666
 20
0.1140505777000023
 30
0.0
 11
0.4921259842500234
 21
-0.0000000000000107
 31
0.0
  0
ARC
  5
1270
  8
0
 10
0.0001117896081695
 20
158.0186922610429
 30
0.0
 40
134.86675777118879
 50
263.09432456475088
 51
276.90906233530472
  0
ARC
  5
1271
  8
0
 10
0.0000000017846133
 20
169.8635141894928
 30
0.0
 40
148.62064289578399
 50
263.4232120635366
 51
276.5767879351161
  0
ARC
  5
1272
  8
0
 10
-16.275734135926839
 20
23.633961175655241
 30
0.0
 40
0.5
 50
83.09432456475578
 51
170.38567827855221
  0
LINE
  5
1274
  8
0
 10
-17.999999999949988
 20
21.2435703369
 30
0.0
 11
-17.72491540642169
 21
22.80365296847587
 31
0.0
  0
LINE
  5
1275
  8
0
 10
-17.57855455246694
 20
23.077736400709249
 30
0.0
 11
-16.621998394091559
 21
23.994895470785892
 31
0.0
  0
ARC
  5
1276
  8
0
 10
-17.232511526323361
 20
22.71682890001496
 30
0.0
 40
0.5
 50
133.7954656666694
 51
170.000002370537
  0
LINE
  5
1277
  8
0
 10
-17.022220598749989
 20
22.22090685440001
 30
0.0
 11
-16.768711296203389
 21
23.717468776780319
 31
0.0
  0
LINE
  5
1278
  8
0
 10
-12.65229125854218
 20
0.1140505776999952
 30
0.0
 11
12.65229125864222
 21
0.1140505777000023
 31
0.0
  0
ARC
  5
1279
  8
0
 10
-133.6074487064075
 20
-6.6706485983252888
 30
0.0
 40
119.2737463486674
 50
4.1526003953048081
 51
13.53426797490782
  0
ARC
  5
127A
  8
0
 10
-12.652291258542199
 20
2.1140505777000018
 30
0.0
 40
2.0
 50
184.2356000387496
 51
270.0
  0
ARC
  5
127B
  8
0
 10
16.275734136026848
 20
23.633961175655241
 30
0.0
 40
0.5
 50
9.6143217214477801
 51
96.905675435244206
  0
LINE
  5
127D
  8
0
 10
18.000000000050012
 20
21.2435703369
 30
0.0
 11
17.724915406521699
 21
22.80365296847587
 31
0.0
  0
LINE
  5
127E
  8
0
 10
17.578554552566949
 20
23.077736400709249
 30
0.0
 11
16.621998394191579
 21
23.994895470785892
 31
0.0
  0
ARC
  5
127F
  8
0
 10
17.23251152642338
 20
22.71682890001496
 30
0.0
 40
0.5
 50
9.9999976294629196
 51
46.204534333330521
  0
LINE
  5
1280
  8
0
 10
17.022220598850009
 20
22.22090685440001
 30
0.0
 11
16.768711296303412
 21
23.717468776780319
 31
0.0
  0
ARC
  5
1281
  8
0
 10
133.6074501282624
 20
-6.6706487572341722
 30
0.0
 40
119.27374777819681
 50
166.4836558565938
 51
175.84739957801631
  0
ARC
  5
1282
  8
0
 10
12.65229125864222
 20
2.1140505777000018
 30
0.0
 40
2.0
 50
269.99999999999841
 51
355.76439996125038
  0
LINE
  5
1283
  8
0
 10
-17.999999999949988
 20
21.2435703369
 30
0.0
 11
-17.022220598749989
 21
22.22090685440001
 31
0.0
  0
LINE
  5
1284
  8
0
 10
-17.803038447950009
 20
21.208840709600011
 30
0.0
 11
-16.825449701349989
 21
22.186177160900002
 31
0.0
  0
LINE
  5
1285
  8
0
 10
-0.4921259842500234
 20
0.0000000000000107
 30
0.0
 11
0.4921259842500234
 21
-0.0000000000000107
 31
0.0
  0
LINE
  5
1286
  8
0
 10
-17.999999999949988
 20
21.2435703369
 30
0.0
 11
-17.803038447949991
 21
21.208840709600011
 31
0.0
  0
LINE
  5
1287
  8
0
  6
CONTINUOUS
 10
17.646985876550001
 20
21.364760515899999
 30
0.0
 11
17.645920616329889
 21
21.242614818787771
 31
0.0
  0
LINE
  5
1288
  8
0
 10
18.00000127825
 20
21.2435703369
 30
0.0
 11
17.022221877050001
 21
22.22090685440001
 31
0.0
  0
LINE
  5
1289
  8
0
 10
17.80303972625002
 20
21.208840709600011
 30
0.0
 11
16.82545097965
 21
22.186177160900002
 31
0.0
  0
LINE
  5
128A
  8
0
 10
18.00000127825
 20
21.2435703369
 30
0.0
 11
17.803039726249992
 21
21.208840709600011
 31
0.0
  0
ENDSEC
  0
EOF
