  0
SECTION
  2
HEADER
  9
$ACADVER
  1
AC1009
  9
$INSBASE
 10
0.0
 20
0.0
 30
0.0
  9
$EXTMIN
 10
-36.001017646008762
 20
-17.999878273502979
 30
0.0
  9
$EXTMAX
 10
36.001017646008762
 20
17.999878273502979
 30
0.0
  9
$LIMMIN
 10
0.0
 20
0.0
  9
$LIMMAX
 10
144.0
 20
108.0
  9
$ORTHOMODE
 70
     1
  9
$REGENMODE
 70
     1
  9
$FILLMODE
 70
     1
  9
$QTEXTMODE
 70
     0
  9
$MIRRTEXT
 70
     1
  9
$DRAGMODE
 70
     2
  9
$LTSCALE
 40
4.0
  9
$OSMODE
 70
     1
  9
$ATTMODE
 70
     1
  9
$TEXTSIZE
 40
0.003
  9
$TRACEWID
 40
0.05
  9
$TEXTSTYLE
  7
STANDARD
  9
$CLAYER
  8
0
  9
$CELTYPE
  6
CONTINUOUS
  9
$CECOLOR
 62
   256
  9
$DIMSCALE
 40
1.0
  9
$DIMASZ
 40
0.18
  9
$DIMEXO
 40
0.0625
  9
$DIMDLI
 40
0.38
  9
$DIMRND
 40
0.0
  9
$DIMDLE
 40
0.0
  9
$DIMEXE
 40
0.18
  9
$DIMTP
 40
0.0
  9
$DIMTM
 40
0.0
  9
$DIMTXT
 40
0.18
  9
$DIMCEN
 40
0.09
  9
$DIMTSZ
 40
0.0
  9
$DIMTOL
 70
     0
  9
$DIMLIM
 70
     0
  9
$DIMTIH
 70
     1
  9
$DIMTOH
 70
     1
  9
$DIMSE1
 70
     0
  9
$DIMSE2
 70
     0
  9
$DIMTAD
 70
     0
  9
$DIMZIN
 70
     0
  9
$DIMBLK
  1

  9
$DIMASO
 70
     1
  9
$DIMSHO
 70
     1
  9
$DIMPOST
  1

  9
$DIMAPOST
  1

  9
$DIMALT
 70
     0
  9
$DIMALTD
 70
     2
  9
$DIMALTF
 40
25.399999999999999
  9
$DIMLFAC
 40
1.0
  9
$DIMTOFL
 70
     0
  9
$DIMTVP
 40
0.0
  9
$DIMTIX
 70
     0
  9
$DIMSOXD
 70
     0
  9
$DIMSAH
 70
     0
  9
$DIMBLK1
  1

  9
$DIMBLK2
  1

  9
$DIMSTYLE
  2
STANDARD
  9
$DIMCLRD
 70
     0
  9
$DIMCLRE
 70
     0
  9
$DIMCLRT
 70
     0
  9
$DIMTFAC
 40
1.0
  9
$DIMGAP
 40
0.09
  9
$LUNITS
 70
     2
  9
$LUPREC
 70
     4
  9
$SKETCHINC
 40
0.1
  9
$FILLETRAD
 40
0.0
  9
$AUNITS
 70
     0
  9
$AUPREC
 70
     0
  9
$MENU
  1
acad
  9
$ELEVATION
 40
0.0
  9
$PELEVATION
 40
0.0
  9
$THICKNESS
 40
0.0
  9
$LIMCHECK
 70
     0
  9
$BLIPMODE
 70
     0
  9
$CHAMFERA
 40
0.0
  9
$CHAMFERB
 40
0.0
  9
$SKPOLY
 70
     0
  9
$TDCREATE
 40
2453711.3813314121
  9
$TDUPDATE
 40
2453916.7480190969
  9
$TDINDWG
 40
0.3588829282
  9
$TDUSRTIMER
 40
0.3588829282
  9
$USRTIMER
 70
     1
  9
$ANGBASE
 50
0.0
  9
$ANGDIR
 70
     0
  9
$PDMODE
 70
     3
  9
$PDSIZE
 40
-2.0
  9
$PLINEWID
 40
0.0
  9
$COORDS
 70
     1
  9
$SPLFRAME
 70
     0
  9
$SPLINETYPE
 70
     6
  9
$SPLINESEGS
 70
     8
  9
$ATTDIA
 70
     0
  9
$ATTREQ
 70
     1
  9
$HANDLING
 70
     1
  9
$HANDSEED
  5
1DA
  9
$SURFTAB1
 70
     6
  9
$SURFTAB2
 70
     6
  9
$SURFTYPE
 70
     6
  9
$SURFU
 70
     6
  9
$SURFV
 70
     6
  9
$UCSNAME
  2

  9
$UCSORG
 10
0.0
 20
0.0
 30
0.0
  9
$UCSXDIR
 10
1.0
 20
0.0
 30
0.0
  9
$UCSYDIR
 10
0.0
 20
1.0
 30
0.0
  9
$PUCSNAME
  2

  9
$PUCSORG
 10
0.0
 20
0.0
 30
0.0
  9
$PUCSXDIR
 10
1.0
 20
0.0
 30
0.0
  9
$PUCSYDIR
 10
0.0
 20
1.0
 30
0.0
  9
$USERI1
 70
     0
  9
$USERI2
 70
     0
  9
$USERI3
 70
     0
  9
$USERI4
 70
     0
  9
$USERI5
 70
     0
  9
$USERR1
 40
0.0
  9
$USERR2
 40
0.0
  9
$USERR3
 40
0.0
  9
$USERR4
 40
0.0
  9
$USERR5
 40
0.0
  9
$WORLDVIEW
 70
     1
  9
$SHADEDGE
 70
     3
  9
$SHADEDIF
 70
    70
  9
$TILEMODE
 70
     1
  9
$MAXACTVP
 70
    16
  9
$PLIMCHECK
 70
     0
  9
$PEXTMIN
 10
1.0000000000000000E+020
 20
1.0000000000000000E+020
 30
1.0000000000000000E+020
  9
$PEXTMAX
 10
-1.0000000000000000E+020
 20
-1.0000000000000000E+020
 30
-1.0000000000000000E+020
  9
$PLIMMIN
 10
0.0
 20
0.0
  9
$PLIMMAX
 10
12.0
 20
9.0
  9
$UNITMODE
 70
     0
  9
$VISRETAIN
 70
     0
  9
$PLINEGEN
 70
     1
  9
$PSLTSCALE
 70
     0
  0
ENDSEC
  0
SECTION
  2
TABLES
  0
TABLE
  2
VPORT
 70
     3
  0
VPORT
  2
*ACTIVE
 70
     0
 10
0.0
 20
0.0
 11
1.0
 21
1.0
 12
-0.0065126676289253
 22
0.0018327937720102
 13
0.0
 23
0.0
 14
1.0
 24
1.0
 15
0.0
 25
0.0
 16
0.0
 26
0.0
 36
1.0
 17
0.0
 27
0.0
 37
0.0
 40
48.24942353950204
 41
1.5
 42
50.0
 43
0.0
 44
0.0
 50
0.0
 51
0.0
 71
     0
 72
   100
 73
     1
 74
     1
 75
     0
 76
     0
 77
     0
 78
     0
  0
ENDTAB
  0
TABLE
  2
LTYPE
 70
     1
  0
LTYPE
  2
CONTINUOUS
 70
     0
  3
Solid line
 72
    65
 73
     0
 40
0.0
  0
ENDTAB
  0
TABLE
  2
LAYER
 70
     1
  0
LAYER
  2
0
 70
     0
 62
     7
  6
CONTINUOUS
  0
ENDTAB
  0
TABLE
  2
STYLE
 70
     1
  0
STYLE
  2
STANDARD
 70
     0
 40
0.0
 41
1.0
 50
0.0
 71
     0
 42
0.003
  3
txt
  4

  0
ENDTAB
  0
TABLE
  2
VIEW
 70
     0
  0
ENDTAB
  0
TABLE
  2
UCS
 70
     0
  0
ENDTAB
  0
TABLE
  2
APPID
 70
     3
  0
APPID
  2
ACAD
 70
     0
  0
APPID
  2
ACAECLAYERSTANDARD
 70
     0
  0
APPID
  2
DCO15
 70
     0
  0
ENDTAB
  0
TABLE
  2
DIMSTYLE
 70
     1
  0
DIMSTYLE
  2
STANDARD
 70
     0
  3

  4

  5

  6

  7

 40
1.0
 41
0.18
 42
0.0625
 43
0.38
 44
0.18
 45
0.0
 46
0.0
 47
0.0
 48
0.0
140
0.18
141
0.09
142
0.0
143
25.399999999999999
144
1.0
145
0.0
146
1.0
147
0.09
 71
     0
 72
     0
 73
     1
 74
     1
 75
     0
 76
     0
 77
     0
 78
     0
170
     0
171
     2
172
     0
173
     0
174
     0
175
     0
176
     0
177
     0
178
     0
  0
ENDTAB
  0
ENDSEC
  0
SECTION
  2
BLOCKS
  0
BLOCK
  8
0
  2
$MODEL_SPACE
 70
     2
 10
0.0
 20
0.0
 30
0.0
  3
$MODEL_SPACE
  1

  0
ENDBLK
  5
9
  8
0
  0
BLOCK
 67
     1
  8
0
  2
$PAPER_SPACE
 70
     0
 10
0.0
 20
0.0
 30
0.0
  3
$PAPER_SPACE
  1

  0
ENDBLK
  5
E
 67
     1
  8
0
  0
ENDSEC
  0
SECTION
  2
ENTITIES
  0
ATTDEF
  5
2F
  8
0
  6
CONTINUOUS
 10
-0.0018
 20
-0.0165
 30
0.0
 40
0.003
  1
ACRYLIC
  3

  2
MATERIAL
 70
     2
  0
ATTDEF
  5
30
  8
0
  6
CONTINUOUS
 10
-0.0018
 20
-0.0132
 30
0.0
 40
0.003
  1
BATH
  3

  2
PRODUCT
 70
     2
  0
ATTDEF
  5
31
  8
0
  6
CONTINUOUS
 10
-0.0018
 20
-0.0098
 30
0.0
 40
0.003
  1
ESCALE
  3

  2
TRADENAME
 70
     2
  0
ATTDEF
  5
32
  8
0
  6
CONTINUOUS
 10
-0.0018
 20
-0.0065
 30
0.0
 40
0.003
  1
K-11344
  3

  2
MODELNUMBER
 70
     2
  0
CIRCLE
  5
E1
  8
0
  6
CONTINUOUS
 10
0.0
 20
0.0
 30
0.0
 40
1.125
  0
LINE
  5
174
  8
0
 10
0.0000133646351514
 20
13.47530562255
 30
0.0
 11
0.0000133646351514
 21
13.47530562255
 31
0.0
  0
ARC
  5
1B3
  8
0
 10
108.57711077375799
 20
0.0000000000500222
 30
0.0
 40
144.57812841976099
 50
173.41486972403041
 51
186.58513027600961
  0
ARC
  5
1B4
  8
0
 10
-34.550471023491532
 20
16.522784808089281
 30
0.0
 40
0.5
 50
93.239806155443134
 51
173.41486972402541
  0
ARC
  5
1B5
  8
0
 10
-34.550471023479929
 20
-16.522784808089941
 30
0.0
 40
0.5
 50
186.58513027600961
 51
266.76019384457641
  0
ARC
  5
1B6
  8
0
 10
0.0000000000500222
 20
-593.84888306864525
 30
0.0
 40
611.84876134214539
 50
86.760193844563403
 51
93.239806155446374
  0
ARC
  5
1B7
  8
0
 10
34.550471023490957
 20
16.52278480809499
 30
0.0
 40
0.5
 50
6.5851302759728858
 51
86.760193844569926
  0
ARC
  5
1B8
  8
0
 10
-108.57711077375799
 20
0.0000000000500222
 30
0.0
 40
144.57812841976099
 50
353.41486972398798
 51
6.5851302759720793
  0
ARC
  5
1B9
  8
0
 10
34.550471023479247
 20
-16.522784808095629
 30
0.0
 40
0.5
 50
273.23980615543661
 51
353.41486972398798
  0
ARC
  5
1BA
  8
0
 10
0.0000000000500222
 20
593.84888306864525
 30
0.0
 40
611.84876134214539
 50
266.76019384455361
 51
273.23980615543661
  0
ARC
  5
1BB
  8
0
 10
-14.492652527233529
 20
-0.5267032637022738
 30
0.0
 40
8.9137146428936074
 50
176.61247145162579
 51
239.37085361716211
  0
ARC
  5
1BC
  8
0
 10
-14.492652527233529
 20
0.5267032261022564
 30
0.0
 40
8.9137146428936074
 50
120.6291463828379
 51
183.38752854837409
  0
ARC
  5
1BD
  8
0
 10
14.492652527233529
 20
-0.5267032637022738
 30
0.0
 40
8.9137146428936074
 50
300.62914638283792
 51
3.387528548374148
  0
ARC
  5
1BE
  8
0
 10
14.492652527233529
 20
0.5267032261022564
 30
0.0
 40
8.9137146428936074
 50
356.61247145162588
 51
59.370853617162119
  0
ARC
  5
1BF
  8
0
 10
0.0000114579645469
 20
-109.61375317410391
 30
0.0
 40
120.44080068270441
 50
85.23463911382089
 51
94.765371825497809
  0
ARC
  5
1C0
  8
0
 10
-9.026950000660463
 20
-13.1051691114011
 30
0.0
 40
23.53624130517613
 50
92.383264910955177
 51
115.13451562855759
  0
ARC
  5
1C1
  8
0
 10
9.026950000660463
 20
-13.1051691114011
 30
0.0
 40
23.53624130517613
 50
64.865484371442335
 51
87.616735089044809
  0
ARC
  5
1C2
  8
0
 10
0.0000114579645469
 20
109.6137531365038
 30
0.0
 40
120.44080068270441
 50
265.23462817450212
 51
274.76536088617911
  0
ARC
  5
1C3
  8
0
 10
-9.026950000660463
 20
13.10516907380109
 30
0.0
 40
23.53624130517613
 50
244.86548437144231
 51
267.61673508904482
  0
ARC
  5
1C4
  8
0
 10
9.026950000660463
 20
13.10516907380109
 30
0.0
 40
23.53624130517613
 50
272.38326491095518
 51
295.13451562855772
  0
LINE
  5
1C5
  8
0
 10
-7.5848647213999243
 20
10.474019834300011
 30
0.0
 11
-7.5848647213999243
 21
10.474019834300011
 31
0.0
  0
LINE
  5
1C6
  8
0
 10
0.0000133646351514
 20
13.47530562255
 30
0.0
 11
0.0000133646351514
 21
13.47530562255
 31
0.0
  0
ENDSEC
  0
EOF
