  0
SECTION
  2
HEADER
  9
$ACADVER
  1
AC1009
  9
$DWGCODEPAGE
  3
ansi_1252
  9
$INSBASE
 10
0.0
 20
0.0
 30
0.0
  9
$EXTMIN
 10
1.000000000000000E+20
 20
1.000000000000000E+20
 30
1.000000000000000E+20
  9
$EXTMAX
 10
0.0
 20
0.0
 30
0.0
  9
$LIMMIN
 10
0.0
 20
0.0
  9
$LIMMAX
 10
144.0
 20
108.0
  9
$ORTHOMODE
 70
     1
  9
$REGENMODE
 70
     1
  9
$FILLMODE
 70
     1
  9
$QTEXTMODE
 70
     0
  9
$MIRRTEXT
 70
     1
  9
$DRAGMODE
 70
     2
  9
$LTSCALE
 40
4.0
  9
$OSMODE
 70
    37
  9
$ATTMODE
 70
     1
  9
$TEXTSIZE
 40
0.003
  9
$TRACEWID
 40
0.05
  9
$TEXTSTYLE
  7
STANDARD
  9
$CLAYER
  8
0
  9
$CELTYPE
  6
CONTINUOUS
  9
$CECOLOR
 62
   256
  9
$DIMSCALE
 40
1.0
  9
$DIMASZ
 40
0.18
  9
$DIMEXO
 40
0.0625
  9
$DIMDLI
 40
0.38
  9
$DIMRND
 40
0.0
  9
$DIMDLE
 40
0.0
  9
$DIMEXE
 40
0.18
  9
$DIMTP
 40
0.0
  9
$DIMTM
 40
0.0
  9
$DIMTXT
 40
0.18
  9
$DIMCEN
 40
0.09
  9
$DIMTSZ
 40
0.0
  9
$DIMTOL
 70
     0
  9
$DIMLIM
 70
     0
  9
$DIMTIH
 70
     1
  9
$DIMTOH
 70
     1
  9
$DIMSE1
 70
     0
  9
$DIMSE2
 70
     0
  9
$DIMTAD
 70
     0
  9
$DIMZIN
 70
     0
  9
$DIMBLK
  1

  9
$DIMASO
 70
     1
  9
$DIMSHO
 70
     1
  9
$DIMPOST
  1

  9
$DIMAPOST
  1

  9
$DIMALT
 70
     0
  9
$DIMALTD
 70
     2
  9
$DIMALTF
 40
25.4
  9
$DIMLFAC
 40
1.0
  9
$DIMTOFL
 70
     0
  9
$DIMTVP
 40
0.0
  9
$DIMTIX
 70
     0
  9
$DIMSOXD
 70
     0
  9
$DIMSAH
 70
     0
  9
$DIMBLK1
  1

  9
$DIMBLK2
  1

  9
$DIMSTYLE
  2
STANDARD
  9
$DIMCLRD
 70
     0
  9
$DIMCLRE
 70
     0
  9
$DIMCLRT
 70
     0
  9
$DIMTFAC
 40
1.0
  9
$DIMGAP
 40
0.09
  9
$LUNITS
 70
     2
  9
$LUPREC
 70
     4
  9
$SKETCHINC
 40
0.1
  9
$FILLETRAD
 40
0.0
  9
$AUNITS
 70
     0
  9
$AUPREC
 70
     0
  9
$MENU
  1
acad
  9
$ELEVATION
 40
0.0
  9
$PELEVATION
 40
0.0
  9
$THICKNESS
 40
0.0
  9
$LIMCHECK
 70
     0
  9
$CHAMFERA
 40
0.0
  9
$CHAMFERB
 40
0.0
  9
$SKPOLY
 70
     0
  9
$TDCREATE
 40
2453711.47448404
  9
$TDUPDATE
 40
2453711.477753819
  9
$TDINDWG
 40
0.0032697801
  9
$TDUSRTIMER
 40
0.0032697801
  9
$USRTIMER
 70
     1
  9
$ANGBASE
 50
0.0
  9
$ANGDIR
 70
     0
  9
$PDMODE
 70
     3
  9
$PDSIZE
 40
-2.0
  9
$PLINEWID
 40
0.0
  9
$COORDS
 70
     1
  9
$SPLFRAME
 70
     0
  9
$SPLINETYPE
 70
     6
  9
$SPLINESEGS
 70
     8
  9
$ATTDIA
 70
     0
  9
$ATTREQ
 70
     1
  9
$HANDLING
 70
     1
  9
$HANDSEED
  5
15A
  9
$SURFTAB1
 70
     6
  9
$SURFTAB2
 70
     6
  9
$SURFTYPE
 70
     6
  9
$SURFU
 70
     6
  9
$SURFV
 70
     6
  9
$UCSNAME
  2

  9
$UCSORG
 10
0.0
 20
0.0
 30
0.0
  9
$UCSXDIR
 10
1.0
 20
0.0
 30
0.0
  9
$UCSYDIR
 10
0.0
 20
1.0
 30
0.0
  9
$PUCSNAME
  2

  9
$PUCSORG
 10
0.0
 20
0.0
 30
0.0
  9
$PUCSXDIR
 10
1.0
 20
0.0
 30
0.0
  9
$PUCSYDIR
 10
0.0
 20
1.0
 30
0.0
  9
$USERI1
 70
     0
  9
$USERI2
 70
     0
  9
$USERI3
 70
     0
  9
$USERI4
 70
     0
  9
$USERI5
 70
     0
  9
$USERR1
 40
0.0
  9
$USERR2
 40
0.0
  9
$USERR3
 40
0.0
  9
$USERR4
 40
0.0
  9
$USERR5
 40
0.0
  9
$WORLDVIEW
 70
     1
  9
$SHADEDGE
 70
     3
  9
$SHADEDIF
 70
    70
  9
$TILEMODE
 70
     1
  9
$MAXACTVP
 70
    16
  9
$PLIMCHECK
 70
     0
  9
$PEXTMIN
 10
1.000000000000000E+20
 20
1.000000000000000E+20
 30
1.000000000000000E+20
  9
$PEXTMAX
 10
-1.000000000000000E+20
 20
-1.000000000000000E+20
 30
-1.000000000000000E+20
  9
$PLIMMIN
 10
0.0
 20
0.0
  9
$PLIMMAX
 10
12.0
 20
9.0
  9
$UNITMODE
 70
     0
  9
$VISRETAIN
 70
     0
  9
$PLINEGEN
 70
     1
  9
$PSLTSCALE
 70
     0
  0
ENDSEC
  0
SECTION
  2
TABLES
  0
TABLE
  2
VPORT
 70
     1
  0
VPORT
  2
*ACTIVE
 70
     0
 10
0.0
 20
0.0
 11
1.0
 21
1.0
 12
-0.1003827692923424
 22
-3.745130807589323
 13
0.0
 23
0.0
 14
1.0
 24
1.0
 15
0.0
 25
0.0
 16
0.0
 26
0.0
 36
1.0
 17
0.0
 27
0.0
 37
0.0
 40
12.73715852628917
 41
1.501231527093596
 42
50.0
 43
0.0
 44
0.0
 50
0.0
 51
0.0
 71
     0
 72
   100
 73
     1
 74
     1
 75
     0
 76
     0
 77
     0
 78
     0
  0
ENDTAB
  0
TABLE
  2
LTYPE
 70
     1
  0
LTYPE
  2
CONTINUOUS
 70
     0
  3
Solid line
 72
    65
 73
     0
 40
0.0
  0
ENDTAB
  0
TABLE
  2
LAYER
 70
     1
  0
LAYER
  2
0
 70
     0
 62
     7
  6
CONTINUOUS
  0
ENDTAB
  0
TABLE
  2
STYLE
 70
     1
  0
STYLE
  2
STANDARD
 70
     0
 40
0.0
 41
1.0
 50
0.0
 71
     0
 42
0.003
  3
txt
  4

  0
ENDTAB
  0
TABLE
  2
VIEW
 70
     0
  0
ENDTAB
  0
TABLE
  2
UCS
 70
     0
  0
ENDTAB
  0
TABLE
  2
APPID
 70
     1
  0
APPID
  2
ACAD
 70
     0
  0
ENDTAB
  0
TABLE
  2
DIMSTYLE
 70
     1
  0
DIMSTYLE
  2
STANDARD
 70
     0
  3

  4

  5

  6

  7

 40
1.0
 41
0.18
 42
0.0625
 43
0.38
 44
0.18
 45
0.0
 46
0.0
 47
0.0
 48
0.0
140
0.18
141
0.09
142
0.0
143
25.4
144
1.0
145
0.0
146
1.0
147
0.09
 71
     0
 72
     0
 73
     1
 74
     1
 75
     0
 76
     0
 77
     0
 78
     0
170
     0
171
     2
172
     0
173
     0
174
     0
175
     0
176
     0
177
     0
178
     0
  0
ENDTAB
  0
ENDSEC
  0
SECTION
  2
BLOCKS
  0
BLOCK
  8
0
  2
$MODEL_SPACE
 70
     2
 10
0.0
 20
0.0
 30
0.0
  3
$MODEL_SPACE
  1

  0
ENDBLK
  5
9
  8
0
  0
BLOCK
 67
     1
  8
0
  2
$PAPER_SPACE
 70
     0
 10
0.0
 20
0.0
 30
0.0
  3
$PAPER_SPACE
  1

  0
ENDBLK
  5
E
 67
     1
  8
0
  0
ENDSEC
  0
SECTION
  2
ENTITIES
  0
POLYLINE
  5
24
  8
0
 66
     1
 10
0.0
 20
0.0
 30
0.0
  0
VERTEX
  5
3F
  8
0
 10
4.660445323187936
 20
-1.493583430765755
 30
0.0
  0
VERTEX
  5
40
  8
0
 10
4.645037367892796
 20
-1.51723789734562
 30
0.0
  0
VERTEX
  5
41
  8
0
 10
4.604889878743492
 20
-1.51094450715465
 30
0.0
  0
VERTEX
  5
42
  8
0
 10
4.559985895478155
 20
-1.500510059436927
 30
0.0
  0
VERTEX
  5
43
  8
0
 10
4.492056445571321
 20
-1.500731311433847
 30
0.0
  0
VERTEX
  5
44
  8
0
 10
4.41924419292746
 20
-1.515926491812327
 30
0.0
  0
VERTEX
  5
45
  8
0
 10
4.359691801451041
 20
-1.550413829239281
 30
0.0
  0
SEQEND
  5
46
  8
0
  0
POLYLINE
  5
25
  8
0
 66
     1
 10
0.0
 20
0.0
 30
0.0
  0
VERTEX
  5
47
  8
0
 10
4.660445323187936
 20
-1.158514656460201
 30
0.0
  0
VERTEX
  5
48
  8
0
 10
4.645037367892796
 20
-1.134860189880343
 30
0.0
  0
VERTEX
  5
49
  8
0
 10
4.604889878743492
 20
-1.141153580071321
 30
0.0
  0
VERTEX
  5
4A
  8
0
 10
4.559748537011944
 20
-1.151787239358893
 30
0.0
  0
VERTEX
  5
4B
  8
0
 10
4.491296898479422
 20
-1.152004252815675
 30
0.0
  0
VERTEX
  5
4C
  8
0
 10
4.417962457209816
 20
-1.137247337890947
 30
0.0
  0
VERTEX
  5
4D
  8
0
 10
4.358172707267015
 20
-1.102959212033994
 30
0.0
  0
SEQEND
  5
4E
  8
0
  0
POLYLINE
  5
26
  8
0
 66
     1
 10
0.0
 20
0.0
 30
0.0
  0
VERTEX
  5
4F
  8
0
 10
4.996314334608293
 20
-1.110446176208472
 30
0.0
  0
VERTEX
  5
50
  8
0
 10
4.943137004770334
 20
-0.9291569189180557
 30
0.0
  0
VERTEX
  5
51
  8
0
 10
4.860931635200078
 20
-0.7624095764117527
 30
0.0
  0
VERTEX
  5
52
  8
0
 10
4.752666531270717
 20
-0.6131722951173533
 30
0.0
  0
VERTEX
  5
53
  8
0
 10
4.621309998355443
 20
-0.484413221462648
 30
0.0
  0
VERTEX
  5
54
  8
0
 10
4.469830341827447
 20
-0.3791005018754272
 30
0.0
  0
VERTEX
  5
55
  8
0
 10
4.301195867059921
 20
-0.3002022827834814
 30
0.0
  0
VERTEX
  5
56
  8
0
 10
4.118374879426057
 20
-0.2506867106146009
 30
0.0
  0
VERTEX
  5
57
  8
0
 10
3.924335684299045
 20
-0.2335219317965762
 30
0.0
  0
VERTEX
  5
58
  8
0
 10
3.703977965208372
 20
-0.255735770238955
 30
0.0
  0
VERTEX
  5
59
  8
0
 10
3.498736271692065
 20
-0.3194461204350523
 30
0.0
  0
VERTEX
  5
5A
  8
0
 10
3.313007351446683
 20
-0.4202562346883092
 30
0.0
  0
VERTEX
  5
5B
  8
0
 10
3.151187952168785
 20
-0.5537693653021669
 30
0.0
  0
VERTEX
  5
5C
  8
0
 10
3.017674821554929
 20
-0.7155887645800667
 30
0.0
  0
VERTEX
  5
5D
  8
0
 10
2.916864707301673
 20
-0.9013176848254498
 30
0.0
  0
VERTEX
  5
5E
  8
0
 10
2.853154357105576
 20
-1.106559378341757
 30
0.0
  0
VERTEX
  5
5F
  8
0
 10
2.830940518663198
 20
-1.326917097432431
 30
0.0
  0
VERTEX
  5
60
  8
0
 10
2.853154357105576
 20
-1.547274816523103
 30
0.0
  0
VERTEX
  5
61
  8
0
 10
2.916864707301673
 20
-1.752516510039409
 30
0.0
  0
VERTEX
  5
62
  8
0
 10
3.017674821554929
 20
-1.93824543028479
 30
0.0
  0
VERTEX
  5
63
  8
0
 10
3.151187952168785
 20
-2.100064829562688
 30
0.0
  0
VERTEX
  5
64
  8
0
 10
3.313007351446683
 20
-2.233577960176543
 30
0.0
  0
VERTEX
  5
65
  8
0
 10
3.498736271692065
 20
-2.334388074429797
 30
0.0
  0
VERTEX
  5
66
  8
0
 10
3.703977965208372
 20
-2.398098424625893
 30
0.0
  0
VERTEX
  5
67
  8
0
 10
3.924335684299045
 20
-2.420312263068271
 30
0.0
  0
VERTEX
  5
68
  8
0
 10
4.118374879407163
 20
-2.403147484253631
 30
0.0
  0
VERTEX
  5
69
  8
0
 10
4.301195867024677
 20
-2.353631912094309
 30
0.0
  0
VERTEX
  5
6A
  8
0
 10
4.469830341779281
 20
-2.274733693017204
 30
0.0
  0
VERTEX
  5
6B
  8
0
 10
4.621309998298678
 20
-2.169420973449219
 30
0.0
  0
VERTEX
  5
6C
  8
0
 10
4.752666531210564
 20
-2.040661899817251
 30
0.0
  0
VERTEX
  5
6D
  8
0
 10
4.860931635142641
 20
-1.891424618548199
 30
0.0
  0
VERTEX
  5
6E
  8
0
 10
4.943137004722604
 20
-1.724677276068964
 30
0.0
  0
VERTEX
  5
6F
  8
0
 10
4.996314334578154
 20
-1.543388018806446
 30
0.0
  0
SEQEND
  5
70
  8
0
  0
POLYLINE
  5
27
  8
0
 66
     1
 10
0.0
 20
0.0
 30
0.0
  0
VERTEX
  5
71
  8
0
 10
4.50415494566515
 20
-1.149345837992317
 30
0.0
  0
VERTEX
  5
72
  8
0
 10
4.468986924545238
 20
-1.059233596969466
 30
0.0
  0
VERTEX
  5
73
  8
0
 10
4.42048545052889
 20
-0.9767993725119371
 30
0.0
  0
VERTEX
  5
74
  8
0
 10
4.3599870954974
 20
-0.9033798954464267
 30
0.0
  0
VERTEX
  5
75
  8
0
 10
4.288828431332061
 20
-0.8403118965996306
 30
0.0
  0
VERTEX
  5
76
  8
0
 10
4.20834602991417
 20
-0.7889321067982444
 30
0.0
  0
VERTEX
  5
77
  8
0
 10
4.119876463125019
 20
-0.7505772568689642
 30
0.0
  0
VERTEX
  5
78
  8
0
 10
4.024756302845903
 20
-0.7265840776384857
 30
0.0
  0
VERTEX
  5
79
  8
0
 10
3.924322120958117
 20
-0.7182892999335049
 30
0.0
  0
VERTEX
  5
7A
  8
0
 10
3.802334094916822
 20
-0.7305865612665999
 30
0.0
  0
VERTEX
  5
7B
  8
0
 10
3.688714385319606
 20
-0.7658557246436739
 30
0.0
  0
VERTEX
  5
7C
  8
0
 10
3.585896923099785
 20
-0.82166285913141
 30
0.0
  0
VERTEX
  5
7D
  8
0
 10
3.496315639190676
 20
-0.8955740337964915
 30
0.0
  0
VERTEX
  5
7E
  8
0
 10
3.422404464525596
 20
-0.9851553177056015
 30
0.0
  0
VERTEX
  5
7F
  8
0
 10
3.366597330037862
 20
-1.087972779925423
 30
0.0
  0
VERTEX
  5
80
  8
0
 10
3.331328166660788
 20
-1.20159248952264
 30
0.0
  0
VERTEX
  5
81
  8
0
 10
3.319030905327693
 20
-1.323580515563935
 30
0.0
  0
VERTEX
  5
82
  8
0
 10
3.331328166660788
 20
-1.445564064643088
 30
0.0
  0
VERTEX
  5
83
  8
0
 10
3.366597330037862
 20
-1.559180409895973
 30
0.0
  0
VERTEX
  5
84
  8
0
 10
3.422404464525596
 20
-1.661995461443871
 30
0.0
  0
VERTEX
  5
85
  8
0
 10
3.496315639190676
 20
-1.751575129408066
 30
0.0
  0
VERTEX
  5
86
  8
0
 10
3.585896923099785
 20
-1.825485323909838
 30
0.0
  0
VERTEX
  5
87
  8
0
 10
3.688714385319606
 20
-1.88129195507047
 30
0.0
  0
VERTEX
  5
88
  8
0
 10
3.802334094916822
 20
-1.916560933011242
 30
0.0
  0
VERTEX
  5
89
  8
0
 10
3.924322120958117
 20
-1.928858167853437
 30
0.0
  0
VERTEX
  5
8A
  8
0
 10
4.023838101742568
 20
-1.920716666498918
 30
0.0
  0
VERTEX
  5
8B
  8
0
 10
4.118151163755175
 20
-1.897158096982528
 30
0.0
  0
VERTEX
  5
8C
  8
0
 10
4.205962087284386
 20
-1.859481361125013
 30
0.0
  0
VERTEX
  5
8D
  8
0
 10
4.285971652618655
 20
-1.808985360747119
 30
0.0
  0
VERTEX
  5
8E
  8
0
 10
4.356880640046429
 20
-1.746968997669593
 30
0.0
  0
VERTEX
  5
8F
  8
0
 10
4.417389829856159
 20
-1.674731173713182
 30
0.0
  0
VERTEX
  5
90
  8
0
 10
4.466200002336296
 20
-1.593570790698632
 30
0.0
  0
VERTEX
  5
91
  8
0
 10
4.502011937775289
 20
-1.504786750446691
 30
0.0
  0
SEQEND
  5
92
  8
0
  0
POLYLINE
  5
28
  8
0
 66
     1
 10
0.0
 20
0.0
 30
0.0
 70
     1
  0
VERTEX
  5
93
  8
0
 10
4.659794282823349
 20
-1.530624914842366
 30
0.0
  0
VERTEX
  5
94
  8
0
 10
6.937309801567928
 20
-1.610228162753603
 30
0.0
  0
VERTEX
  5
95
  8
0
 10
7.003925435285517
 20
-1.585659945551363
 30
0.0
  0
VERTEX
  5
96
  8
0
 10
7.050550346909842
 20
-1.520984558350002
 30
0.0
  0
VERTEX
  5
97
  8
0
 10
7.085209557308621
 20
-1.32548786038205
 30
0.0
  0
VERTEX
  5
98
  8
0
 10
7.044050539624109
 20
-1.132089241714025
 30
0.0
  0
VERTEX
  5
99
  8
0
 10
6.99590266614432
 20
-1.070036453637572
 30
0.0
  0
VERTEX
  5
9A
  8
0
 10
6.929836400716148
 20
-1.049139875210204
 30
0.0
  0
VERTEX
  5
9B
  8
0
 10
4.662615457736543
 20
-1.12322284336341
 30
0.0
  0
SEQEND
  5
9C
  8
0
  0
POLYLINE
  5
29
  8
0
 66
     1
 10
0.0
 20
0.0
 30
0.0
  0
VERTEX
  5
9D
  8
0
 10
-0.9006465276963951
 20
-1.548813355027906
 30
0.0
  0
VERTEX
  5
9E
  8
0
 10
-0.9105409849039674
 20
-1.415553530402266
 30
0.0
  0
VERTEX
  5
9F
  8
0
 10
-0.8924335936277403
 20
-1.235929650047065
 30
0.0
  0
VERTEX
  5
A0
  8
0
 10
-0.8405006340927511
 20
-1.068627852998495
 30
0.0
  0
VERTEX
  5
A1
  8
0
 10
-0.7583259277395373
 20
-0.9172320401697958
 30
0.0
  0
VERTEX
  5
A2
  8
0
 10
-0.6494932960086368
 20
-0.7853261124742044
 30
0.0
  0
VERTEX
  5
A3
  8
0
 10
-0.5175865603405873
 20
-0.6764939708249593
 30
0.0
  0
VERTEX
  5
A4
  8
0
 10
-0.3661895421759264
 20
-0.5943195161352988
 30
0.0
  0
VERTEX
  5
A5
  8
0
 10
-0.1988860629551919
 20
-0.542386649318461
 30
0.0
  0
VERTEX
  5
A6
  8
0
 10
-0.0192599441189216
 20
-0.5242792712876845
 30
0.0
  0
VERTEX
  5
A7
  8
0
 10
0.1603549823119925
 20
-0.542386649318461
 30
0.0
  0
VERTEX
  5
A8
  8
0
 10
0.3276500506718972
 20
-0.5943195161352988
 30
0.0
  0
VERTEX
  5
A9
  8
0
 10
0.479041042156751
 20
-0.6764939708249593
 30
0.0
  0
VERTEX
  5
AA
  8
0
 10
0.6109437379625122
 20
-0.7853261124742044
 30
0.0
  0
VERTEX
  5
AB
  8
0
 10
0.7197739192851396
 20
-0.9172320401697958
 30
0.0
  0
VERTEX
  5
AC
  8
0
 10
0.8019473673205914
 20
-1.068627852998495
 30
0.0
  0
VERTEX
  5
AD
  8
0
 10
0.8538798632648262
 20
-1.235929650047065
 30
0.0
  0
VERTEX
  5
AE
  8
0
 10
0.8719871883138026
 20
-1.415553530402266
 30
0.0
  0
VERTEX
  5
AF
  8
0
 10
0.8483462850795093
 20
-1.620371846331023
 30
0.0
  0
VERTEX
  5
B0
  8
0
 10
0.7810042973807622
 20
-1.808334320324402
 30
0.0
  0
SEQEND
  5
B1
  8
0
  0
POLYLINE
  5
2A
  8
0
 66
     1
 10
0.0
 20
0.0
 30
0.0
  0
VERTEX
  5
B2
  8
0
 10
-4.783980232367622
 20
-1.493583430765755
 30
0.0
  0
VERTEX
  5
B3
  8
0
 10
-4.768572277072481
 20
-1.51723789734562
 30
0.0
  0
VERTEX
  5
B4
  8
0
 10
-4.728424787923174
 20
-1.51094450715465
 30
0.0
  0
VERTEX
  5
B5
  8
0
 10
-4.683520804657839
 20
-1.500510059436927
 30
0.0
  0
VERTEX
  5
B6
  8
0
 10
-4.615591354751007
 20
-1.500731311433847
 30
0.0
  0
VERTEX
  5
B7
  8
0
 10
-4.542779102107148
 20
-1.515926491812327
 30
0.0
  0
VERTEX
  5
B8
  8
0
 10
-4.48322671063073
 20
-1.550413829239281
 30
0.0
  0
SEQEND
  5
B9
  8
0
  0
POLYLINE
  5
2B
  8
0
 66
     1
 10
0.0
 20
0.0
 30
0.0
  0
VERTEX
  5
BA
  8
0
 10
-4.783980232367622
 20
-1.158514656460201
 30
0.0
  0
VERTEX
  5
BB
  8
0
 10
-4.768572277072481
 20
-1.134860189880343
 30
0.0
  0
VERTEX
  5
BC
  8
0
 10
-4.728424787923174
 20
-1.141153580071321
 30
0.0
  0
VERTEX
  5
BD
  8
0
 10
-4.683283446191626
 20
-1.151787239358893
 30
0.0
  0
VERTEX
  5
BE
  8
0
 10
-4.614831807659104
 20
-1.152004252815675
 30
0.0
  0
VERTEX
  5
BF
  8
0
 10
-4.541497366389498
 20
-1.137247337890947
 30
0.0
  0
VERTEX
  5
C0
  8
0
 10
-4.481707616446697
 20
-1.102959212033994
 30
0.0
  0
SEQEND
  5
C1
  8
0
  0
POLYLINE
  5
2C
  8
0
 66
     1
 10
0.0
 20
0.0
 30
0.0
 70
     1
  0
VERTEX
  5
C2
  8
0
 10
-4.783329192003038
 20
-1.530624914842366
 30
0.0
  0
VERTEX
  5
C3
  8
0
 10
-7.060844710747613
 20
-1.610228162753603
 30
0.0
  0
VERTEX
  5
C4
  8
0
 10
-7.127462026637368
 20
-1.585659945551363
 30
0.0
  0
VERTEX
  5
C5
  8
0
 10
-7.174087269397948
 20
-1.520984558350002
 30
0.0
  0
VERTEX
  5
C6
  8
0
 10
-7.208745314197117
 20
-1.32548786038205
 30
0.0
  0
VERTEX
  5
C7
  8
0
 10
-7.167586402476204
 20
-1.132089241714025
 30
0.0
  0
VERTEX
  5
C8
  8
0
 10
-7.119440449586683
 20
-1.070036453637572
 30
0.0
  0
VERTEX
  5
C9
  8
0
 10
-7.053378091566298
 20
-1.049139875210204
 30
0.0
  0
VERTEX
  5
CA
  8
0
 10
-4.786150366916232
 20
-1.12322284336341
 30
0.0
  0
SEQEND
  5
CB
  8
0
  0
POLYLINE
  5
2D
  8
0
 66
     1
 10
0.0
 20
0.0
 30
0.0
  0
VERTEX
  5
CC
  8
0
 10
-5.119849243787975
 20
-1.110446176208472
 30
0.0
  0
VERTEX
  5
CD
  8
0
 10
-5.066673861031186
 20
-0.9291569189180557
 30
0.0
  0
VERTEX
  5
CE
  8
0
 10
-4.98446940539699
 20
-0.7624095764117527
 30
0.0
  0
VERTEX
  5
CF
  8
0
 10
-4.876204420676681
 20
-0.6131722951173533
 30
0.0
  0
VERTEX
  5
D0
  8
0
 10
-4.744847450661553
 20
-0.484413221462648
 30
0.0
  0
VERTEX
  5
D1
  8
0
 10
-4.593367039142899
 20
-0.3791005018754272
 30
0.0
  0
VERTEX
  5
D2
  8
0
 10
-4.424731729912017
 20
-0.3002022827834814
 30
0.0
  0
VERTEX
  5
D3
  8
0
 10
-4.241910066760196
 20
-0.2506867106146009
 30
0.0
  0
VERTEX
  5
D4
  8
0
 10
-4.047870593478734
 20
-0.2335219317965762
 30
0.0
  0
VERTEX
  5
D5
  8
0
 10
-3.827512582988156
 20
-0.255735770238955
 30
0.0
  0
VERTEX
  5
D6
  8
0
 10
-3.62227012123574
 20
-0.3194461204350523
 30
0.0
  0
VERTEX
  5
D7
  8
0
 10
-3.436540114863447
 20
-0.4202562346883092
 30
0.0
  0
VERTEX
  5
D8
  8
0
 10
-3.274719470513236
 20
-0.5537693653021669
 30
0.0
  0
VERTEX
  5
D9
  8
0
 10
-3.141205094827067
 20
-0.7155887645800667
 30
0.0
  0
VERTEX
  5
DA
  8
0
 10
-3.0403938944469
 20
-0.9013176848254498
 30
0.0
  0
VERTEX
  5
DB
  8
0
 10
-2.976682776014697
 20
-1.106559378341757
 30
0.0
  0
VERTEX
  5
DC
  8
0
 10
-2.954468646172415
 20
-1.326917097432431
 30
0.0
  0
VERTEX
  5
DD
  8
0
 10
-2.976682776014697
 20
-1.547274816523103
 30
0.0
  0
VERTEX
  5
DE
  8
0
 10
-3.0403938944469
 20
-1.752516510039409
 30
0.0
  0
VERTEX
  5
DF
  8
0
 10
-3.141205094827067
 20
-1.93824543028479
 30
0.0
  0
VERTEX
  5
E0
  8
0
 10
-3.274719470513236
 20
-2.100064829562688
 30
0.0
  0
VERTEX
  5
E1
  8
0
 10
-3.436540114863447
 20
-2.233577960176543
 30
0.0
  0
VERTEX
  5
E2
  8
0
 10
-3.62227012123574
 20
-2.334388074429797
 30
0.0
  0
VERTEX
  5
E3
  8
0
 10
-3.827512582988156
 20
-2.398098424625893
 30
0.0
  0
VERTEX
  5
E4
  8
0
 10
-4.047870593478734
 20
-2.420312263068271
 30
0.0
  0
VERTEX
  5
E5
  8
0
 10
-4.241910066741303
 20
-2.403147484253631
 30
0.0
  0
VERTEX
  5
E6
  8
0
 10
-4.424731729876772
 20
-2.353631912094309
 30
0.0
  0
VERTEX
  5
E7
  8
0
 10
-4.593367039094733
 20
-2.274733693017204
 30
0.0
  0
VERTEX
  5
E8
  8
0
 10
-4.744847450604787
 20
-2.169420973449219
 30
0.0
  0
VERTEX
  5
E9
  8
0
 10
-4.876204420616528
 20
-2.040661899817251
 30
0.0
  0
VERTEX
  5
EA
  8
0
 10
-4.984469405339552
 20
-1.891424618548199
 30
0.0
  0
VERTEX
  5
EB
  8
0
 10
-5.066673860983457
 20
-1.724677276068964
 30
0.0
  0
VERTEX
  5
EC
  8
0
 10
-5.119849243757839
 20
-1.543388018806446
 30
0.0
  0
SEQEND
  5
ED
  8
0
  0
POLYLINE
  5
2E
  8
0
 66
     1
 10
0.0
 20
0.0
 30
0.0
  0
VERTEX
  5
EE
  8
0
 10
-4.627689854844832
 20
-1.149345837992317
 30
0.0
  0
VERTEX
  5
EF
  8
0
 10
-4.592522111879373
 20
-1.059233596969466
 30
0.0
  0
VERTEX
  5
F0
  8
0
 10
-4.544021313380981
 20
-0.9767993725119371
 30
0.0
  0
VERTEX
  5
F1
  8
0
 10
-4.483523792812849
 20
-0.9033798954464267
 30
0.0
  0
VERTEX
  5
F2
  8
0
 10
-4.412365883638168
 20
-0.8403118965996306
 30
0.0
  0
VERTEX
  5
F3
  8
0
 10
-4.331883919320132
 20
-0.7889321067982444
 30
0.0
  0
VERTEX
  5
F4
  8
0
 10
-4.243414233321931
 20
-0.7505772568689642
 30
0.0
  0
VERTEX
  5
F5
  8
0
 10
-4.148293159106759
 20
-0.7265840776384857
 30
0.0
  0
VERTEX
  5
F6
  8
0
 10
-4.047857030137806
 20
-0.7182892999335049
 30
0.0
  0
VERTEX
  5
F7
  8
0
 10
-3.92587124257758
 20
-0.7305865612665999
 30
0.0
  0
VERTEX
  5
F8
  8
0
 10
-3.812253215152528
 20
-0.7658557246436739
 30
0.0
  0
VERTEX
  5
F9
  8
0
 10
-3.709436958268667
 20
-0.82166285913141
 30
0.0
  0
VERTEX
  5
FA
  8
0
 10
-3.619856482332016
 20
-0.8955740337964915
 30
0.0
  0
VERTEX
  5
FB
  8
0
 10
-3.54594579774859
 20
-0.9851553177056015
 30
0.0
  0
VERTEX
  5
FC
  8
0
 10
-3.490138914924407
 20
-1.087972779925423
 30
0.0
  0
VERTEX
  5
FD
  8
0
 10
-3.454869844265484
 20
-1.20159248952264
 30
0.0
  0
VERTEX
  5
FE
  8
0
 10
-3.44257259617784
 20
-1.323580515563935
 30
0.0
  0
VERTEX
  5
FF
  8
0
 10
-3.454869844265484
 20
-1.445564064643088
 30
0.0
  0
VERTEX
  5
100
  8
0
 10
-3.490138914924407
 20
-1.559180409895973
 30
0.0
  0
VERTEX
  5
101
  8
0
 10
-3.54594579774859
 20
-1.661995461443871
 30
0.0
  0
VERTEX
  5
102
  8
0
 10
-3.619856482332016
 20
-1.751575129408066
 30
0.0
  0
VERTEX
  5
103
  8
0
 10
-3.709436958268667
 20
-1.825485323909838
 30
0.0
  0
VERTEX
  5
104
  8
0
 10
-3.812253215152528
 20
-1.88129195507047
 30
0.0
  0
VERTEX
  5
105
  8
0
 10
-3.92587124257758
 20
-1.916560933011242
 30
0.0
  0
VERTEX
  5
106
  8
0
 10
-4.047857030137806
 20
-1.928858167853437
 30
0.0
  0
VERTEX
  5
107
  8
0
 10
-4.148732656377541
 20
-1.92049003684731
 30
0.0
  0
VERTEX
  5
108
  8
0
 10
-4.244239583791696
 20
-1.896288559672835
 30
0.0
  0
VERTEX
  5
109
  8
0
 10
-4.333023438614414
 20
-1.857608110095869
 30
0.0
  0
VERTEX
  5
10A
  8
0
 10
-4.413729847079837
 20
-1.805803061882269
 30
0.0
  0
VERTEX
  5
10B
  8
0
 10
-4.485004435422108
 20
-1.742227788797892
 30
0.0
  0
VERTEX
  5
10C
  8
0
 10
-4.545492829875372
 20
-1.668236664608596
 30
0.0
  0
VERTEX
  5
10D
  8
0
 10
-4.593840656673771
 20
-1.585184063080237
 30
0.0
  0
VERTEX
  5
10E
  8
0
 10
-4.628693542051447
 20
-1.494424357978673
 30
0.0
  0
SEQEND
  5
10F
  8
0
  0
POLYLINE
  5
2F
  8
0
 66
     1
 10
0.0
 20
0.0
 30
0.0
  0
VERTEX
  5
110
  8
0
 10
0.6795776338975728
 20
-2.411957245056118
 30
0.0
  0
VERTEX
  5
111
  8
0
 10
0.8911712624944059
 20
-2.221274897336293
 30
0.0
  0
VERTEX
  5
112
  8
0
 10
1.053339229037816
 20
-1.98609546657305
 30
0.0
  0
VERTEX
  5
113
  8
0
 10
1.113104660332046
 20
-1.854601684303572
 30
0.0
  0
VERTEX
  5
114
  8
0
 10
1.15717296166399
 20
-1.715322438377351
 30
0.0
  0
VERTEX
  5
115
  8
0
 10
1.184430561550673
 20
-1.569370664495756
 30
0.0
  0
VERTEX
  5
116
  8
0
 10
1.193763888509118
 20
-1.417859298360159
 30
0.0
  0
VERTEX
  5
117
  8
0
 10
1.169021758546726
 20
-1.172436684178427
 30
0.0
  0
VERTEX
  5
118
  8
0
 10
1.098060531060963
 20
-0.9438476595797751
 30
0.0
  0
VERTEX
  5
119
  8
0
 10
0.9857779496539457
 20
-0.7369896502755166
 30
0.0
  0
VERTEX
  5
11A
  8
0
 10
0.8370717579277907
 20
-0.5567600819769651
 30
0.0
  0
VERTEX
  5
11B
  8
0
 10
0.6568396994846151
 20
-0.4080563803954346
 30
0.0
  0
VERTEX
  5
11C
  8
0
 10
0.4499795179265361
 20
-0.2957759712422385
 30
0.0
  0
VERTEX
  5
11D
  8
0
 10
0.2213889568556706
 20
-0.2248162802286909
 30
0.0
  0
VERTEX
  5
11E
  8
0
 10
-0.0240342401258644
 20
-0.2000747330661052
 30
0.0
  0
VERTEX
  5
11F
  8
0
 10
-0.2694632783509069
 20
-0.2248162802286909
 30
0.0
  0
VERTEX
  5
120
  8
0
 10
-0.4980565812299493
 20
-0.2957759712422385
 30
0.0
  0
VERTEX
  5
121
  8
0
 10
-0.7049171204151818
 20
-0.4080563803954346
 30
0.0
  0
VERTEX
  5
122
  8
0
 10
-0.8851478675587945
 20
-0.5567600819769651
 30
0.0
  0
VERTEX
  5
123
  8
0
 10
-1.033851794312977
 20
-0.7369896502755166
 30
0.0
  0
VERTEX
  5
124
  8
0
 10
-1.14613187232992
 20
-0.9438476595797751
 30
0.0
  0
VERTEX
  5
125
  8
0
 10
-1.217091073261813
 20
-1.172436684178427
 30
0.0
  0
VERTEX
  5
126
  8
0
 10
-1.241832368760846
 20
-1.417859298360159
 30
0.0
  0
VERTEX
  5
127
  8
0
 10
-1.232706690724025
 20
-1.567692651401119
 30
0.0
  0
VERTEX
  5
128
  8
0
 10
-1.20604687124697
 20
-1.712103899960382
 30
0.0
  0
VERTEX
  5
129
  8
0
 10
-1.162928732279801
 20
-1.850017142615129
 30
0.0
  0
VERTEX
  5
12A
  8
0
 10
-1.104428095772635
 20
-1.980356477942542
 30
0.0
  0
VERTEX
  5
12B
  8
0
 10
-0.9455826179387823
 20
-2.214009820924091
 30
0.0
  0
VERTEX
  5
12C
  8
0
 10
-0.7381170133463542
 20
-2.404456717522481
 30
0.0
  0
VERTEX
  5
12D
  8
0
 10
-0.7069688009033186
 20
-2.423011367913108
 30
0.0
  0
SEQEND
  5
12E
  8
0
  0
POLYLINE
  5
30
  8
0
 66
     1
 10
0.0
 20
0.0
 30
0.0
  0
VERTEX
  5
12F
  8
0
 10
-0.5968751625840909
 20
-5.648306024081736
 30
0.0
  0
VERTEX
  5
130
  8
0
 10
-0.6941589671412568
 20
-5.704740542560125
 30
0.0
  0
VERTEX
  5
131
  8
0
 10
-0.7486260594397658
 20
-5.815460637688502
 30
0.0
  0
VERTEX
  5
132
  8
0
 10
-0.7776405888129361
 20
-5.972279985507515
 30
0.0
  0
VERTEX
  5
133
  8
0
 10
-0.7777355321994364
 20
-6.501955575459777
 30
0.0
  0
VERTEX
  5
134
  8
0
 10
-0.7349253896840402
 20
-6.649728174879262
 30
0.0
  0
VERTEX
  5
135
  8
0
 10
-0.6409131053443464
 20
-6.760110881902033
 30
0.0
  0
VERTEX
  5
136
  8
0
 10
-0.5639427747636614
 20
-6.802745866584965
 30
0.0
  0
VERTEX
  5
137
  8
0
 10
-0.4624963623318124
 20
-6.82875071179875
 30
0.0
  0
VERTEX
  5
138
  8
0
 10
-0.2435821323958487
 20
-6.843074871382791
 30
0.0
  0
VERTEX
  5
139
  8
0
 10
-0.0035891990932875
 20
-6.846115179022868
 30
0.0
  0
VERTEX
  5
13A
  8
0
 10
0.2297992348857461
 20
-6.840473253050885
 30
0.0
  0
VERTEX
  5
13B
  8
0
 10
0.4288999668511266
 20
-6.82875071179875
 30
0.0
  0
VERTEX
  5
13C
  8
0
 10
0.5303444322018094
 20
-6.802745866584965
 30
0.0
  0
VERTEX
  5
13D
  8
0
 10
0.6073138488464366
 20
-6.760110881902033
 30
0.0
  0
VERTEX
  5
13E
  8
0
 10
0.701326451076933
 20
-6.649728174879262
 30
0.0
  0
VERTEX
  5
13F
  8
0
 10
0.7441391367187507
 20
-6.501955575459777
 30
0.0
  0
VERTEX
  5
140
  8
0
 10
0.7440306299913218
 20
-5.972279985507515
 30
0.0
  0
VERTEX
  5
141
  8
0
 10
0.7150169483343799
 20
-5.815460637712283
 30
0.0
  0
VERTEX
  5
142
  8
0
 10
0.6605518693590246
 20
-5.704740542588041
 30
0.0
  0
VERTEX
  5
143
  8
0
 10
0.5632719854820333
 20
-5.648306024085872
 30
0.0
  0
SEQEND
  5
144
  8
0
  0
POLYLINE
  5
31
  8
0
 66
     1
 10
0.0
 20
0.0
 30
0.0
  0
VERTEX
  5
145
  8
0
 10
-0.6563571942274322
 20
-6.524036694491886
 30
0.0
  0
VERTEX
  5
146
  8
0
 10
-0.6163919624718561
 20
-6.261886136437282
 30
0.0
  0
VERTEX
  5
147
  8
0
 10
-0.6130019749484603
 20
-6.10737086115856
 30
0.0
  0
VERTEX
  5
148
  8
0
 10
-0.6129850207722996
 20
-4.304278967675077
 30
0.0
  0
VERTEX
  5
149
  8
0
 10
-0.6369887433810779
 20
-3.385446754846755
 30
0.0
  0
VERTEX
  5
14A
  8
0
 10
-0.6983357344021286
 20
-2.400713235426127
 30
0.0
  0
VERTEX
  5
14B
  8
0
 10
-0.7292737150607644
 20
-2.162549445804145
 30
0.0
  0
VERTEX
  5
14C
  8
0
 10
-0.8223250155029263
 20
-1.802610590487989
 30
0.0
  0
VERTEX
  5
14D
  8
0
 10
-0.833813165269639
 20
-1.777884619974745
 30
0.0
  0
VERTEX
  5
14E
  8
0
 10
-0.9006465276927796
 20
-1.548813355052014
 30
0.0
  0
SEQEND
  5
14F
  8
0
  0
POLYLINE
  5
32
  8
0
 66
     1
 10
0.0
 20
0.0
 30
0.0
  0
VERTEX
  5
150
  8
0
 10
0.6194920335829011
 20
-6.524036694491886
 30
0.0
  0
VERTEX
  5
151
  8
0
 10
0.5795208678656687
 20
-6.261886136437282
 30
0.0
  0
VERTEX
  5
152
  8
0
 10
0.5761300326334649
 20
-6.10737086115856
 30
0.0
  0
VERTEX
  5
153
  8
0
 10
0.5761147738749202
 20
-4.304278967675077
 30
0.0
  0
VERTEX
  5
154
  8
0
 10
0.6001148937212644
 20
-3.385446754846755
 30
0.0
  0
VERTEX
  5
155
  8
0
 10
0.6251180385238349
 20
-2.903866586391788
 30
0.0
  0
VERTEX
  5
156
  8
0
 10
0.6614570104166688
 20
-2.400713235426127
 30
0.0
  0
VERTEX
  5
157
  8
0
 10
0.6924034681574356
 20
-2.16254944583655
 30
0.0
  0
VERTEX
  5
158
  8
0
 10
0.7854530731621202
 20
-1.802610590562155
 30
0.0
  0
SEQEND
  5
159
  8
0
  0
CIRCLE
  5
33
  8
0
 10
-4.045351202901209
 20
-1.331515070007287
 30
0.0
 40
0.491640591152615
  0
ATTDEF
  5
34
  8
0
  6
CONTINUOUS
 10
-0.0018
 20
-0.0165
 30
0.0
 40
0.003
  1
BRASS
  3

  2
MATERIAL
 70
     2
  0
ATTDEF
  5
35
  8
0
  6
CONTINUOUS
 10
-0.0018
 20
-0.0132
 30
0.0
 40
0.003
  1
FAUCET
  3

  2
PRODUCT
 70
     2
  0
ATTDEF
  5
36
  8
0
  6
CONTINUOUS
 10
-0.0018
 20
-0.0098
 30
0.0
 40
0.003
  1
BANCROFT
  3

  2
TRADENAME
 70
     2
  0
ATTDEF
  5
37
  8
0
  6
CONTINUOUS
 10
-0.0018
 20
-0.0065
 30
0.0
 40
0.003
  1
K-10577-4
  3

  2
MODELNUMBER
 70
     2
  0
CIRCLE
  5
38
  8
0
 10
0.0
 20
-1.319864160149438
 30
0.0
 40
0.3928350433213976
  0
CIRCLE
  5
39
  8
0
 10
3.921812902886281
 20
-1.331515070007287
 30
0.0
 40
0.4916439819878472
  0
ENDSEC
  0
EOF
