  0
SECTION
  2
HEADER
  9
$ACADVER
  1
AC1009
  9
$INSBASE
 10
0.0
 20
0.0
 30
0.0
  9
$EXTMIN
 10
-1.1875
 20
-4.1679491308623886
 30
0.0
  9
$EXTMAX
 10
1.1875
 20
0.001
 30
0.0
  9
$LIMMIN
 10
0.0
 20
0.0
  9
$LIMMAX
 10
12.0
 20
9.0
  9
$ORTHOMODE
 70
     0
  9
$REGENMODE
 70
     1
  9
$FILLMODE
 70
     1
  9
$QTEXTMODE
 70
     0
  9
$MIRRTEXT
 70
     1
  9
$DRAGMODE
 70
     2
  9
$LTSCALE
 40
1.0
  9
$OSMODE
 70
    37
  9
$ATTMODE
 70
     1
  9
$TEXTSIZE
 40
6.0
  9
$TRACEWID
 40
0.05
  9
$TEXTSTYLE
  7
STANDARD
  9
$CLAYER
  8
0
  9
$CELTYPE
  6
BYLAYER
  9
$CECOLOR
 62
   256
  9
$DIMSCALE
 40
1.0
  9
$DIMASZ
 40
0.18
  9
$DIMEXO
 40
0.0625
  9
$DIMDLI
 40
0.38
  9
$DIMRND
 40
0.0
  9
$DIMDLE
 40
0.0
  9
$DIMEXE
 40
0.18
  9
$DIMTP
 40
0.0
  9
$DIMTM
 40
0.0
  9
$DIMTXT
 40
0.18
  9
$DIMCEN
 40
0.09
  9
$DIMTSZ
 40
0.0
  9
$DIMTOL
 70
     0
  9
$DIMLIM
 70
     0
  9
$DIMTIH
 70
     1
  9
$DIMTOH
 70
     1
  9
$DIMSE1
 70
     0
  9
$DIMSE2
 70
     0
  9
$DIMTAD
 70
     0
  9
$DIMZIN
 70
     0
  9
$DIMBLK
  1

  9
$DIMASO
 70
     1
  9
$DIMSHO
 70
     1
  9
$DIMPOST
  1

  9
$DIMAPOST
  1

  9
$DIMALT
 70
     0
  9
$DIMALTD
 70
     2
  9
$DIMALTF
 40
25.399999999999999
  9
$DIMLFAC
 40
1.0
  9
$DIMTOFL
 70
     0
  9
$DIMTVP
 40
0.0
  9
$DIMTIX
 70
     0
  9
$DIMSOXD
 70
     0
  9
$DIMSAH
 70
     0
  9
$DIMBLK1
  1

  9
$DIMBLK2
  1

  9
$DIMSTYLE
  2
STANDARD
  9
$DIMCLRD
 70
     0
  9
$DIMCLRE
 70
     0
  9
$DIMCLRT
 70
     0
  9
$DIMTFAC
 40
1.0
  9
$DIMGAP
 40
0.09
  9
$LUNITS
 70
     2
  9
$LUPREC
 70
     4
  9
$SKETCHINC
 40
0.1
  9
$FILLETRAD
 40
0.046
  9
$AUNITS
 70
     0
  9
$AUPREC
 70
     3
  9
$MENU
  1
.
  9
$ELEVATION
 40
0.0
  9
$PELEVATION
 40
0.0
  9
$THICKNESS
 40
0.0
  9
$LIMCHECK
 70
     0
  9
$BLIPMODE
 70
     0
  9
$CHAMFERA
 40
0.5
  9
$CHAMFERB
 40
0.5
  9
$SKPOLY
 70
     0
  9
$TDCREATE
 40
2451380.555432396
  9
$TDUPDATE
 40
2456700.4975114362
  9
$TDINDWG
 40
7.2268551157000003
  9
$TDUSRTIMER
 40
7.2268460764000002
  9
$USRTIMER
 70
     1
  9
$ANGBASE
 50
0.0
  9
$ANGDIR
 70
     0
  9
$PDMODE
 70
     0
  9
$PDSIZE
 40
0.0
  9
$PLINEWID
 40
0.0
  9
$COORDS
 70
     1
  9
$SPLFRAME
 70
     0
  9
$SPLINETYPE
 70
     6
  9
$SPLINESEGS
 70
     8
  9
$ATTDIA
 70
     0
  9
$ATTREQ
 70
     1
  9
$HANDLING
 70
     1
  9
$HANDSEED
  5
14E
  9
$SURFTAB1
 70
     6
  9
$SURFTAB2
 70
     6
  9
$SURFTYPE
 70
     6
  9
$SURFU
 70
     6
  9
$SURFV
 70
     6
  9
$UCSNAME
  2

  9
$UCSORG
 10
0.0
 20
0.0
 30
0.0
  9
$UCSXDIR
 10
1.0
 20
0.0
 30
0.0
  9
$UCSYDIR
 10
0.0
 20
1.0
 30
0.0
  9
$PUCSNAME
  2

  9
$PUCSORG
 10
0.0
 20
0.0
 30
0.0
  9
$PUCSXDIR
 10
1.0
 20
0.0
 30
0.0
  9
$PUCSYDIR
 10
0.0
 20
1.0
 30
0.0
  9
$USERI1
 70
     0
  9
$USERI2
 70
     0
  9
$USERI3
 70
     0
  9
$USERI4
 70
     0
  9
$USERI5
 70
     0
  9
$USERR1
 40
0.0
  9
$USERR2
 40
0.0
  9
$USERR3
 40
0.0
  9
$USERR4
 40
0.0
  9
$USERR5
 40
0.0
  9
$WORLDVIEW
 70
     1
  9
$SHADEDGE
 70
     3
  9
$SHADEDIF
 70
    70
  9
$TILEMODE
 70
     1
  9
$MAXACTVP
 70
    64
  9
$PLIMCHECK
 70
     0
  9
$PEXTMIN
 10
1.0000000000000000E+020
 20
1.0000000000000000E+020
 30
1.0000000000000000E+020
  9
$PEXTMAX
 10
-1.0000000000000000E+020
 20
-1.0000000000000000E+020
 30
-1.0000000000000000E+020
  9
$PLIMMIN
 10
0.0
 20
0.0
  9
$PLIMMAX
 10
12.0
 20
9.0
  9
$UNITMODE
 70
     0
  9
$VISRETAIN
 70
     1
  9
$PLINEGEN
 70
     0
  9
$PSLTSCALE
 70
     1
  0
ENDSEC
  0
SECTION
  2
TABLES
  0
TABLE
  2
VPORT
 70
     1
  0
VPORT
  2
*ACTIVE
 70
     0
 10
0.0
 20
0.0
 11
1.0
 21
1.0
 12
0.0957246449759026
 22
2.118100408318023
 13
0.0
 23
0.0
 14
0.5
 24
0.5
 15
0.5
 25
0.5
 16
0.0
 26
0.0
 36
1.0
 17
0.0
 27
0.0
 37
0.0
 40
28.4336106358951
 41
1.1829652996845419
 42
50.0
 43
0.0
 44
0.0
 50
0.0
 51
0.0
 71
     0
 72
  6600
 73
     1
 74
     1
 75
     0
 76
     0
 77
     0
 78
     0
  0
ENDTAB
  0
TABLE
  2
LTYPE
 70
     2
  0
LTYPE
  2
CONTINUOUS
 70
     0
  3
Solid line
 72
    65
 73
     0
 40
0.0
  0
LTYPE
  2
PHANTOM2
 70
     0
  3
Phantom (.5x) ___ _ _ ___ _ _ ___ _ _ ___ _ _
 72
    65
 73
     6
 40
1.25
 49
0.625
 49
-0.125
 49
0.125
 49
-0.125
 49
0.125
 49
-0.125
  0
ENDTAB
  0
TABLE
  2
LAYER
 70
     2
  0
LAYER
  2
0
 70
     0
 62
     7
  6
CONTINUOUS
  0
LAYER
  2
DEFPOINTS
 70
     0
 62
     7
  6
CONTINUOUS
  0
ENDTAB
  0
TABLE
  2
STYLE
 70
     1
  0
STYLE
  2
STANDARD
 70
     0
 40
0.0
 41
1.0
 50
0.0
 71
     0
 42
6.0
  3
txt
  4

  0
ENDTAB
  0
TABLE
  2
VIEW
 70
     0
  0
ENDTAB
  0
TABLE
  2
UCS
 70
     0
  0
ENDTAB
  0
TABLE
  2
APPID
 70
     5
  0
APPID
  2
ACAD
 70
     0
  0
APPID
  2
ACAD_PSEXT
 70
     0
  0
APPID
  2
ACAD_NAV_VCDISPLAY
 70
     0
  0
APPID
  2
AcDbAttr
 70
     0
  0
APPID
  2
ACAD_MLEADERVER
 70
     0
  0
ENDTAB
  0
TABLE
  2
DIMSTYLE
 70
     1
  0
DIMSTYLE
  2
STANDARD
 70
     0
  3

  4

  5

  6

  7

 40
1.0
 41
0.18
 42
0.0625
 43
0.38
 44
0.18
 45
0.0
 46
0.0
 47
0.0
 48
0.0
140
0.18
141
0.09
142
0.0
143
25.399999999999999
144
1.0
145
0.0
146
1.0
147
0.09
 71
     0
 72
     0
 73
     1
 74
     1
 75
     0
 76
     0
 77
     0
 78
     0
170
     0
171
     2
172
     0
173
     0
174
     0
175
     0
176
     0
177
     0
178
     0
  0
ENDTAB
  0
ENDSEC
  0
SECTION
  2
BLOCKS
  0
BLOCK
  8
0
  2
$MODEL_SPACE
 70
     2
 10
0.0
 20
0.0
 30
0.0
  3
$MODEL_SPACE
  1

  0
ENDBLK
  5
16
  8
0
  0
BLOCK
 67
     1
  8
0
  2
$PAPER_SPACE
 70
     0
 10
0.0
 20
0.0
 30
0.0
  3
$PAPER_SPACE
  1

  0
ENDBLK
  5
1E
 67
     1
  8
0
  0
ENDSEC
  0
SECTION
  2
ENTITIES
  0
POLYLINE
  5
72
  8
0
 66
     1
 10
0.0
 20
0.0
 30
0.0
  0
VERTEX
  5
E4
  8
0
 10
-0.1561807427666508
 20
-1.9211216743798329
 30
0.0
  0
VERTEX
  5
E5
  8
0
 10
-0.1925028786592548
 20
-1.7827736663302849
 30
0.0
 42
0.1329375892004302
  0
VERTEX
  5
E6
  8
0
 10
-0.2575314419939616
 20
-1.6694809603398679
 30
0.0
  0
VERTEX
  5
E7
  8
0
 10
-0.3771116585185439
 20
-1.549900743815285
 30
0.0
  0
SEQEND
  5
E8
  8
0
  0
LINE
  5
73
  8
0
 10
-0.3771116585185439
 20
-1.549900743815285
 30
0.0
 11
-0.3771116585185439
 21
-1.497177555697959
 31
0.0
  0
LINE
  5
74
  8
0
 10
-0.3771116585185439
 20
-1.497177555697959
 30
0.0
 11
-0.398039946931533
 21
-1.4762492672849841
 31
0.0
  0
LINE
  5
75
  8
0
 10
-0.398039946931533
 20
-1.4762492672849841
 30
0.0
 11
-0.398039946931533
 21
-1.3506795368070921
 31
0.0
  0
LINE
  5
76
  8
0
 10
-0.398039946931533
 20
-1.3506795368070921
 30
0.0
 11
-0.356183370105569
 21
-1.329751248394103
 31
0.0
  0
POLYLINE
  5
77
  8
0
 66
     1
 10
0.0
 20
0.0
 30
0.0
  0
VERTEX
  5
E9
  8
0
 10
-0.356183370105569
 20
-1.329751248394103
 30
0.0
  0
VERTEX
  5
EA
  8
0
 10
-0.4224110348154256
 20
-1.0231298968768241
 30
0.0
 42
0.0822608475015646
  0
VERTEX
  5
EB
  8
0
 10
-0.4825509336915559
 20
-0.8711827220484877
 30
0.0
  0
VERTEX
  5
EC
  8
0
 10
-0.8488030819803782
 20
-0.2616036051622785
 30
0.0
  0
VERTEX
  5
ED
  8
0
 10
-0.8801955145998476
 20
-0.2406753167492894
 30
0.0
  0
SEQEND
  5
EE
  8
0
  0
LINE
  5
78
  8
0
 10
-0.8801955145998476
 20
-0.2406753167492894
 30
0.0
 11
-0.9429803798388007
 21
-0.2406753167492894
 31
0.0
  0
LINE
  5
79
  8
0
 10
-0.9429803798388007
 20
-0.2406753167492894
 30
0.0
 11
-0.9848369566647647
 21
-0.167426307303856
 31
0.0
  0
LINE
  5
7A
  8
0
 10
-0.9848369566647647
 20
-0.167426307303856
 30
0.0
 11
-1.047621821903703
 21
-0.167426307303856
 31
0.0
  0
LINE
  5
7B
  8
0
 10
-1.047621821903703
 20
-0.167426307303856
 30
0.0
 11
-1.089478398729681
 21
-0.083713153651928
 31
0.0
  0
LINE
  5
7C
  8
0
 10
-1.089478398729681
 20
-0.083713153651928
 30
0.0
 11
-1.16657171158701
 21
-0.083713153651928
 31
0.0
  0
LINE
  5
7D
  8
0
 10
-1.16657171158701
 20
-0.083713153651928
 30
0.0
 11
-1.1875
 21
-0.0627848652389531
 31
0.0
  0
LINE
  5
7E
  8
0
 10
-1.1875
 20
-0.0627848652389531
 30
0.0
 11
-1.1875
 21
0.0
 31
0.0
  0
POLYLINE
  5
7F
  8
0
 66
     1
 10
0.0
 20
0.0
 30
0.0
  0
VERTEX
  5
EF
  8
0
 10
0.1561807427666366
 20
-1.9211216743798329
 30
0.0
  0
VERTEX
  5
F0
  8
0
 10
0.1925028786592406
 20
-1.7827736663302991
 30
0.0
 42
-0.1329375892004178
  0
VERTEX
  5
F1
  8
0
 10
0.2575314419939474
 20
-1.6694809603398819
 30
0.0
  0
VERTEX
  5
F2
  8
0
 10
0.3771116585185439
 20
-1.549900743815285
 30
0.0
  0
SEQEND
  5
F3
  8
0
  0
LINE
  5
80
  8
0
 10
0.3771116585185439
 20
-1.549900743815285
 30
0.0
 11
0.3771116585185439
 21
-1.497177555697959
 31
0.0
  0
LINE
  5
81
  8
0
 10
0.3771116585185439
 20
-1.497177555697959
 30
0.0
 11
0.398039946931533
 21
-1.4762492672849841
 31
0.0
  0
LINE
  5
82
  8
0
 10
0.398039946931533
 20
-1.4762492672849841
 30
0.0
 11
0.398039946931533
 21
-1.3506795368070921
 31
0.0
  0
LINE
  5
83
  8
0
 10
0.398039946931533
 20
-1.3506795368070921
 30
0.0
 11
0.3561833701055548
 21
-1.329751248394103
 31
0.0
  0
POLYLINE
  5
84
  8
0
 66
     1
 10
0.0
 20
0.0
 30
0.0
  0
VERTEX
  5
F4
  8
0
 10
0.8801955145998476
 20
-0.2406753167492894
 30
0.0
  0
VERTEX
  5
F5
  8
0
 10
0.8488030819803782
 20
-0.2616036051622785
 30
0.0
  0
VERTEX
  5
F6
  8
0
 10
0.4825509336915559
 20
-0.8711827220484877
 30
0.0
 42
0.0822608475015665
  0
VERTEX
  5
F7
  8
0
 10
0.4224110348154114
 20
-1.0231298968768241
 30
0.0
  0
VERTEX
  5
F8
  8
0
 10
0.3561833701055548
 20
-1.329751248394103
 30
0.0
  0
SEQEND
  5
F9
  8
0
  0
LINE
  5
85
  8
0
 10
0.8801955145998476
 20
-0.2406753167492894
 30
0.0
 11
0.9429803798387865
 21
-0.2406753167492894
 31
0.0
  0
LINE
  5
86
  8
0
 10
0.9429803798387865
 20
-0.2406753167492894
 30
0.0
 11
0.9848369566647647
 21
-0.167426307303856
 31
0.0
  0
LINE
  5
87
  8
0
 10
0.9848369566647647
 20
-0.167426307303856
 30
0.0
 11
1.047621821903703
 21
-0.167426307303856
 31
0.0
  0
LINE
  5
88
  8
0
 10
1.047621821903703
 20
-0.167426307303856
 30
0.0
 11
1.089478398729681
 21
-0.083713153651928
 31
0.0
  0
LINE
  5
89
  8
0
 10
1.089478398729681
 20
-0.083713153651928
 30
0.0
 11
1.1665717115870251
 21
-0.083713153651928
 31
0.0
  0
LINE
  5
8A
  8
0
 10
1.1665717115870251
 20
-0.083713153651928
 30
0.0
 11
1.1875
 21
-0.0627848652389531
 31
0.0
  0
LINE
  5
8B
  8
0
 10
1.1875
 20
-0.0627848652389531
 30
0.0
 11
1.1875
 21
0.0
 31
0.0
  0
POLYLINE
  5
8C
  8
0
 66
     1
 10
0.0
 20
0.0
 30
0.0
  0
VERTEX
  5
FA
  8
0
 10
-0.8801955145998476
 20
-0.2406753167492894
 30
0.0
  0
VERTEX
  5
FB
  8
0
 10
0.0
 20
-0.2406753167492894
 30
0.0
  0
VERTEX
  5
FC
  8
0
 10
0.8801955145998476
 20
-0.2406753167492894
 30
0.0
  0
SEQEND
  5
FD
  8
0
  0
POLYLINE
  5
8D
  8
0
 66
     1
 10
0.0
 20
0.0
 30
0.0
  0
VERTEX
  5
FE
  8
0
 10
-0.9848369566647647
 20
-0.167426307303856
 30
0.0
  0
VERTEX
  5
FF
  8
0
 10
0.0
 20
-0.167426307303856
 30
0.0
  0
VERTEX
  5
100
  8
0
 10
0.9848369566647647
 20
-0.167426307303856
 30
0.0
  0
SEQEND
  5
101
  8
0
  0
POLYLINE
  5
8E
  8
0
 66
     1
 10
0.0
 20
0.0
 30
0.0
  0
VERTEX
  5
102
  8
0
 10
-1.089478398729681
 20
-0.083713153651928
 30
0.0
  0
VERTEX
  5
103
  8
0
 10
0.0
 20
-0.083713153651928
 30
0.0
  0
VERTEX
  5
104
  8
0
 10
1.089478398729681
 20
-0.083713153651928
 30
0.0
  0
SEQEND
  5
105
  8
0
  0
POLYLINE
  5
8F
  8
0
 66
     1
 10
0.0
 20
0.0
 30
0.0
  0
VERTEX
  5
106
  8
0
 10
-1.1875
 20
0.0
 30
0.0
  0
VERTEX
  5
107
  8
0
 10
0.0
 20
0.0
 30
0.0
  0
VERTEX
  5
108
  8
0
 10
1.1875
 20
0.0
 30
0.0
  0
SEQEND
  5
109
  8
0
  0
POLYLINE
  5
90
  8
0
 66
     1
 10
0.0
 20
0.0
 30
0.0
  0
VERTEX
  5
10A
  8
0
 10
-0.3771116585185439
 20
-1.549900743815285
 30
0.0
  0
VERTEX
  5
10B
  8
0
 10
0.0
 20
-1.549900743815285
 30
0.0
  0
VERTEX
  5
10C
  8
0
 10
0.3771116585185439
 20
-1.549900743815285
 30
0.0
  0
SEQEND
  5
10D
  8
0
  0
POLYLINE
  5
91
  8
0
 66
     1
 10
0.0
 20
0.0
 30
0.0
  0
VERTEX
  5
10E
  8
0
 10
-0.3771116585185439
 20
-1.497177555697959
 30
0.0
  0
VERTEX
  5
10F
  8
0
 10
0.0
 20
-1.497177555697959
 30
0.0
  0
VERTEX
  5
110
  8
0
 10
0.3771116585185439
 20
-1.497177555697959
 30
0.0
  0
SEQEND
  5
111
  8
0
  0
POLYLINE
  5
92
  8
0
 66
     1
 10
0.0
 20
0.0
 30
0.0
  0
VERTEX
  5
112
  8
0
 10
-0.398039946931533
 20
-1.4762492672849841
 30
0.0
  0
VERTEX
  5
113
  8
0
 10
0.0
 20
-1.4762492672849841
 30
0.0
  0
VERTEX
  5
114
  8
0
 10
0.398039946931533
 20
-1.4762492672849841
 30
0.0
  0
SEQEND
  5
115
  8
0
  0
POLYLINE
  5
93
  8
0
 66
     1
 10
0.0
 20
0.0
 30
0.0
  0
VERTEX
  5
116
  8
0
 10
-0.398039946931533
 20
-1.3506795368070921
 30
0.0
  0
VERTEX
  5
117
  8
0
 10
0.0
 20
-1.3506795368070921
 30
0.0
  0
VERTEX
  5
118
  8
0
 10
0.398039946931533
 20
-1.3506795368070921
 30
0.0
  0
SEQEND
  5
119
  8
0
  0
POLYLINE
  5
94
  8
0
 66
     1
 10
0.0
 20
0.0
 30
0.0
  0
VERTEX
  5
11A
  8
0
 10
-0.356183370105569
 20
-1.329751248394103
 30
0.0
  0
VERTEX
  5
11B
  8
0
 10
0.0
 20
-1.329751248394103
 30
0.0
  0
VERTEX
  5
11C
  8
0
 10
0.3561833701055548
 20
-1.329751248394103
 30
0.0
  0
SEQEND
  5
11D
  8
0
  0
CIRCLE
  5
95
  8
0
 10
0.0
 20
-3.0391072100065051
 30
0.0
 40
1.1288419208558831
  0
CIRCLE
  5
96
  8
0
 10
0.0
 20
-3.0391072100065051
 30
0.0
 40
1.0313207557112061
  0
CIRCLE
  5
97
  8
0
 10
0.0
 20
-3.0391072100065051
 30
0.0
 40
0.9063207557112065
  0
CIRCLE
  5
98
  8
0
 10
0.0
 20
-3.0391072100065051
 30
0.0
 40
0.9945139466773441
  0
ATTDEF
  5
99
  8
DEFPOINTS
 10
0.0
 20
-0.005
 30
0.0
 40
0.001
  1
METAL - GLASS
  3

  2
MATERIAL
 70
     8
1001
AcDbAttr
1070
     0
1070
     1
  0
ATTDEF
  5
9B
  8
DEFPOINTS
 10
0.0
 20
-0.0033333333333333
 30
0.0
 40
0.001
  1
TUMBLER AND HOLDER
  3

  2
PRODUCT
 70
     8
1001
AcDbAttr
1070
     0
1070
     1
  0
ATTDEF
  5
9C
  8
DEFPOINTS
 10
0.0
 20
-0.0016666666666667
 30
0.0
 40
0.001
  1
DEVONSHIRE
  3

  2
TRADENAME
 70
     8
1001
AcDbAttr
1070
     0
1070
     1
  0
ATTDEF
  5
9D
  8
DEFPOINTS
 10
0.0
 20
0.0
 30
0.0
 40
0.001
  1
K-10561
  3

  2
MODELNUMBER
 70
     8
1001
AcDbAttr
1070
     0
1070
     1
  0
ENDSEC
  0
EOF
