  0
SECTION
  2
HEADER
  9
$ACADVER
  1
AC1009
  9
$INSBASE
 10
0.0
 20
0.0
 30
0.0
  9
$EXTMIN
 10
-3.7256645068181942
 20
-1.1875
 30
0.0
  9
$EXTMAX
 10
0.0106666666666667
 20
1.1875
 30
0.0
  9
$LIMMIN
 10
0.0
 20
0.0
  9
$LIMMAX
 10
12.0
 20
9.0
  9
$ORTHOMODE
 70
     0
  9
$REGENMODE
 70
     1
  9
$FILLMODE
 70
     1
  9
$QTEXTMODE
 70
     0
  9
$MIRRTEXT
 70
     1
  9
$DRAGMODE
 70
     2
  9
$LTSCALE
 40
1.0
  9
$OSMODE
 70
    37
  9
$ATTMODE
 70
     1
  9
$TEXTSIZE
 40
0.001
  9
$TRACEWID
 40
0.05
  9
$TEXTSTYLE
  7
STANDARD
  9
$CLAYER
  8
0
  9
$CELTYPE
  6
BYLAYER
  9
$CECOLOR
 62
   256
  9
$DIMSCALE
 40
1.0
  9
$DIMASZ
 40
0.18
  9
$DIMEXO
 40
0.0625
  9
$DIMDLI
 40
0.38
  9
$DIMRND
 40
0.0
  9
$DIMDLE
 40
0.0
  9
$DIMEXE
 40
0.18
  9
$DIMTP
 40
0.0
  9
$DIMTM
 40
0.0
  9
$DIMTXT
 40
0.18
  9
$DIMCEN
 40
0.09
  9
$DIMTSZ
 40
0.0
  9
$DIMTOL
 70
     0
  9
$DIMLIM
 70
     0
  9
$DIMTIH
 70
     1
  9
$DIMTOH
 70
     1
  9
$DIMSE1
 70
     0
  9
$DIMSE2
 70
     0
  9
$DIMTAD
 70
     0
  9
$DIMZIN
 70
     0
  9
$DIMBLK
  1

  9
$DIMASO
 70
     1
  9
$DIMSHO
 70
     1
  9
$DIMPOST
  1

  9
$DIMAPOST
  1

  9
$DIMALT
 70
     0
  9
$DIMALTD
 70
     2
  9
$DIMALTF
 40
25.399999999999999
  9
$DIMLFAC
 40
1.0
  9
$DIMTOFL
 70
     0
  9
$DIMTVP
 40
0.0
  9
$DIMTIX
 70
     0
  9
$DIMSOXD
 70
     0
  9
$DIMSAH
 70
     0
  9
$DIMBLK1
  1

  9
$DIMBLK2
  1

  9
$DIMSTYLE
  2
STANDARD
  9
$DIMCLRD
 70
     0
  9
$DIMCLRE
 70
     0
  9
$DIMCLRT
 70
     0
  9
$DIMTFAC
 40
1.0
  9
$DIMGAP
 40
0.09
  9
$LUNITS
 70
     2
  9
$LUPREC
 70
     4
  9
$SKETCHINC
 40
0.1
  9
$FILLETRAD
 40
0.0
  9
$AUNITS
 70
     0
  9
$AUPREC
 70
     0
  9
$MENU
  1
.
  9
$ELEVATION
 40
0.0
  9
$PELEVATION
 40
0.0
  9
$THICKNESS
 40
0.0
  9
$LIMCHECK
 70
     0
  9
$BLIPMODE
 70
     0
  9
$CHAMFERA
 40
0.5
  9
$CHAMFERB
 40
0.5
  9
$SKPOLY
 70
     0
  9
$TDCREATE
 40
2451380.555432396
  9
$TDUPDATE
 40
2456700.4982238999
  9
$TDINDWG
 40
0.1122270139
  9
$TDUSRTIMER
 40
0.1122179745
  9
$USRTIMER
 70
     1
  9
$ANGBASE
 50
0.0
  9
$ANGDIR
 70
     0
  9
$PDMODE
 70
     0
  9
$PDSIZE
 40
0.0
  9
$PLINEWID
 40
0.0
  9
$COORDS
 70
     1
  9
$SPLFRAME
 70
     0
  9
$SPLINETYPE
 70
     6
  9
$SPLINESEGS
 70
     8
  9
$ATTDIA
 70
     0
  9
$ATTREQ
 70
     1
  9
$HANDLING
 70
     1
  9
$HANDSEED
  5
20A
  9
$SURFTAB1
 70
     6
  9
$SURFTAB2
 70
     6
  9
$SURFTYPE
 70
     6
  9
$SURFU
 70
     6
  9
$SURFV
 70
     6
  9
$UCSNAME
  2

  9
$UCSORG
 10
0.0
 20
0.0
 30
0.0
  9
$UCSXDIR
 10
1.0
 20
0.0
 30
0.0
  9
$UCSYDIR
 10
0.0
 20
1.0
 30
0.0
  9
$PUCSNAME
  2

  9
$PUCSORG
 10
0.0
 20
0.0
 30
0.0
  9
$PUCSXDIR
 10
1.0
 20
0.0
 30
0.0
  9
$PUCSYDIR
 10
0.0
 20
1.0
 30
0.0
  9
$USERI1
 70
     0
  9
$USERI2
 70
     0
  9
$USERI3
 70
     0
  9
$USERI4
 70
     0
  9
$USERI5
 70
     0
  9
$USERR1
 40
0.0
  9
$USERR2
 40
0.0
  9
$USERR3
 40
0.0
  9
$USERR4
 40
0.0
  9
$USERR5
 40
0.0
  9
$WORLDVIEW
 70
     1
  9
$SHADEDGE
 70
     3
  9
$SHADEDIF
 70
    70
  9
$TILEMODE
 70
     1
  9
$MAXACTVP
 70
    64
  9
$PLIMCHECK
 70
     0
  9
$PEXTMIN
 10
1.0000000000000000E+020
 20
1.0000000000000000E+020
 30
1.0000000000000000E+020
  9
$PEXTMAX
 10
-1.0000000000000000E+020
 20
-1.0000000000000000E+020
 30
-1.0000000000000000E+020
  9
$PLIMMIN
 10
0.0
 20
0.0
  9
$PLIMMAX
 10
12.0
 20
9.0
  9
$UNITMODE
 70
     0
  9
$VISRETAIN
 70
     1
  9
$PLINEGEN
 70
     0
  9
$PSLTSCALE
 70
     1
  0
ENDSEC
  0
SECTION
  2
TABLES
  0
TABLE
  2
VPORT
 70
     1
  0
VPORT
  2
*ACTIVE
 70
     0
 10
0.0
 20
0.0
 11
1.0
 21
1.0
 12
-1.8579319629199771
 22
0.4559144483840237
 13
0.0
 23
0.0
 14
0.5
 24
0.5
 15
0.5
 25
0.5
 16
0.0
 26
0.0
 36
1.0
 17
0.0
 27
0.0
 37
0.0
 40
3.3070871253757508
 41
1.1829652996845419
 42
50.0
 43
0.0
 44
0.0
 50
0.0
 51
0.0
 71
     0
 72
  5000
 73
     1
 74
     1
 75
     0
 76
     0
 77
     0
 78
     0
  0
ENDTAB
  0
TABLE
  2
LTYPE
 70
     2
  0
LTYPE
  2
CONTINUOUS
 70
     0
  3
Solid line
 72
    65
 73
     0
 40
0.0
  0
LTYPE
  2
PHANTOM2
 70
     0
  3
Phantom (.5x) ___ _ _ ___ _ _ ___ _ _ ___ _ _
 72
    65
 73
     6
 40
1.25
 49
0.625
 49
-0.125
 49
0.125
 49
-0.125
 49
0.125
 49
-0.125
  0
ENDTAB
  0
TABLE
  2
LAYER
 70
     2
  0
LAYER
  2
0
 70
     0
 62
     7
  6
CONTINUOUS
  0
LAYER
  2
DEFPOINTS
 70
     0
 62
     7
  6
CONTINUOUS
  0
ENDTAB
  0
TABLE
  2
STYLE
 70
     1
  0
STYLE
  2
STANDARD
 70
     0
 40
0.0
 41
1.0
 50
0.0
 71
     0
 42
0.001
  3
txt
  4

  0
ENDTAB
  0
TABLE
  2
VIEW
 70
     0
  0
ENDTAB
  0
TABLE
  2
UCS
 70
     0
  0
ENDTAB
  0
TABLE
  2
APPID
 70
     7
  0
APPID
  2
ACAD
 70
     0
  0
APPID
  2
ACAD_MLEADERVER
 70
     0
  0
APPID
  2
ACAD_NAV_VCDISPLAY
 70
     0
  0
APPID
  2
ACAECLAYERSTANDARD
 70
     0
  0
APPID
  2
ACCMTRANSPARENCY
 70
     0
  0
APPID
  2
ACAD_EXEMPT_FROM_CAD_STANDARDS
 70
     0
  0
APPID
  2
AcDbAttr
 70
     0
  0
ENDTAB
  0
TABLE
  2
DIMSTYLE
 70
     1
  0
DIMSTYLE
  2
STANDARD
 70
     0
  3

  4

  5

  6

  7

 40
1.0
 41
0.18
 42
0.0625
 43
0.38
 44
0.18
 45
0.0
 46
0.0
 47
0.0
 48
0.0
140
0.18
141
0.09
142
0.0
143
25.399999999999999
144
1.0
145
0.0
146
1.0
147
0.09
 71
     0
 72
     0
 73
     1
 74
     1
 75
     0
 76
     0
 77
     0
 78
     0
170
     0
171
     2
172
     0
173
     0
174
     0
175
     0
176
     0
177
     0
178
     0
  0
ENDTAB
  0
ENDSEC
  0
SECTION
  2
BLOCKS
  0
BLOCK
  8
0
  2
$MODEL_SPACE
 70
     2
 10
0.0
 20
0.0
 30
0.0
  3
$MODEL_SPACE
  1

  0
ENDBLK
  5
16
  8
0
  0
BLOCK
 67
     1
  8
0
  2
$PAPER_SPACE
 70
     0
 10
0.0
 20
0.0
 30
0.0
  3
$PAPER_SPACE
  1

  0
ENDBLK
  5
1D
 67
     1
  8
0
  0
ENDSEC
  0
SECTION
  2
ENTITIES
  0
ATTDEF
  5
89
  8
DEFPOINTS
 10
0.0
 20
0.0
 30
0.0
 40
0.001
  1
K-10554
  3

  2
MODELNUMBER
 70
     8
1001
AcDbAttr
1070
     0
1070
     1
  0
ATTDEF
  5
8A
  8
DEFPOINTS
 10
0.0
 20
-0.005
 30
0.0
 40
0.001
  1
METAL
  3

  2
MATERIAL
 70
     8
1001
AcDbAttr
1070
     0
1070
     1
  0
ATTDEF
  5
8B
  8
DEFPOINTS
 10
0.0
 20
-0.0033333333333333
 30
0.0
 40
0.001
  1
TOILET TISSUE HOLDER
  3

  2
PRODUCT
 70
     8
1001
AcDbAttr
1070
     0
1070
     1
  0
ATTDEF
  5
8C
  8
DEFPOINTS
 10
0.0
 20
-0.0016666666666667
 30
0.0
 40
0.001
  1
DEVONSHIRE
  3

  2
TRADENAME
 70
     8
1001
AcDbAttr
1070
     0
1070
     1
  0
POLYLINE
  5
119
  8
0
 66
     1
 10
0.0
 20
0.0
 30
0.0
  0
VERTEX
  5
1B4
  8
0
 10
-2.408367394304963
 20
-0.3766100603362101
 30
0.0
  0
VERTEX
  5
1B5
  8
0
 10
-2.3764928449275491
 20
-0.4117946590720476
 30
0.0
  0
VERTEX
  5
1B6
  8
0
 10
-2.3318684757991699
 20
-0.4117946590720476
 30
0.0
  0
VERTEX
  5
1B7
  8
0
 10
-2.3030587869388159
 20
-0.4309193886984959
 30
0.0
  0
VERTEX
  5
1B8
  8
0
 10
-2.3030587869388159
 20
-0.4788538071852986
 30
0.0
  0
VERTEX
  5
1B9
  8
0
 10
-2.271184237561402
 20
-0.5139158115004534
 30
0.0
  0
VERTEX
  5
1BA
  8
0
 10
-2.2361222332462471
 20
-0.5139158115004534
 30
0.0
  0
VERTEX
  5
1BB
  8
0
 10
-2.2074351388065749
 20
-0.545790360877867
 30
0.0
  0
VERTEX
  5
1BC
  8
0
 10
-2.2074351388065749
 20
-0.5841624145514457
 30
0.0
  0
VERTEX
  5
1BD
  8
0
 10
-2.175560589429161
 20
-0.6160369639288592
 30
0.0
  0
VERTEX
  5
1BE
  8
0
 10
-2.0543147073743069
 20
-0.6160369639288592
 30
0.0
  0
VERTEX
  5
1BF
  8
0
 10
-2.0256276129346351
 20
-0.5841624145514457
 30
0.0
  0
VERTEX
  5
1C0
  8
0
 10
-2.0256276129346351
 20
-0.545790360877867
 30
0.0
  0
VERTEX
  5
1C1
  8
0
 10
-1.99681792407428
 20
-0.5139158115004534
 30
0.0
  0
VERTEX
  5
1C2
  8
0
 10
-1.9553810098836431
 20
-0.5139158115004534
 30
0.0
  0
VERTEX
  5
1C3
  8
0
 10
-1.92669391544397
 20
-0.4309193886984959
 30
0.0
  0
VERTEX
  5
1C4
  8
0
 10
-1.6013283229529871
 20
-0.3990448393210819
 30
0.0
  0
VERTEX
  5
1C5
  8
0
 10
-1.6013283229529871
 20
-0.4213570238852716
 30
0.0
  0
VERTEX
  5
1C6
  8
0
 10
-1.575828683451056
 20
-0.4532315732626851
 30
0.0
  0
VERTEX
  5
1C7
  8
0
 10
-1.4195207970810459
 20
-0.4532315732626851
 30
0.0
  0
VERTEX
  5
1C8
  8
0
 10
-1.3940211575791159
 20
-0.4022322942588233
 30
0.0
  0
VERTEX
  5
1C9
  8
0
 10
-0.9792842324106922
 20
-0.4404817535117198
 30
0.0
  0
VERTEX
  5
1CA
  8
0
 10
-0.2710562641286982
 20
-0.8489663632253435
 30
0.0
  0
VERTEX
  5
1CB
  8
0
 10
-0.2487440795645082
 20
-0.8873384168989222
 30
0.0
  0
VERTEX
  5
1CC
  8
0
 10
-0.2487440795645082
 20
-0.9415251508405254
 30
0.0
  0
VERTEX
  5
1CD
  8
0
 10
-0.1722451610587159
 20
-0.9830846594518455
 30
0.0
  0
VERTEX
  5
1CE
  8
0
 10
-0.1722451610587159
 20
-1.056518717440579
 30
0.0
  0
VERTEX
  5
1CF
  8
0
 10
-0.0924361931944997
 20
-1.097955631631216
 30
0.0
  0
VERTEX
  5
1D0
  8
0
 10
-0.0924361931944997
 20
-1.1588129055603269
 30
0.0
  0
VERTEX
  5
1D1
  8
0
 10
-0.0701240086303097
 20
-1.1875
 30
0.0
  0
VERTEX
  5
1D2
  8
0
 10
0.0
 20
-1.1875
 30
0.0
  0
VERTEX
  5
1D3
  8
0
 10
0.0
 20
0.0
 30
0.0
  0
VERTEX
  5
1D4
  8
0
 10
0.0
 20
1.1875
 30
0.0
  0
VERTEX
  5
1D5
  8
0
 10
-0.0701240086303097
 20
1.1875
 30
0.0
  0
VERTEX
  5
1D6
  8
0
 10
-0.0924361931944997
 20
1.1588129055603269
 30
0.0
  0
VERTEX
  5
1D7
  8
0
 10
-0.0924361931944997
 20
1.097955631631216
 30
0.0
  0
VERTEX
  5
1D8
  8
0
 10
-0.1722451610587159
 20
1.056518717440579
 30
0.0
  0
VERTEX
  5
1D9
  8
0
 10
-0.1722451610587159
 20
0.9830846594518455
 30
0.0
  0
VERTEX
  5
1DA
  8
0
 10
-0.2487440795645082
 20
0.9415251508405254
 30
0.0
  0
VERTEX
  5
1DB
  8
0
 10
-0.2487440795645082
 20
0.8873384168989222
 30
0.0
  0
VERTEX
  5
1DC
  8
0
 10
-0.2710562641286982
 20
0.8489663632253435
 30
0.0
  0
VERTEX
  5
1DD
  8
0
 10
-0.9792842324106922
 20
0.4404817535117198
 30
0.0
  0
VERTEX
  5
1DE
  8
0
 10
-1.3940211575791159
 20
0.4022322942588233
 30
0.0
  0
VERTEX
  5
1DF
  8
0
 10
-1.4195207970810459
 20
0.4532315732626851
 30
0.0
  0
VERTEX
  5
1E0
  8
0
 10
-1.575828683451056
 20
0.4532315732626851
 30
0.0
  0
VERTEX
  5
1E1
  8
0
 10
-1.6013283229529871
 20
0.4213570238852716
 30
0.0
  0
VERTEX
  5
1E2
  8
0
 10
-1.6013283229529871
 20
0.3990448393210819
 30
0.0
  0
VERTEX
  5
1E3
  8
0
 10
-1.92669391544397
 20
0.4309193886984959
 30
0.0
  0
VERTEX
  5
1E4
  8
0
 10
-1.9553810098836431
 20
0.5139158115004534
 30
0.0
  0
VERTEX
  5
1E5
  8
0
 10
-1.99681792407428
 20
0.5139158115004534
 30
0.0
  0
VERTEX
  5
1E6
  8
0
 10
-2.0256276129346351
 20
0.545790360877867
 30
0.0
  0
VERTEX
  5
1E7
  8
0
 10
-2.0256276129346351
 20
0.5841624145514457
 30
0.0
  0
VERTEX
  5
1E8
  8
0
 10
-2.0543147073743069
 20
0.6160369639288592
 30
0.0
  0
VERTEX
  5
1E9
  8
0
 10
-2.175560589429161
 20
0.6160369639288592
 30
0.0
  0
VERTEX
  5
1EA
  8
0
 10
-2.2074351388065749
 20
0.5841624145514457
 30
0.0
  0
VERTEX
  5
1EB
  8
0
 10
-2.2074351388065749
 20
0.545790360877867
 30
0.0
  0
VERTEX
  5
1EC
  8
0
 10
-2.2361222332462471
 20
0.5139158115004534
 30
0.0
  0
VERTEX
  5
1ED
  8
0
 10
-2.271184237561402
 20
0.5139158115004534
 30
0.0
  0
VERTEX
  5
1EE
  8
0
 10
-2.3030587869388159
 20
0.4788538071852986
 30
0.0
  0
VERTEX
  5
1EF
  8
0
 10
-2.3030587869388159
 20
0.4309193886984959
 30
0.0
  0
VERTEX
  5
1F0
  8
0
 10
-2.3318684757991699
 20
0.4117946590720476
 30
0.0
  0
VERTEX
  5
1F1
  8
0
 10
-2.3764928449275491
 20
0.4117946590720476
 30
0.0
  0
VERTEX
  5
1F2
  8
0
 10
-2.408367394304963
 20
0.3766100603362101
 30
0.0
  0
SEQEND
  5
1F3
  8
0
  0
POLYLINE
  5
11B
  8
0
 66
     1
 10
0.0
 20
0.0
 30
0.0
  0
VERTEX
  5
1F4
  8
0
 10
-2.408367394304963
 20
0.3766100603362101
 30
0.0
 42
0.1006710392051518
  0
VERTEX
  5
1F5
  8
0
 10
-2.5965498300523859
 20
0.2969236868926761
 30
0.0
 42
-0.1612093509496675
  0
VERTEX
  5
1F6
  8
0
 10
-2.7528577164223949
 20
0.26492654309458
 30
0.0
  0
VERTEX
  5
1F7
  8
0
 10
-2.842229049099835
 20
0.2681139980323213
 30
0.0
  0
VERTEX
  5
1F8
  8
0
 10
-2.9123530577301451
 20
0.2681139980323213
 30
0.0
  0
VERTEX
  5
1F9
  8
0
 10
-2.9698498410301721
 20
0.2681139980323213
 30
0.0
  0
VERTEX
  5
1FA
  8
0
 10
-3.004911845345327
 20
0.2713014529700626
 30
0.0
  0
VERTEX
  5
1FB
  8
0
 10
-3.027224029909517
 20
0.2776763628455456
 30
0.0
  0
VERTEX
  5
1FC
  8
0
 10
-3.0335989397850001
 20
0.2905487770171935
 30
0.0
  0
VERTEX
  5
1FD
  8
0
 10
-3.0335989397850001
 20
0.3144546890502535
 30
0.0
  0
SEQEND
  5
1FE
  8
0
  0
ARC
  5
11C
  8
0
 10
-3.037026807990594
 20
0.0000612972103413
 30
0.0
 40
0.6886376988275998
 50
32.038794166429938
 51
327.95106801444268
  0
ARC
  5
11D
  8
0
 10
-3.0334150121919872
 20
0.0000612972103413
 30
0.0
 40
0.4181083121924491
 50
39.067566768614839
 51
320.9117333034315
  0
ARC
  5
11E
  8
0
 10
-3.0335989397850001
 20
0.0442401314529368
 30
0.0
 40
0.2945198519591772
 50
49.475806898475831
 51
115.6783221672089
  0
ARC
  5
11F
  8
0
 10
-3.0453174990396512
 20
0.001498239898055
 30
0.0
 40
0.3292496356458459
 50
110.6108755533124
 51
157.45351209783689
  0
ARC
  5
120
  8
0
 10
-3.0424864458882159
 20
0.0000612972103413
 30
0.0
 40
0.3324153667280599
 50
157.41187005692819
 51
202.58812994307181
  0
ARC
  5
121
  8
0
 10
-3.0335989397850001
 20
-0.0442401314529368
 30
0.0
 40
0.2945198519591772
 50
244.3216778327911
 51
310.52419310152408
  0
ARC
  5
122
  8
0
 10
-3.0453174990396512
 20
-0.001498239898055
 30
0.0
 40
0.3292496356458459
 50
202.54648790216311
 51
249.38912444668759
  0
POLYLINE
  5
123
  8
0
 66
     1
 10
0.0
 20
0.0
 30
0.0
  0
VERTEX
  5
1FF
  8
0
 10
-2.408367394304963
 20
-0.3766100603362101
 30
0.0
 42
-0.1006710392051518
  0
VERTEX
  5
200
  8
0
 10
-2.5965498300523859
 20
-0.2969236868926761
 30
0.0
 42
0.1612093509496675
  0
VERTEX
  5
201
  8
0
 10
-2.7528577164223949
 20
-0.26492654309458
 30
0.0
  0
VERTEX
  5
202
  8
0
 10
-2.842229049099835
 20
-0.2681139980323213
 30
0.0
  0
VERTEX
  5
203
  8
0
 10
-2.9123530577301451
 20
-0.2681139980323213
 30
0.0
  0
VERTEX
  5
204
  8
0
 10
-2.9698498410301721
 20
-0.2681139980323213
 30
0.0
  0
VERTEX
  5
205
  8
0
 10
-3.004911845345327
 20
-0.2713014529700626
 30
0.0
  0
VERTEX
  5
206
  8
0
 10
-3.027224029909517
 20
-0.2776763628455456
 30
0.0
  0
VERTEX
  5
207
  8
0
 10
-3.0335989397850001
 20
-0.2905487770171935
 30
0.0
  0
VERTEX
  5
208
  8
0
 10
-3.0335989397850001
 20
-0.3144546890502535
 30
0.0
  0
SEQEND
  5
209
  8
0
  0
LINE
  5
124
  8
0
 10
-0.0924361931944997
 20
1.097955631631216
 30
0.0
 11
-0.0924361931944997
 21
-1.097955631631216
 31
0.0
  0
LINE
  5
125
  8
0
 10
-0.1722451610587159
 20
-0.9830846594518455
 30
0.0
 11
-0.1722451610587159
 21
0.9830846594518455
 31
0.0
  0
LINE
  5
126
  8
0
 10
-0.2487440795645082
 20
0.8873384168989222
 30
0.0
 11
-0.2487440795645082
 21
-0.8873384168989222
 31
0.0
  0
LINE
  5
127
  8
0
 10
-1.3940211575791159
 20
0.4022322942588233
 30
0.0
 11
-1.3940211575791159
 21
-0.4022322942588233
 31
0.0
  0
LINE
  5
128
  8
0
 10
-1.6013283229529871
 20
0.3990448393210819
 30
0.0
 11
-1.6013283229529871
 21
-0.3990448393210819
 31
0.0
  0
LINE
  5
129
  8
0
 10
-1.4195207970810459
 20
0.4532315732626851
 30
0.0
 11
-1.4195207970810459
 21
-0.4532315732626851
 31
0.0
  0
LINE
  5
12A
  8
0
 10
-1.575828683451056
 20
0.4532315732626851
 30
0.0
 11
-1.575828683451056
 21
-0.4532315732626851
 31
0.0
  0
LINE
  5
12B
  8
0
 10
-1.92669391544397
 20
0.4309193886984959
 30
0.0
 11
-1.92669391544397
 21
-0.4309193886984959
 31
0.0
  0
LINE
  5
12C
  8
0
 10
-2.0256276129346351
 20
0.545790360877867
 30
0.0
 11
-2.0256276129346351
 21
-0.545790360877867
 31
0.0
  0
LINE
  5
12D
  8
0
 10
-2.2074351388065749
 20
0.545790360877867
 30
0.0
 11
-2.2074351388065749
 21
-0.545790360877867
 31
0.0
  0
LINE
  5
12E
  8
0
 10
-1.99681792407428
 20
0.5139158115004534
 30
0.0
 11
-1.99681792407428
 21
-0.5139158115004534
 31
0.0
  0
LINE
  5
12F
  8
0
 10
-2.2361222332462471
 20
0.5139158115004534
 30
0.0
 11
-2.2361222332462471
 21
-0.5139158115004534
 31
0.0
  0
LINE
  5
130
  8
0
 10
-2.3030587869388159
 20
-0.4309193886984959
 30
0.0
 11
-2.3030587869388159
 21
0.4309193886984959
 31
0.0
  0
ENDSEC
  0
EOF
